  0
SECTION
  2
HEADER
  9
$ACADVER
  1
AC1015
  9
$ACADMAINTVER
 70
    20
  9
$DWGCODEPAGE
  3
ANSI_1250
  9
$INSBASE
 10
0.0
 20
0.0
 30
0.0
  9
$EXTMIN
 10
35153.58512866178
 20
-2439.497406175054
 30
-0.0000000000112497
  9
$EXTMAX
 10
38957.95696336923
 20
1361.009204248954
 30
0.0000000000002956
  9
$LIMMIN
 10
0.0
 20
0.0
  9
$LIMMAX
 10
420.0
 20
297.0
  9
$ORTHOMODE
 70
     1
  9
$REGENMODE
 70
     1
  9
$FILLMODE
 70
     1
  9
$QTEXTMODE
 70
     0
  9
$MIRRTEXT
 70
     0
  9
$LTSCALE
 40
1.0
  9
$ATTMODE
 70
     1
  9
$TEXTSIZE
 40
0.2
  9
$TRACEWID
 40
0.05
  9
$TEXTSTYLE
  7
Standard
  9
$CLAYER
  8
0
  9
$CELTYPE
  6
ByLayer
  9
$CECOLOR
 62
   256
  9
$CELTSCALE
 40
1.0
  9
$DISPSILH
 70
     0
  9
$DIMSCALE
 40
1.0
  9
$DIMASZ
 40
1.799999999999999
  9
$DIMEXO
 40
0.0625
  9
$DIMDLI
 40
0.38
  9
$DIMRND
 40
0.0
  9
$DIMDLE
 40
0.0
  9
$DIMEXE
 40
0.18
  9
$DIMTP
 40
0.0
  9
$DIMTM
 40
0.0
  9
$DIMTXT
 40
0.3499999940395355
  9
$DIMCEN
 40
0.09
  9
$DIMTSZ
 40
0.0
  9
$DIMTOL
 70
     0
  9
$DIMLIM
 70
     0
  9
$DIMTIH
 70
     1
  9
$DIMTOH
 70
     1
  9
$DIMSE1
 70
     0
  9
$DIMSE2
 70
     0
  9
$DIMTAD
 70
     0
  9
$DIMZIN
 70
     0
  9
$DIMBLK
  1

  9
$DIMASO
 70
     1
  9
$DIMSHO
 70
     1
  9
$DIMPOST
  1

  9
$DIMAPOST
  1

  9
$DIMALT
 70
     0
  9
$DIMALTD
 70
     2
  9
$DIMALTF
 40
25.4
  9
$DIMLFAC
 40
1.0
  9
$DIMTOFL
 70
     0
  9
$DIMTVP
 40
0.0
  9
$DIMTIX
 70
     0
  9
$DIMSOXD
 70
     0
  9
$DIMSAH
 70
     0
  9
$DIMBLK1
  1

  9
$DIMBLK2
  1

  9
$DIMSTYLE
  2
Standard
  9
$DIMCLRD
 70
     0
  9
$DIMCLRE
 70
     0
  9
$DIMCLRT
 70
     0
  9
$DIMTFAC
 40
1.0
  9
$DIMGAP
 40
0.09
  9
$DIMJUST
 70
     0
  9
$DIMSD1
 70
     0
  9
$DIMSD2
 70
     0
  9
$DIMTOLJ
 70
     1
  9
$DIMTZIN
 70
     0
  9
$DIMALTZ
 70
     0
  9
$DIMALTTZ
 70
     0
  9
$DIMUPT
 70
     0
  9
$DIMDEC
 70
     4
  9
$DIMTDEC
 70
     4
  9
$DIMALTU
 70
     2
  9
$DIMALTTD
 70
     2
  9
$DIMTXSTY
  7
Standard
  9
$DIMAUNIT
 70
     0
  9
$DIMADEC
 70
     0
  9
$DIMALTRND
 40
0.0
  9
$DIMAZIN
 70
     0
  9
$DIMDSEP
 70
    46
  9
$DIMATFIT
 70
     3
  9
$DIMFRAC
 70
     0
  9
$DIMLDRBLK
  1

  9
$DIMLUNIT
 70
     2
  9
$DIMLWD
 70
    -2
  9
$DIMLWE
 70
    -2
  9
$DIMTMOVE
 70
     0
  9
$LUNITS
 70
     2
  9
$LUPREC
 70
     2
  9
$SKETCHINC
 40
0.1
  9
$FILLETRAD
 40
10.0
  9
$AUNITS
 70
     0
  9
$AUPREC
 70
     0
  9
$MENU
  1
.
  9
$ELEVATION
 40
0.0
  9
$PELEVATION
 40
0.0
  9
$THICKNESS
 40
0.0
  9
$LIMCHECK
 70
     0
  9
$CHAMFERA
 40
0.0
  9
$CHAMFERB
 40
0.0
  9
$CHAMFERC
 40
0.0
  9
$CHAMFERD
 40
0.0
  9
$SKPOLY
 70
     0
  9
$TDCREATE
 40
2458022.861501852
  9
$TDUCREATE
 40
2458022.778168519
  9
$TDUPDATE
 40
2458667.564107315
  9
$TDUUPDATE
 40
2458667.480773982
  9
$TDINDWG
 40
1.0330989699
  9
$TDUSRTIMER
 40
1.0330986227
  9
$USRTIMER
 70
     1
  9
$ANGBASE
 50
0.0
  9
$ANGDIR
 70
     0
  9
$PDMODE
 70
     0
  9
$PDSIZE
 40
0.0
  9
$PLINEWID
 40
0.0
  9
$SPLFRAME
 70
     0
  9
$SPLINETYPE
 70
     6
  9
$SPLINESEGS
 70
     8
  9
$HANDSEED
  5
1D2EDF
  9
$SURFTAB1
 70
     6
  9
$SURFTAB2
 70
     6
  9
$SURFTYPE
 70
     6
  9
$SURFU
 70
     6
  9
$SURFV
 70
     6
  9
$UCSBASE
  2

  9
$UCSNAME
  2

  9
$UCSORG
 10
0.0
 20
0.0
 30
0.0
  9
$UCSXDIR
 10
1.0
 20
0.0
 30
0.0
  9
$UCSYDIR
 10
0.0
 20
1.0
 30
0.0
  9
$UCSORTHOREF
  2

  9
$UCSORTHOVIEW
 70
     0
  9
$UCSORGTOP
 10
0.0
 20
0.0
 30
0.0
  9
$UCSORGBOTTOM
 10
0.0
 20
0.0
 30
0.0
  9
$UCSORGLEFT
 10
0.0
 20
0.0
 30
0.0
  9
$UCSORGRIGHT
 10
0.0
 20
0.0
 30
0.0
  9
$UCSORGFRONT
 10
0.0
 20
0.0
 30
0.0
  9
$UCSORGBACK
 10
0.0
 20
0.0
 30
0.0
  9
$PUCSBASE
  2

  9
$PUCSNAME
  2

  9
$PUCSORG
 10
0.0
 20
0.0
 30
0.0
  9
$PUCSXDIR
 10
1.0
 20
0.0
 30
0.0
  9
$PUCSYDIR
 10
0.0
 20
1.0
 30
0.0
  9
$PUCSORTHOREF
  2

  9
$PUCSORTHOVIEW
 70
     0
  9
$PUCSORGTOP
 10
0.0
 20
0.0
 30
0.0
  9
$PUCSORGBOTTOM
 10
0.0
 20
0.0
 30
0.0
  9
$PUCSORGLEFT
 10
0.0
 20
0.0
 30
0.0
  9
$PUCSORGRIGHT
 10
0.0
 20
0.0
 30
0.0
  9
$PUCSORGFRONT
 10
0.0
 20
0.0
 30
0.0
  9
$PUCSORGBACK
 10
0.0
 20
0.0
 30
0.0
  9
$USERI1
 70
     0
  9
$USERI2
 70
     0
  9
$USERI3
 70
     0
  9
$USERI4
 70
     0
  9
$USERI5
 70
     0
  9
$USERR1
 40
0.0
  9
$USERR2
 40
0.0
  9
$USERR3
 40
0.0
  9
$USERR4
 40
0.0
  9
$USERR5
 40
0.0
  9
$WORLDVIEW
 70
     1
  9
$SHADEDGE
 70
     3
  9
$SHADEDIF
 70
    70
  9
$TILEMODE
 70
     1
  9
$MAXACTVP
 70
    64
  9
$PINSBASE
 10
0.0
 20
0.0
 30
0.0
  9
$PLIMCHECK
 70
     0
  9
$PEXTMIN
 10
0.0
 20
0.0
 30
0.0
  9
$PEXTMAX
 10
420.0
 20
297.0
 30
0.0
  9
$PLIMMIN
 10
0.0
 20
0.0
  9
$PLIMMAX
 10
420.0
 20
297.0
  9
$UNITMODE
 70
     0
  9
$VISRETAIN
 70
     1
  9
$PLINEGEN
 70
     0
  9
$PSLTSCALE
 70
     1
  9
$TREEDEPTH
 70
  3020
  9
$CMLSTYLE
  2
Standard
  9
$CMLJUST
 70
     0
  9
$CMLSCALE
 40
1.0
  9
$PROXYGRAPHICS
 70
     1
  9
$MEASUREMENT
 70
     1
  9
$CELWEIGHT
370
    -1
  9
$ENDCAPS
280
     0
  9
$JOINSTYLE
280
     0
  9
$LWDISPLAY
290
     0
  9
$INSUNITS
 70
     4
  9
$HYPERLINKBASE
  1

  9
$STYLESHEET
  1
MONOCHROME.CTB
  9
$XEDIT
290
     1
  9
$CEPSNTYPE
380
     0
  9
$PSTYLEMODE
290
     1
  9
$FINGERPRINTGUID
  2
{EE324C07-26EA-43F5-BF4C-34F6154CD393}
  9
$VERSIONGUID
  2
{240AB12B-E593-4F10-8AFC-40140F8E4582}
  9
$EXTNAMES
290
     1
  9
$PSVPSCALE
 40
0.0
  9
$OLESTARTUP
290
     0
  0
ENDSEC
  0
SECTION
  2
CLASSES
  0
CLASS
  1
ACDBDICTIONARYWDFLT
  2
AcDbDictionaryWithDefault
  3
ObjectDBX Classes
 90
        0
280
     0
281
     0
  0
CLASS
  1
MATERIAL
  2
AcDbMaterial
  3
ObjectDBX Classes
 90
     1153
280
     0
281
     0
  0
CLASS
  1
VISUALSTYLE
  2
AcDbVisualStyle
  3
ObjectDBX Classes
 90
     4095
280
     0
281
     0
  0
CLASS
  1
SCALE
  2
AcDbScale
  3
ObjectDBX Classes
 90
     1153
280
     0
281
     0
  0
CLASS
  1
TABLESTYLE
  2
AcDbTableStyle
  3
ObjectDBX Classes
 90
     4095
280
     0
281
     0
  0
CLASS
  1
MLEADERSTYLE
  2
AcDbMLeaderStyle
  3
ACDB_MLEADERSTYLE_CLASS
 90
     4095
280
     0
281
     0
  0
CLASS
  1
DICTIONARYVAR
  2
AcDbDictionaryVar
  3
ObjectDBX Classes
 90
        0
280
     0
281
     0
  0
CLASS
  1
ACME_DOCUMENT
  2
AcMeDbDoc
  3
AcMeServices
 90
     1024
280
     0
281
     0
  0
CLASS
  1
AMGSETTINGSOBJ
  2
AmgSettingsObj
  3
"AcadM|Product Description: AutoCAD Mechanical|Company: Autodesk, Inc."
 90
     1024
280
     0
281
     0
  0
CLASS
  1
ACMESCOPE
  2
AcMeScope
  3
AcMeServices
 90
     1024
280
     0
281
     0
  0
CLASS
  1
ACMECOMMANDHISTORY
  2
AcMeCommandHistory
  3
AcMeServices
 90
     1024
280
     0
281
     0
  0
CLASS
  1
ACIMSYSVARMAN
  2
AcImSysVarManager
  3
AcMeServices
 90
     1024
280
     0
281
     0
  0
CLASS
  1
ACIMINTSYSVAR
  2
AcImIntSysVar
  3
AcMeServices
 90
     1024
280
     0
281
     0
  0
CLASS
  1
ACMESTATEMGR
  2
AcMeStateMgr
  3
AcMeServices
 90
     1024
280
     0
281
     0
  0
CLASS
  1
ACDBENTITYCACHE
  2
AcMeEntityCache
  3
AcMeServices
 90
     1024
280
     0
281
     0
  0
CLASS
  1
ACGREFMASTER
  2
AcGrefMaster
  3
AcAttribServices
 90
     1024
280
     0
281
     0
  0
CLASS
  1
AM_DRAWING_MGR
  2
AcDmDwgMgr
  3
AcMechDwgViewMgmt
 90
     1024
280
     0
281
     0
  0
CLASS
  1
AM_DWG_DOCUMENT
  2
AcDmDwgDocument
  3
AcMechDwgViewMgmt
 90
     1024
280
     0
281
     0
  0
CLASS
  1
AM_DWG_SHEET
  2
AcDmSheet
  3
AcMechDwgViewMgmt
 90
     1024
280
     0
281
     0
  0
CLASS
  1
AM_VIEWDIMPARMAP
  2
AcDmViewDimParMap
  3
AcMechDwgViewMgmt
 90
     1024
280
     0
281
     0
  0
CLASS
  1
AMDTINTERNALREACTOR
  2
AmdtInternalReactor
  3
AcMeServices
 90
     1024
280
     0
281
     0
  0
CLASS
  1
ACIMREALSYSVAR
  2
AcImRealSysVar
  3
AcMeServices
 90
     1024
280
     0
281
     0
  0
CLASS
  1
AM_DWGMGR_NAME
  2
AcDmDwgMgrName
  3
AcMechDwgViewMgmt
 90
     1024
280
     0
281
     0
  0
CLASS
  1
ACME_DATABASE
  2
AcMeDbDatabase
  3
AcMeServices
 90
     1024
280
     0
281
     0
  0
CLASS
  1
ACRFINSADJUSTERMGR
  2
AcRfInsAdjusterMgr
  3
AcMeServices
 90
     1024
280
     0
281
     0
  0
CLASS
  1
ACGREFACADMASTER
  2
AcGrefacadMaster
  3
AcGrefServices
 90
     1024
280
     0
281
     0
  0
CLASS
  1
AMDTMENUSTATEMGR
  2
AmdtMenuStateMgr
  3
McadcomServices
 90
     1024
280
     0
281
     0
  0
CLASS
  1
AMDTMCOMMENUSTATE
  2
AmdtMcomMenuState
  3
McadcomServices
 90
     1024
280
     0
281
     0
  0
CLASS
  1
AMIMASTER
  2
AmiMaster
  3
AmiServices
 90
     1024
280
     0
281
     0
  0
CLASS
  1
MAPIAMMOUDLE
  2
MApiAmModule
  3
MApiAmServices
 90
     1024
280
     0
281
     0
  0
CLASS
  1
ACIMSTRSYSVAR
  2
AcImStrSysVar
  3
AcMeServices
 90
     1024
280
     0
281
     0
  0
CLASS
  1
AMDTDMMENUSTATE
  2
AmdtDmMenuState
  3
AcMechDwgViewMgmt
 90
     1024
280
     0
281
     0
  0
CLASS
  1
AMDTAMMENUSTATE
  2
AmdtAmMenuState
  3
DesignerAssemblies
 90
     1024
280
     0
281
     0
  0
CLASS
  1
ACAMPROJECT
  2
AcAmProject
  3
DesignerAssemblies
 90
     1024
280
     0
281
     0
  0
CLASS
  1
ACAMGRCOMPDEF
  2
AcAmGrCompDef
  3
DesignerAssemblies
 90
     1024
280
     0
281
     0
  0
CLASS
  1
ACAMCOMPDEF
  2
AcAmCompDef
  3
DesignerAssemblies
 90
     1024
280
     0
281
     0
  0
CLASS
  1
ACAMCOMPDEFMGR
  2
AcAmCompDefMgr
  3
DesignerAssemblies
 90
     1024
280
     0
281
     0
  0
CLASS
  1
AMCONTEXTMGR
  2
AcAmContextMgr
  3
DesignerAssemblies
 90
     1024
280
     0
281
     0
  0
CLASS
  1
ACAMCONTEXTMODELER
  2
AcAmContextModeler
  3
DesignerAssemblies
 90
     1024
280
     0
281
     0
  0
CLASS
  1
ACMDATADICTIONARY
  2
AcmDataDictionary
  3
"AcmSymBB|Product Description: AutoCAD Mechanical|Company: Autodesk, Inc."
 90
     1024
280
     0
281
     0
  0
CLASS
  1
ACAMGRCOMPDEFSET
  2
AcAmGrCompDefSet
  3
DesignerAssemblies
 90
     1024
280
     0
281
     0
  0
CLASS
  1
AMDTBROWSERDBTAB
  2
AmdtBrowserDbTab
  3
McadcomServices
 90
     1024
280
     0
281
     0
  0
CLASS
  1
CBROWSERAPPOBJECT
  2
CBrowserAppObject
  3
McadcomServices
 90
     1024
280
     0
281
     0
  0
CLASS
  1
DM_PLACEHOLDER
  2
AcDmSelsetPlaceholder
  3
AcMechDwgViewMgmt
 90
     1024
280
     0
281
     0
  0
CLASS
  1
EXACXREFPANELOBJECT
  2
ExAcXREFPanelObject
  3
EXAC_ESW
 90
     1025
280
     0
281
     0
  0
CLASS
  1
NPOCOLLECTION
  2
AcDbImpNonPersistentObjectsCollection
  3
ObjectDBX Classes
 90
     1153
280
     0
281
     0
  0
CLASS
  1
ACMSTANDARDISO
  2
AcmStandardISO
  3
"Amdt_StdImp|Product Description: AutoCAD Mechanical|Company: Autodesk, Inc."
 90
     1024
280
     0
281
     0
  0
CLASS
  1
AMDTEDGESTANDARDISO13715
  2
AmdtEdgeStdISO13715
  3
"Amdt_StdImp|Product Description: AutoCAD Mechanical|Company: Autodesk, Inc."
 90
     1024
280
     0
281
     0
  0
CLASS
  1
ACMSURFSTANDARDISO2002
  2
AcmSurfTextStdISO2002
  3
"Amdt_StdImp|Product Description: AutoCAD Mechanical|Company: Autodesk, Inc."
 90
     1024
280
     0
281
     0
  0
CLASS
  1
ACMFCFSTANDARDISO
  2
AcmFCFStdISO
  3
"Amdt_StdImp|Product Description: AutoCAD Mechanical|Company: Autodesk, Inc."
 90
     1024
280
     0
281
     0
  0
CLASS
  1
ACMWELDSTANDARDISO
  2
AcmWeldingStdISO
  3
"Amdt_StdImp|Product Description: AutoCAD Mechanical|Company: Autodesk, Inc."
 90
     1024
280
     0
281
     0
  0
CLASS
  1
ACMIDSTANDARDISO
  2
AcmIdStdISO
  3
"Amdt_StdImp|Product Description: AutoCAD Mechanical|Company: Autodesk, Inc."
 90
     1024
280
     0
281
     0
  0
CLASS
  1
ACMDATUMSTANDARDISO
  2
AcmDatumStdISO
  3
"Amdt_StdImp|Product Description: AutoCAD Mechanical|Company: Autodesk, Inc."
 90
     1024
280
     0
281
     0
  0
CLASS
  1
ACMBOMSTANDARDISO
  2
AcmBOMStdISO
  3
"Amdt_StdImp|Product Description: AutoCAD Mechanical|Company: Autodesk, Inc."
 90
     1024
280
     0
281
     0
  0
CLASS
  1
ACMDETAILSTANDARDISO
  2
AmdtDetailSymStdISO
  3
"Amdt_StdImp|Product Description: AutoCAD Mechanical|Company: Autodesk, Inc."
 90
     1024
280
     0
281
     0
  0
CLASS
  1
ACMSECTIONSTANDARDISO2001
  2
AmdtSectionSymStdISO2001
  3
"Amdt_StdImp|Product Description: AutoCAD Mechanical|Company: Autodesk, Inc."
 90
     1024
280
     0
281
     0
  0
CLASS
  1
ACMCENTERLINESTANDARDISO
  2
AmdtCenterLineStdISO
  3
"Amdt_StdImp|Product Description: AutoCAD Mechanical|Company: Autodesk, Inc."
 90
     1024
280
     0
281
     0
  0
CLASS
  1
ACMTHREADLINESTANDARDISO
  2
AmdtThreadLineStdISO
  3
"Amdt_StdImp|Product Description: AutoCAD Mechanical|Company: Autodesk, Inc."
 90
     1024
280
     0
281
     0
  0
CLASS
  1
ACMNOTESTANDARDISO
  2
AmdtNoteStdISO
  3
"Amdt_StdImp|Product Description: AutoCAD Mechanical|Company: Autodesk, Inc."
 90
     1024
280
     0
281
     0
  0
CLASS
  1
ACMTAPERSTANDARDISO
  2
AcmTaperStdISO
  3
"Amdt_StdImp|Product Description: AutoCAD Mechanical|Company: Autodesk, Inc."
 90
     1024
280
     0
281
     0
  0
CLASS
  1
ACMANOOTATIONVIEWSTANDARDISO
  2
AmdtAnViewStdISO
  3
"Amdt_StdImp|Product Description: AutoCAD Mechanical|Company: Autodesk, Inc."
 90
     1024
280
     0
281
     0
  0
CLASS
  1
ACAMGLAYSTD
  2
AcAmgLayStd
  3
"AmgLay|Product Description: AutoCAD Mechanical|Company: Autodesk, Inc."
 90
     1024
280
     0
281
     0
  0
CLASS
  1
ACAMGDIMSTD
  2
AcAmgDimStd
  3
"AmgDim|Product Description: AutoCAD Mechanical|Company: Autodesk, Inc."
 90
     1024
280
     0
281
     0
  0
CLASS
  1
AMGOBJPROPCFG
  2
AmgObjPropCfg
  3
"AmgLay|Product Description: AutoCAD Mechanical|Company: Autodesk, Inc."
 90
     1025
280
     0
281
     0
  0
CLASS
  1
ACAMGHOLECHARTSTDISO
  2
AcAmgHoleChartStdISO
  3
AmgDim|Product Description: AutoCAD Mechanical|Company: Autodesk, Inc.
 90
     1024
280
     0
281
     0
  0
CLASS
  1
ACAMGTITLESTD
  2
AcAmgTitleStd
  3
"AmgTitle|Product Description: AutoCAD Mechanical|Company: Autodesk, Inc."
 90
     4095
280
     0
281
     0
  0
CLASS
  1
AMDTNOTETEMPLATEDB
  2
AmdtNoteTemplateDB
  3
AcmSymBB|Product Description: AutoCAD Mechanical|Company: Autodesk, Inc.
 90
     1024
280
     0
281
     0
  0
CLASS
  1
ACAMGFILTERDAT
  2
AcAmgFilterDat
  3
"AcadM|Product Description: AutoCAD Mechanical|Company: Autodesk, Inc."
 90
    33792
280
     0
281
     0
  0
CLASS
  1
CAMSSTRUCTBTNSTATE
  2
StructBtnState
  3
DesignerAssemblies
 90
     1024
280
     0
281
     0
  0
CLASS
  1
SORTENTSTABLE
  2
AcDbSortentsTable
  3
ObjectDBX Classes
 90
        0
280
     0
281
     0
  0
CLASS
  1
CELLSTYLEMAP
  2
AcDbCellStyleMap
  3
ObjectDBX Classes
 90
     1152
280
     0
281
     0
  0
CLASS
  1
ACDBPLACEHOLDER
  2
AcDbPlaceHolder
  3
ObjectDBX Classes
 90
        0
280
     0
281
     0
  0
CLASS
  1
LAYOUT
  2
AcDbLayout
  3
ObjectDBX Classes
 90
        0
280
     0
281
     0
  0
ENDSEC
  0
SECTION
  2
TABLES
  0
TABLE
  2
VPORT
  5
8
330
0
100
AcDbSymbolTable
 70
     1
  0
VPORT
  5
57
330
8
100
AcDbSymbolTableRecord
100
AcDbViewportTableRecord
  2
*Active
 70
     0
 10
0.0
 20
0.0
 11
1.0
 21
1.0
 12
37055.77104601551
 22
-539.2441009630497
 13
0.0
 23
0.0
 14
1.0
 24
1.0
 15
0.0
 25
0.0
 16
0.0
 26
0.0
 36
1.0
 17
0.0
 27
0.0
 37
0.0
 40
3828.833367768783
 41
2.837064676616915
 42
50.0
 43
0.0
 44
0.0
 50
0.0
 51
0.0
 71
     0
 72
   100
 73
     1
 74
     1
 75
     0
 76
     0
 77
     0
 78
     0
281
     0
 65
     0
110
0.0
120
0.0
130
0.0
111
1.0
121
0.0
131
0.0
112
0.0
122
1.0
132
0.0
 79
     0
146
0.0
  0
ENDTAB
  0
TABLE
  2
LTYPE
  5
5
330
0
100
AcDbSymbolTable
 70
    14
  0
LTYPE
  5
5B
330
5
100
AcDbSymbolTableRecord
100
AcDbLinetypeTableRecord
  2
ByBlock
 70
     0
  3

 72
    65
 73
     0
 40
0.0
  0
LTYPE
  5
5C
330
5
100
AcDbSymbolTableRecord
100
AcDbLinetypeTableRecord
  2
ByLayer
 70
     0
  3

 72
    65
 73
     0
 40
0.0
  0
LTYPE
  5
5D
330
5
100
AcDbSymbolTableRecord
100
AcDbLinetypeTableRecord
  2
Continuous
 70
     0
  3
Solid line
 72
    65
 73
     0
 40
0.0
  0
LTYPE
  5
86
330
5
100
AcDbSymbolTableRecord
100
AcDbLinetypeTableRecord
  2
CENTER
 70
     0
  3
Center ____ _ ____ _ ____ _ ____ _ ____ _ ____
 72
    65
 73
     4
 40
50.8
 49
31.75
 74
     0
 49
-6.349999999999997
 74
     0
 49
6.349999999999997
 74
     0
 49
-6.349999999999997
 74
     0
  0
LTYPE
  5
93
330
5
100
AcDbSymbolTableRecord
100
AcDbLinetypeTableRecord
  2
HIDDEN
 70
     0
  3
Hidden __ __ __ __ __ __ __ __ __ __ __ __ __ _
 72
    65
 73
     2
 40
9.524999999999996
 49
6.349999999999997
 74
     0
 49
-3.174999999999998
 74
     0
  0
LTYPE
  5
97
330
5
100
AcDbSymbolTableRecord
100
AcDbLinetypeTableRecord
  2
PHANTOM2
 70
     0
  3
Phantom (.5x) ___ _ _ ___ _ _ ___ _ _ ___ _ _
 72
    65
 73
     6
 40
31.75
 49
15.875
 74
     0
 49
-3.174999999999998
 74
     0
 49
3.174999999999998
 74
     0
 49
-3.174999999999998
 74
     0
 49
3.174999999999998
 74
     0
 49
-3.174999999999998
 74
     0
  0
LTYPE
  5
22E32
330
5
100
AcDbSymbolTableRecord
100
AcDbLinetypeTableRecord
  2
AM_ISO02W050
 70
     0
  3
__ __ __ __ __ __ __ __ __ __ __ __ __ __ __
 72
    65
 73
     2
 40
7.5
 49
6.0
 74
     0
 49
-1.5
 74
     0
  0
LTYPE
  5
22E33
330
5
100
AcDbSymbolTableRecord
100
AcDbLinetypeTableRecord
  2
AM_ISO08W050
 70
     0
  3
____ . ____ . ____ . ____ . ____ . ____ . ____
 72
    65
 73
     4
 40
18.0
 49
12.0
 74
     0
 49
-1.5
 74
     0
 49
3.0
 74
     0
 49
-1.5
 74
     0
  0
LTYPE
  5
22E34
330
5
100
AcDbSymbolTableRecord
100
AcDbLinetypeTableRecord
  2
AM_ISO09W050
 70
     0
  3
_____ . . _____ . . _____ . . ____ .. ____
 72
    65
 73
     6
 40
22.5
 49
12.0
 74
     0
 49
-1.5
 74
     0
 49
3.0
 74
     0
 49
-1.5
 74
     0
 49
3.0
 74
     0
 49
-1.5
 74
     0
  0
LTYPE
  5
22E35
330
5
100
AcDbSymbolTableRecord
100
AcDbLinetypeTableRecord
  2
Amconstr
 70
     0
  3
_______________________
 72
    65
 73
     2
 40
9999.0
 49
9999.0
 74
     0
 49
0.0
 74
     0
  0
LTYPE
  5
22E36
330
5
100
AcDbSymbolTableRecord
100
AcDbLinetypeTableRecord
  2
AM_ISO08W050x2
 70
     0
  3
__ . __ . __ . __ . __ . __
 72
    65
 73
     4
 40
9.0
 49
6.0
 74
     0
 49
-0.75
 74
     0
 49
1.5
 74
     0
 49
-0.75
 74
     0
  0
LTYPE
  5
22E37
330
5
100
AcDbSymbolTableRecord
100
AcDbLinetypeTableRecord
  2
AM_ISO02W050x2
 70
     0
  3
 _ _ _ _ _ _ _ _ _ _ _ _
 72
    65
 73
     2
 40
3.75
 49
3.0
 74
     0
 49
-0.75
 74
     0
  0
LTYPE
  5
22E3A
330
5
100
AcDbSymbolTableRecord
100
AcDbLinetypeTableRecord
  2
Amzigzag
 70
     0
  3
/\/-/\/-/\/-/\/-/\/-/\/
 72
    65
 73
     2
 40
11.0001
 49
0.0001
 74
     4
 75
   136
340
22E39
 46
0.04
 50
0.0
 44
0.0
 45
0.0
 49
-11.0
 74
     0
  0
LTYPE
  5
22E49
330
5
100
AcDbSymbolTableRecord
100
AcDbLinetypeTableRecord
  2
ACISOWELD
 70
     0
  3
_ _ _ _ _
 72
    65
 73
     2
 40
2.0
 49
2.0
 74
     0
 49
-1.0
 74
     0
  0
LTYPE
  5
22E4A
330
5
100
AcDbSymbolTableRecord
100
AcDbLinetypeTableRecord
  2
ACISOTGB
 70
     0
  3
__ . . __ . .
 72
    65
 73
     6
 40
9.0
 49
4.0
 74
     0
 49
-1.0
 74
     0
 49
1.0
 74
     0
 49
-1.0
 74
     0
 49
1.0
 74
     0
 49
-1.0
 74
     0
  0
LTYPE
  5
22E4B
330
5
100
AcDbSymbolTableRecord
100
AcDbLinetypeTableRecord
  2
ACISOTGL
 70
     0
  3
_ _ _ _ _
 72
    65
 73
     2
 40
3.0
 49
2.0
 74
     0
 49
-1.0
 74
     0
  0
ENDTAB
  0
TABLE
  2
LAYER
  5
2
102
{ACAD_XDICTIONARY
360
22E5D
102
}
330
0
100
AcDbSymbolTable
 70
     3
  0
LAYER
  5
54
330
2
100
AcDbSymbolTableRecord
100
AcDbLayerTableRecord
  2
0
 70
     0
 62
     7
  6
Continuous
370
    -3
390
F
  0
LAYER
  5
C4
330
2
100
AcDbSymbolTableRecord
100
AcDbLayerTableRecord
  2
Widoczne (ISO)
 70
     0
 62
     7
  6
Continuous
370
    50
390
F
  0
LAYER
  5
22CA6
330
2
100
AcDbSymbolTableRecord
100
AcDbLayerTableRecord
  2
Defpoints
 70
     0
 62
     7
  6
Continuous
290
     0
370
    -3
390
F
  0
ENDTAB
  0
TABLE
  2
STYLE
  5
3
330
0
100
AcDbSymbolTable
 70
     3
  0
STYLE
  5
55
330
3
100
AcDbSymbolTableRecord
100
AcDbTextStyleTableRecord
  2
Standard
 70
     0
 40
0.0
 41
1.0
 50
0.0
 71
     0
 42
0.2
  3
tahoma.ttf
  4

1001
ACAD
1000
Tahoma
1071
      256
  0
STYLE
  5
22E39
330
3
100
AcDbSymbolTableRecord
100
AcDbTextStyleTableRecord
  2

 70
     1
 40
0.0
 41
1.0
 50
0.0
 71
     0
 42
0.2
  3
genltshp.shx
  4

  0
STYLE
  5
22E48
330
3
100
AcDbSymbolTableRecord
100
AcDbTextStyleTableRecord
  2
ACISOGDT
 70
     0
 40
0.0
 41
1.0
 50
0.0
 71
     0
 42
0.2
  3
amgdt.shx
  4

  0
ENDTAB
  0
TABLE
  2
VIEW
  5
6
330
0
100
AcDbSymbolTable
 70
     0
  0
ENDTAB
  0
TABLE
  2
UCS
  5
7
330
0
100
AcDbSymbolTable
 70
     0
  0
ENDTAB
  0
TABLE
  2
APPID
  5
9
330
0
100
AcDbSymbolTable
 70
    32
  0
APPID
  5
56
330
9
100
AcDbSymbolTableRecord
100
AcDbRegAppTableRecord
  2
ACAD
 70
     0
  0
APPID
  5
5E
330
9
100
AcDbSymbolTableRecord
100
AcDbRegAppTableRecord
  2
AcadAnnotative
 70
     0
  0
APPID
  5
15C
330
9
100
AcDbSymbolTableRecord
100
AcDbRegAppTableRecord
  2
AcadAnnoPO
 70
     0
  0
APPID
  5
22DC8
330
9
100
AcDbSymbolTableRecord
100
AcDbRegAppTableRecord
  2
MCAD_NO_VIS
 70
     0
  0
APPID
  5
22DC9
330
9
100
AcDbSymbolTableRecord
100
AcDbRegAppTableRecord
  2
ACAD_TEMP_GRAPHIC
 70
     0
  0
APPID
  5
22DF4
330
9
100
AcDbSymbolTableRecord
100
AcDbRegAppTableRecord
  2
AD_DRAW
 70
     0
  0
APPID
  5
22DF7
330
9
100
AcDbSymbolTableRecord
100
AcDbRegAppTableRecord
  2
ACATTRIBSERVICES
 70
     0
  0
APPID
  5
22E10
330
9
100
AcDbSymbolTableRecord
100
AcDbRegAppTableRecord
  2
DESIGNERASSEMBLIES
 70
     0
  0
APPID
  5
22E15
330
9
100
AcDbSymbolTableRecord
100
AcDbRegAppTableRecord
  2
ACADM_DIM_EDIT
 70
     0
  0
APPID
  5
22E16
330
9
100
AcDbSymbolTableRecord
100
AcDbRegAppTableRecord
  2
AMDT_DM_ADJ
 70
     0
  0
APPID
  5
22E2F
330
9
100
AcDbSymbolTableRecord
100
AcDbRegAppTableRecord
  2
ACAD_DSTYLE_DIMJAG
 70
     0
  0
APPID
  5
22E30
330
9
100
AcDbSymbolTableRecord
100
AcDbRegAppTableRecord
  2
ACAD_DSTYLE_DIMBREAK
 70
     0
  0
APPID
  5
22E7B
330
9
100
AcDbSymbolTableRecord
100
AcDbRegAppTableRecord
  2
AcAecLayerStandard
 70
     0
  0
APPID
  5
22E98
330
9
100
AcDbSymbolTableRecord
100
AcDbRegAppTableRecord
  2
ACAD_DSTYLE_DIMINSPECT
 70
     0
  0
APPID
  5
22EAE
330
9
100
AcDbSymbolTableRecord
100
AcDbRegAppTableRecord
  2
GENIUS_GENDTOL_13
 70
     0
  0
APPID
  5
22EAF
330
9
100
AcDbSymbolTableRecord
100
AcDbRegAppTableRecord
  2
ACAD_EXEMPT_FROM_CAD_STANDARDS
 70
     0
  0
APPID
  5
22EE2
330
9
100
AcDbSymbolTableRecord
100
AcDbRegAppTableRecord
  2
ACAD_PSEXT
 70
     0
  0
APPID
  5
22EE3
330
9
100
AcDbSymbolTableRecord
100
AcDbRegAppTableRecord
  2
ACAD_NAV_VCDISPLAY
 70
     0
  0
APPID
  5
2D66B
330
9
100
AcDbSymbolTableRecord
100
AcDbRegAppTableRecord
  2
GENIUS_GENODEF_13
 70
     0
  0
APPID
  5
2D66C
330
9
100
AcDbSymbolTableRecord
100
AcDbRegAppTableRecord
  2
GENIUS_GENOBJ-N-FIL_13
 70
     0
  0
APPID
  5
7909A
330
9
100
AcDbSymbolTableRecord
100
AcDbRegAppTableRecord
  2
GENIUS_GENOBJ-N-HTC_13
 70
     0
  0
APPID
  5
7909B
330
9
100
AcDbSymbolTableRecord
100
AcDbRegAppTableRecord
  2
GENIUS_GENHATCH_13
 70
     0
  0
APPID
  5
79290
330
9
100
AcDbSymbolTableRecord
100
AcDbRegAppTableRecord
  2
GRADIENTCOLOR1ACI
 70
     0
  0
APPID
  5
79291
330
9
100
AcDbSymbolTableRecord
100
AcDbRegAppTableRecord
  2
GRADIENTCOLOR2ACI
 70
     0
  0
APPID
  5
CEBC3
330
9
100
AcDbSymbolTableRecord
100
AcDbRegAppTableRecord
  2
GENIUS_GENREC_14
 70
     0
  0
APPID
  5
CEBC4
330
9
100
AcDbSymbolTableRecord
100
AcDbRegAppTableRecord
  2
GENIUS_GENOBJ-N-REC_13
 70
     0
  0
APPID
  5
1D0F29
330
9
100
AcDbSymbolTableRecord
100
AcDbRegAppTableRecord
  2
ACAD_DSTYLE_DIMRADIAL_EXTENSION
 70
     0
  0
APPID
  5
1D24A4
330
9
100
AcDbSymbolTableRecord
100
AcDbRegAppTableRecord
  2
ACAD_MLEADERVER
 70
     0
  0
APPID
  5
1D24AA
330
9
100
AcDbSymbolTableRecord
100
AcDbRegAppTableRecord
  2
ACAD_DSTYLE_DIMARC_LENGTH_SYMBOL
 70
     0
  0
APPID
  5
1D24AB
330
9
100
AcDbSymbolTableRecord
100
AcDbRegAppTableRecord
  2
ACAD_DSTYLE_DIM_LINETYPE
 70
     0
  0
APPID
  5
1D24AC
330
9
100
AcDbSymbolTableRecord
100
AcDbRegAppTableRecord
  2
ACAD_DSTYLE_DIM_EXT1_LINETYPE
 70
     0
  0
APPID
  5
1D24AD
330
9
100
AcDbSymbolTableRecord
100
AcDbRegAppTableRecord
  2
ACAD_DSTYLE_DIM_EXT2_LINETYPE
 70
     0
  0
ENDTAB
  0
TABLE
  2
DIMSTYLE
  5
A
330
0
100
AcDbSymbolTable
 70
     8
100
AcDbDimStyleTable
 71
     1
340
58
  0
DIMSTYLE
105
58
330
A
100
AcDbSymbolTableRecord
100
AcDbDimStyleTableRecord
  2
Standard
 70
     0
340
55
  0
DIMSTYLE
105
22E2E
102
{ACAD_REACTORS
330
1D2726
102
}
330
A
100
AcDbSymbolTableRecord
100
AcDbDimStyleTableRecord
  2
AM_ISO
 70
     0
  4
"
 41
3.5
 42
1.0
 43
10.0
 44
1.0
 47
0.1
 48
0.1
 73
     0
 74
     0
 77
     1
 78
     8
 79
     2
140
3.5
141
0.0
143
0.0393701
146
0.71
147
1.5
172
     1
176
   256
177
   256
178
     2
271
     2
272
     3
274
     4
283
     0
284
     8
340
55
371
    -1
372
    -1
1001
ACAD_DSTYLE_DIMJAG
1070
   388
1040
1.5
1001
ACAD_DSTYLE_DIMBREAK
1070
   391
1040
3.75
1001
ACAD_DSTYLE_DIMARC_LENGTH_SYMBOL
1070
   379
1070
     1
1001
ACAD_DSTYLE_DIM_LINETYPE
1070
   380
1005
5B
1001
ACAD_DSTYLE_DIM_EXT1_LINETYPE
1070
   381
1005
5B
1001
ACAD_DSTYLE_DIM_EXT2_LINETYPE
1070
   382
1005
5B
  0
DIMSTYLE
105
22E3B
330
A
100
AcDbSymbolTableRecord
100
AcDbDimStyleTableRecord
  2
AM_ISO$3
 70
     0
  4
"
 41
3.5
 42
1.0
 43
10.0
 44
1.0
 47
0.1
 48
0.1
 73
     0
 77
     1
 78
     8
 79
     2
140
3.5
141
0.0
143
0.0393701
146
0.71
147
1.5
176
   256
177
   256
178
     2
271
     2
272
     3
274
     4
283
     0
284
     8
288
     1
289
     0
340
55
371
    -1
372
    -1
1001
ACAD_DSTYLE_DIMBREAK
1070
   391
1040
3.75
1001
ACAD_DSTYLE_DIMJAG
1070
   388
1040
1.5
1001
ACAD_DSTYLE_DIMARC_LENGTH_SYMBOL
1070
   379
1070
     1
1001
ACAD_DSTYLE_DIM_LINETYPE
1070
   380
1005
5B
1001
ACAD_DSTYLE_DIM_EXT1_LINETYPE
1070
   381
1005
5B
1001
ACAD_DSTYLE_DIM_EXT2_LINETYPE
1070
   382
1005
5B
  0
DIMSTYLE
105
22E3C
330
A
100
AcDbSymbolTableRecord
100
AcDbDimStyleTableRecord
  2
AM_ISO$4
 70
     0
  4
"
 41
3.5
 42
1.0
 43
10.0
 44
1.0
 47
0.1
 48
0.1
 73
     0
 77
     1
 78
     8
 79
     2
140
3.5
141
0.0
143
0.0393701
146
0.71
147
1.5
176
   256
177
   256
178
     2
271
     2
272
     3
274
     4
283
     0
284
     8
288
     1
289
     0
340
55
371
    -1
372
    -1
1001
ACAD_DSTYLE_DIMBREAK
1070
   391
1040
3.75
1001
ACAD_DSTYLE_DIMJAG
1070
   388
1040
1.5
1001
ACAD_DSTYLE_DIMARC_LENGTH_SYMBOL
1070
   379
1070
     1
1001
ACAD_DSTYLE_DIM_LINETYPE
1070
   380
1005
5B
1001
ACAD_DSTYLE_DIM_EXT1_LINETYPE
1070
   381
1005
5B
1001
ACAD_DSTYLE_DIM_EXT2_LINETYPE
1070
   382
1005
5B
  0
DIMSTYLE
105
22E3D
330
A
100
AcDbSymbolTableRecord
100
AcDbDimStyleTableRecord
  2
AM_ISO$6
 70
     0
  4
"
 41
3.5
 42
1.0
 43
10.0
 44
1.0
 47
0.1
 48
0.1
 73
     0
 74
     0
 78
     8
 79
     2
140
3.5
141
0.0
143
0.0393701
146
0.71
147
1.5
172
     1
176
   256
177
   256
178
     2
271
     2
272
     3
274
     4
283
     0
284
     8
340
55
371
    -1
372
    -1
1001
ACAD_DSTYLE_DIMBREAK
1070
   391
1040
3.75
1001
ACAD_DSTYLE_DIMJAG
1070
   388
1040
1.5
1001
ACAD_DSTYLE_DIMARC_LENGTH_SYMBOL
1070
   379
1070
     1
1001
ACAD_DSTYLE_DIM_LINETYPE
1070
   380
1005
5B
1001
ACAD_DSTYLE_DIM_EXT1_LINETYPE
1070
   381
1005
5B
1001
ACAD_DSTYLE_DIM_EXT2_LINETYPE
1070
   382
1005
5B
  0
DIMSTYLE
105
22E3E
330
A
100
AcDbSymbolTableRecord
100
AcDbDimStyleTableRecord
  2
AM_ISO$7
 70
     0
  4
"
 41
3.5
 42
1.0
 43
10.0
 44
1.0
 47
0.1
 48
0.1
 73
     0
 74
     0
 77
     1
 78
     8
 79
     2
140
3.5
141
0.0
143
0.0393701
146
0.71
147
1.5
172
     1
176
   256
177
   256
178
     2
271
     2
272
     3
274
     4
283
     0
284
     8
340
55
371
    -1
372
    -1
1001
ACAD_DSTYLE_DIMBREAK
1070
   391
1040
3.75
1001
ACAD_DSTYLE_DIMJAG
1070
   388
1040
1.5
1001
ACAD_DSTYLE_DIMARC_LENGTH_SYMBOL
1070
   379
1070
     1
1001
ACAD_DSTYLE_DIM_LINETYPE
1070
   380
1005
5B
1001
ACAD_DSTYLE_DIM_EXT1_LINETYPE
1070
   381
1005
5B
1001
ACAD_DSTYLE_DIM_EXT2_LINETYPE
1070
   382
1005
5B
  0
DIMSTYLE
105
22E3F
330
A
100
AcDbSymbolTableRecord
100
AcDbDimStyleTableRecord
  2
AM_ISO$SF
 70
     0
  4
"
 41
3.5
 42
1.0
 43
10.0
 44
1.0
 47
0.1
 48
0.1
 73
     0
 74
     0
 75
     1
 76
     1
 77
     1
 78
     8
 79
     2
140
3.5
141
0.0
143
0.0393701
146
0.71
147
1.5
172
     1
176
   256
177
   256
178
     2
271
     2
272
     3
274
     4
283
     0
284
     8
340
55
371
    -1
372
    -1
1001
ACAD_DSTYLE_DIMBREAK
1070
   391
1040
3.75
1001
ACAD_DSTYLE_DIMJAG
1070
   388
1040
1.5
1001
ACAD_DSTYLE_DIMARC_LENGTH_SYMBOL
1070
   379
1070
     1
1001
ACAD_DSTYLE_DIM_LINETYPE
1070
   380
1005
5B
1001
ACAD_DSTYLE_DIM_EXT1_LINETYPE
1070
   381
1005
5B
1001
ACAD_DSTYLE_DIM_EXT2_LINETYPE
1070
   382
1005
5B
  0
DIMSTYLE
105
22E44
330
A
100
AcDbSymbolTableRecord
100
AcDbDimStyleTableRecord
  2
AM_ISO$SH
 70
     0
  4
"
 41
3.5
 42
1.0
 43
10.0
 44
1.0
 47
0.1
 48
0.1
 73
     0
 74
     0
 75
     1
 76
     1
 77
     1
 78
     8
 79
     2
140
3.5
141
0.0
143
0.0393701
144
2.0
146
0.71
147
1.5
172
     1
173
     1
176
   256
177
   256
178
     2
271
     2
272
     3
274
     4
283
     0
284
     8
340
55
343
22E40
371
    -1
372
    -1
1001
ACAD_DSTYLE_DIMBREAK
1070
   391
1040
3.75
1001
ACAD_DSTYLE_DIMJAG
1070
   388
1040
1.5
1001
ACAD_DSTYLE_DIMARC_LENGTH_SYMBOL
1070
   379
1070
     1
1001
ACAD_DSTYLE_DIM_LINETYPE
1070
   380
1005
5B
1001
ACAD_DSTYLE_DIM_EXT1_LINETYPE
1070
   381
1005
5B
1001
ACAD_DSTYLE_DIM_EXT2_LINETYPE
1070
   382
1005
5B
  0
ENDTAB
  0
TABLE
  2
BLOCK_RECORD
  5
1
330
0
100
AcDbSymbolTable
 70
     5
  0
BLOCK_RECORD
  5
6C
102
{ACAD_XDICTIONARY
360
2D669
102
}
330
1
100
AcDbSymbolTableRecord
100
AcDbBlockTableRecord
  2
*Model_Space
340
6F
  0
BLOCK_RECORD
  5
68
330
1
100
AcDbSymbolTableRecord
100
AcDbBlockTableRecord
  2
*Paper_Space
340
6B
  0
BLOCK_RECORD
  5
70
330
1
100
AcDbSymbolTableRecord
100
AcDbBlockTableRecord
  2
*Paper_Space0
340
73
  0
BLOCK_RECORD
  5
22E40
330
1
100
AcDbSymbolTableRecord
100
AcDbBlockTableRecord
  2
GENAXEH
340
0
  0
BLOCK_RECORD
  5
1D2744
102
{ACAD_XDICTIONARY
360
1D2745
102
}
330
1
100
AcDbSymbolTableRecord
100
AcDbBlockTableRecord
  2
gggr
340
0
310
2800000020000000200000000100080000000000000400000000000000000000000000000000000000000000000080000080000000808000800000008000800080800000C0C0C000C0DCC000F0CAA6000020400000206000002080000020A0000020C0000020E00000400000004020000040400000406000004080000040A0
310
000040C0000040E00000600000006020000060400000606000006080000060A0000060C0000060E00000800000008020000080400000806000008080000080A0000080C0000080E00000A0000000A0200000A0400000A0600000A0800000A0A00000A0C00000A0E00000C0000000C0200000C0400000C0600000C0800000C0
310
A00000C0C00000C0E00000E0000000E0200000E0400000E0600000E0800000E0A00000E0C00000E0E00040000000400020004000400040006000400080004000A0004000C0004000E00040200000402020004020400040206000402080004020A0004020C0004020E000404000004040200040404000404060004040800040
310
40A0004040C0004040E00040600000406020004060400040606000406080004060A0004060C0004060E00040800000408020004080400040806000408080004080A0004080C0004080E00040A0000040A0200040A0400040A0600040A0800040A0A00040A0C00040A0E00040C0000040C0200040C0400040C0600040C08000
310
40C0A00040C0C00040C0E00040E0000040E0200040E0400040E0600040E0800040E0A00040E0C00040E0E00080000000800020008000400080006000800080008000A0008000C0008000E00080200000802020008020400080206000802080008020A0008020C0008020E00080400000804020008040400080406000804080
310
008040A0008040C0008040E00080600000806020008060400080606000806080008060A0008060C0008060E00080800000808020008080400080806000808080008080A0008080C0008080E00080A0000080A0200080A0400080A0600080A0800080A0A00080A0C00080A0E00080C0000080C0200080C0400080C0600080C0
310
800080C0A00080C0C00080C0E00080E0000080E0200080E0400080E0600080E0800080E0A00080E0C00080E0E000C0000000C0002000C0004000C0006000C0008000C000A000C000C000C000E000C0200000C0202000C0204000C0206000C0208000C020A000C020C000C020E000C0400000C0402000C0404000C0406000C0
310
408000C040A000C040C000C040E000C0600000C0602000C0604000C0606000C0608000C060A000C060C000C060E000C0800000C0802000C0804000C0806000C0808000C080A000C080C000C080E000C0A00000C0A02000C0A04000C0A06000C0A08000C0A0A000C0A0C000C0A0E000C0C00000C0C02000C0C04000C0C06000
310
C0C08000C0C0A000F0FBFF00A4A0A000808080000000FF0000FF000000FFFF00FF000000FF00FF00FFFF0000FFFFFF0049494949494949494949494949494949494949494949494949494949494949494949494949494949494949494949494949494949494949494949494949494949494949494949494949494949494949
310
49494949494949494949494949494949494949494949494949494949494949494949494949494949494949494949494949494949494949494949494949494949494949494949494949494949494949494949494949494949494949494949494949494949494949494949494949494949494949494949494949494949494949
310
49494949494949494949494949494949494949494949494949494949494949494949494949494949494949494949494949494949494949494949494949494949494949494949494949494949494949494949494949494949494949494949494949494949494949494949494949494949494949494949494949494949494949
310
49494949494949494949494949494949494949494949494949494949494949494949494949494949494949494949494949494949FEFEFEFEF9FEFEFEFEFEFEFEFEFEFEFEFEFEFEFEFEFEFEFEFEF9FEFEFEFE4949FE494949F94949494949494949494949494949494949494949F9494949FE4949FE494949F9494949494949
310
4949494949494949494949494949F9494949FE4949FE494949F94949494949494949494949494949494949494949F9494949FE4949FE494949F94949494949494949494949494949494949494949F9494949FE4949FE494949F94949494949494949494949494949494949494949F9494949FE4949FE494949F94949494949
310
494949494949494949494949494949F9494949FE4949FEFEFEFEF9FEFEFEFEFEFEFEFEFEFEFEFEFEFEFEFEFEFEFEFEF9FEFEFEFE494949494949494949494949494949494949494949494949494949494949494949494949494949494949494949494949494949494949494949494949494949494949494949494949494949
310
49494949494949494949494949494949494949494949494949494949494949494949494949494949494949494949494949494949494949494949494949494949494949494949494949494949494949494949494949494949494949494949494949494949494949494949494949494949494949494949494949494949494949
310
49494949494949494949494949494949494949494949494949494949494949494949494949494949494949494949494949494949494949494949494949494949494949494949494949494949494949494949494949494949494949494949494949494949494949494949494949494949494949494949494949494949494949
310
4949494949494949494949494949494949494949494949494949494949494949494949494949494949494949494949494949494949494949
102
{BLKREFS
331
1D2C47
331
1D2C4B
331
1D2C4C
331
1D2C4D
331
1D2C4E
331
1D2C4F
331
1D2C50
331
1D2C51
331
1D2C52
331
1D2C53
331
1D2C54
331
1D2C55
331
1D2C56
331
1D2C57
331
1D2C5B
331
1D2C68
331
1D2C69
331
1D2C6A
331
1D2C6B
331
1D2C6C
331
1D2C6D
331
1D2C6E
331
1D2C6F
331
1D2C70
331
1D2C71
331
1D2C72
331
1D2C73
331
1D2C74
331
1D2C75
331
1D2C76
331
1D2C77
331
1D2C78
331
1D2C79
331
1D2C7A
331
1D2C7B
331
1D2C7C
331
1D2C7D
331
1D2C88
331
1D2C89
331
1D2C8A
331
1D2C8B
331
1D2C8C
331
1D2C8D
331
1D2C8E
331
1D2C8F
331
1D2C90
331
1D2C91
331
1D2C92
331
1D2C93
331
1D2C94
331
1D2C95
331
1D2C96
331
1D2C97
331
1D2C98
331
1D2C99
331
1D2C9A
331
1D2C9B
331
1D2C9C
331
1D2C9D
331
1D2C9E
331
1D2C9F
331
1D2CA7
331
1D2CA8
331
1D2CA9
331
1D2CAA
331
1D2CAB
331
1D2CAC
331
1D2CAD
331
1D2CAE
331
1D2CAF
331
1D2CB0
331
1D2CB1
331
1D2CB2
331
1D2CB3
331
1D2CB4
331
1D2CB5
331
1D2CB6
331
1D2CB7
331
1D2CB8
331
1D2CB9
331
1D2CBA
331
1D2CBB
331
1D2CBC
331
1D2CBD
331
1D2CC6
331
1D2CC7
331
1D2CC8
331
1D2CC9
331
1D2CCA
331
1D2CCB
331
1D2CCC
331
1D2CCD
331
1D2CCE
331
1D2CCF
331
1D2CD0
331
1D2CD1
331
1D2CD2
331
1D2CD3
331
1D2CD4
331
1D2CD5
331
1D2CD6
331
1D2CD7
331
1D2CD8
331
1D2CDD
331
1D2CED
331
1D2CEE
331
1D2CEF
331
1D2CF0
331
1D2CF1
331
1D2CF2
331
1D2D18
331
1D2D19
331
1D2D1A
331
1D2D21
331
1D2D22
331
1D2D23
331
1D2D24
331
1D2D2A
331
1D2D2B
331
1D2D2C
331
1D2D34
331
1D2D35
331
1D2D3E
102
}
1001
ACAD
1000
DesignCenter Data
1002
{
1070
     1
1070
     4
1002
}
  0
BLOCK_RECORD
  5
1D2C28
330
1
100
AcDbSymbolTableRecord
100
AcDbBlockTableRecord
  2
5464
340
0
310
2800000020000000200000000100080000000000000400000000000000000000000000000000000000000000000080000080000000808000800000008000800080800000C0C0C000C0DCC000F0CAA6000020400000206000002080000020A0000020C0000020E00000400000004020000040400000406000004080000040A0
310
000040C0000040E00000600000006020000060400000606000006080000060A0000060C0000060E00000800000008020000080400000806000008080000080A0000080C0000080E00000A0000000A0200000A0400000A0600000A0800000A0A00000A0C00000A0E00000C0000000C0200000C0400000C0600000C0800000C0
310
A00000C0C00000C0E00000E0000000E0200000E0400000E0600000E0800000E0A00000E0C00000E0E00040000000400020004000400040006000400080004000A0004000C0004000E00040200000402020004020400040206000402080004020A0004020C0004020E000404000004040200040404000404060004040800040
310
40A0004040C0004040E00040600000406020004060400040606000406080004060A0004060C0004060E00040800000408020004080400040806000408080004080A0004080C0004080E00040A0000040A0200040A0400040A0600040A0800040A0A00040A0C00040A0E00040C0000040C0200040C0400040C0600040C08000
310
40C0A00040C0C00040C0E00040E0000040E0200040E0400040E0600040E0800040E0A00040E0C00040E0E00080000000800020008000400080006000800080008000A0008000C0008000E00080200000802020008020400080206000802080008020A0008020C0008020E00080400000804020008040400080406000804080
310
008040A0008040C0008040E00080600000806020008060400080606000806080008060A0008060C0008060E00080800000808020008080400080806000808080008080A0008080C0008080E00080A0000080A0200080A0400080A0600080A0800080A0A00080A0C00080A0E00080C0000080C0200080C0400080C0600080C0
310
800080C0A00080C0C00080C0E00080E0000080E0200080E0400080E0600080E0800080E0A00080E0C00080E0E000C0000000C0002000C0004000C0006000C0008000C000A000C000C000C000E000C0200000C0202000C0204000C0206000C0208000C020A000C020C000C020E000C0400000C0402000C0404000C0406000C0
310
408000C040A000C040C000C040E000C0600000C0602000C0604000C0606000C0608000C060A000C060C000C060E000C0800000C0802000C0804000C0806000C0808000C080A000C080C000C080E000C0A00000C0A02000C0A04000C0A06000C0A08000C0A0A000C0A0C000C0A0E000C0C00000C0C02000C0C04000C0C06000
310
C0C08000C0C0A000F0FBFF00A4A0A000808080000000FF0000FF000000FFFF00FF000000FF00FF00FFFF0000FFFFFF004949494949494949494949494949494949494949494949494949494949494949494949494949494949494949494949FBFBFB494949494949494949494949494949494949494949494949FBFBFBFBFB
310
FEFEFEFBFB49FE494949494949494949494949494949494949FBFBFEFEFEFEFEFEFEFEFEFEFBFBFB49494949494949494949494949494949FBFEFEFEFEFEFEFEFEFEFEFEFEFEFEFEFBFB49494949494949494949494949FBFEFEFEFEFEFEFEFEFEFEFEFEFEFEFEFEFEFEFB4949494949494949494949FBFEFEFEFEFEFEFEFE
310
FEFEFEFEFEFEFEFEFEFEFEFEFB494949494949494949FBFEFEFEFEFEFEFEFEFEFEFEFEFEFEFEFEFEFEFEFEFEFEFB49494949494949FEFBFEFEFEFEFEFEFEFEFEFEFEFEFEFEFEFEFEFEFEFEFEFEFBFE494949494949FBFEFEFEFEFEFEFEFEFEFEFEFEFEFEFEFEFEFEFEFEFEFEFEFEFB494949494949FBFEFEFEFEFEFEFEFEFE
310
FEFEFEFEFEFEFEFEFEFEFEFEFEFEFEFEFB49494949FBFEFEFEFEFEFEFEFEFEFEFEFEFEFEFEFEFEFEFEFEFEFEFEFEFEFEFB49494949FBFEFEFEFEFEFEFEFEFEFEFEFEFEFEFEFEFEFEFEFEFEFEFEFEFEFEFB49494949FBFEFEFEFEFEFEFEFEFEFEFEFEFEFEFEFEFEFEFEFEFEFEFEFEFEFEFB494949FBFEFEFEFEFEFEFEFEFEFE
310
FEFEFEFEFEFEFEFEFEFEFEFEFEFEFEFEFEFBFE4949FBFEFEFEFEFEFEFEFEFEFEFEFEFEFEFFFEFEFEFEFEFEFEFEFEFEFEFEFEFB4949FBFEFEFEFEFEFEFEFEFEFEFEFEFEFEFFFEFEFEFEFEFEFEFEFEFEFEFEFEFB4949FBFEFEFEFEFEFEFEFEFEFEFEFEFEFEFEFEFEFEFEFEFEFEFEFEFEFEFEFEFB494949FBFEFEFEFEFEFEFEFE
310
FEFEFEFEFEFEFEFEFEFEFEFEFEFEFEFEFEFEFB49494949FBFEFEFEFEFEFEFEFEFEFEFEFEFEFEFEFEFEFEFEFEFEFEFEFEFEFEFB49494949FBFEFEFEFEFEFEFEFEFEFEFEFEFEFEFEFEFEFEFEFEFEFEFEFEFEFEFB4949494949FBFEFEFEFEFEFEFEFEFEFEFEFEFEFEFEFEFEFEFEFEFEFEFEFEFEFB4949494949FBFEFEFEFEFEFE
310
FEFEFEFEFEFEFEFEFEFEFEFEFEFEFEFEFEFEFB494949494949FEFBFEFEFEFEFEFEFEFEFEFEFEFEFEFEFEFEFEFEFEFEFEFEFBFE49494949494949FBFEFEFEFEFEFEFEFEFEFEFEFEFEFEFEFEFEFEFEFEFEFEFB494949494949494949FBFEFEFEFEFEFEFEFEFEFEFEFEFEFEFEFEFEFEFEFEFB4949494949494949494949FBFEFE
310
FEFEFEFEFEFEFEFEFEFEFEFEFEFEFEFEFB49494949494949494949494949FBFEFEFEFEFEFEFEFEFEFEFEFEFEFEFEFBFB494949494949494949494949494949FBFBFEFEFEFEFEFEFEFEFEFEFEFBFB49494949494949494949494949494949494949FBFBFBFBFBFEFEFEFBFBFBFE494949494949494949494949494949494949
310
49494949494949FBFBFB49494949494949494949494949494949494949494949494949494949494949494949494949494949494949494949
102
{BLKREFS
331
1D2D57
102
}
1001
ACAD
1000
DesignCenter Data
1002
{
1070
     1
1070
     4
1002
}
  0
ENDTAB
  0
ENDSEC
  0
SECTION
  2
BLOCKS
  0
BLOCK
  5
6D
330
6C
100
AcDbEntity
  8
0
100
AcDbBlockBegin
  2
*Model_Space
 70
     0
 10
0.0
 20
0.0
 30
0.0
  3
*Model_Space
  1

  0
ENDBLK
  5
6E
330
6C
100
AcDbEntity
  8
0
100
AcDbBlockEnd
  0
BLOCK
  5
69
330
68
100
AcDbEntity
 67
     1
  8
0
100
AcDbBlockBegin
  2
*Paper_Space
 70
     0
 10
0.0
 20
0.0
 30
0.0
  3
*Paper_Space
  1

  0
ENDBLK
  5
6A
330
68
100
AcDbEntity
 67
     1
  8
0
100
AcDbBlockEnd
  0
BLOCK
  5
71
330
70
100
AcDbEntity
 67
     1
  8
0
100
AcDbBlockBegin
  2
*Paper_Space0
 70
     0
 10
0.0
 20
0.0
 30
0.0
  3
*Paper_Space0
  1

  0
ENDBLK
  5
72
330
70
100
AcDbEntity
 67
     1
  8
0
100
AcDbBlockEnd
  0
BLOCK
  5
22E42
330
22E40
100
AcDbEntity
  8
0
100
AcDbBlockBegin
  2
GENAXEH
 70
     0
 10
0.0
 20
0.0
 30
0.0
  3
GENAXEH
  1

  0
LINE
  5
22E41
330
22E40
100
AcDbEntity
  8
0
100
AcDbLine
 10
-1.0
 20
0.0
 30
0.0
 11
1.0
 21
0.0
 31
0.0
  0
ENDBLK
  5
22E43
330
22E40
100
AcDbEntity
  8
0
100
AcDbBlockEnd
  0
BLOCK
  5
1D2747
330
1D2744
100
AcDbEntity
  8
0
 62
     4
100
AcDbBlockBegin
  2
gggr
 70
     0
 10
0.0
 20
0.0
 30
0.0
  3
gggr
  1

  0
LINE
  5
1D2748
330
1D2744
100
AcDbEntity
  8
0
 62
     4
100
AcDbLine
 10
17916.25157304843
 20
957.0037572179572
 30
0.0
 11
18007.25157304843
 21
957.0037572179572
 31
0.0
  0
LINE
  5
1D2749
330
1D2744
100
AcDbEntity
  8
0
 62
     4
100
AcDbLine
 10
18007.25157304843
 20
957.0037572179572
 30
0.0
 11
18007.25157304843
 21
932.0037572179572
 31
0.0
  0
LINE
  5
1D274A
330
1D2744
100
AcDbEntity
  8
0
 62
     4
100
AcDbLine
 10
18007.25157304843
 20
932.0037572179572
 30
0.0
 11
17916.25157304843
 21
932.0037572179572
 31
0.0
  0
LINE
  5
1D274B
330
1D2744
100
AcDbEntity
  8
0
 62
     4
100
AcDbLine
 10
17916.25157304843
 20
932.0037572179572
 30
0.0
 11
17916.25157304843
 21
957.0037572179572
 31
0.0
  0
ENDBLK
  5
1D274C
330
1D2744
100
AcDbEntity
  8
0
 62
     4
100
AcDbBlockEnd
  0
BLOCK
  5
1D2C29
330
1D2C28
100
AcDbEntity
  8
0
100
AcDbBlockBegin
  2
5464
 70
     0
 10
0.0
 20
0.0
 30
0.0
  3
5464
  1

  0
LINE
  5
1D2C2B
330
1D2C28
100
AcDbEntity
  8
0
 62
     4
100
AcDbLine
 10
39594.10396481745
 20
-411.6940521119233
 30
0.0
 11
39594.10396481745
 21
-422.5018936109576
 31
0.0
  0
LINE
  5
1D2C2C
330
1D2C28
100
AcDbEntity
  8
0
 62
     4
100
AcDbLine
 10
39594.10396481745
 20
-422.5018936109576
 30
0.0
 11
39588.104321451
 21
-422.5018936109576
 31
0.0
  0
LINE
  5
1D2C2D
330
1D2C28
100
AcDbEntity
  8
0
 62
     4
100
AcDbLine
 10
39575.8368218731
 20
-447.5018936109576
 30
0.0
 11
39594.10396481745
 21
-447.5018936109576
 31
0.0
  0
LINE
  5
1D2C2E
330
1D2C28
100
AcDbEntity
  8
0
 62
     4
100
AcDbLine
 10
39594.10396481745
 20
-447.5018936109576
 30
0.0
 11
39594.10396481745
 21
-472.5018936109576
 31
0.0
  0
LINE
  5
1D2C2F
330
1D2C28
100
AcDbEntity
  8
0
 62
     4
100
AcDbLine
 10
39594.10396481745
 20
-472.5018936109576
 30
0.0
 11
39565.64284083801
 21
-472.5018936109576
 31
0.0
  0
LINE
  5
1D2C30
330
1D2C28
100
AcDbEntity
  8
0
 62
     4
100
AcDbLine
 10
39557.35601400328
 20
-497.5018936109576
 30
0.0
 11
39594.10396481745
 21
-497.5018936109576
 31
0.0
  0
LINE
  5
1D2C31
330
1D2C28
100
AcDbEntity
  8
0
 62
     4
100
AcDbLine
 10
39594.10396481745
 20
-497.5018936109576
 30
0.0
 11
39594.10396481745
 21
-522.5018936109576
 31
0.0
  0
LINE
  5
1D2C32
330
1D2C28
100
AcDbEntity
  8
0
 62
     4
100
AcDbLine
 10
39594.10396481745
 20
-522.5018936109576
 30
0.0
 11
39550.85404541062
 21
-522.5018936109576
 31
0.0
  0
LINE
  5
1D2C33
330
1D2C28
100
AcDbEntity
  8
0
 62
     4
100
AcDbLine
 10
39546.04823628963
 20
-547.5018936109576
 30
0.0
 11
39594.10396481745
 21
-547.5018936109576
 31
0.0
  0
LINE
  5
1D2C34
330
1D2C28
100
AcDbEntity
  8
0
 62
     4
100
AcDbLine
 10
39594.10396481745
 20
-547.5018936109576
 30
0.0
 11
39594.10396481745
 21
-572.5018936109576
 31
0.0
  0
LINE
  5
1D2C35
330
1D2C28
100
AcDbEntity
  8
0
 62
     4
100
AcDbLine
 10
39594.10396481745
 20
-572.5018936109576
 30
0.0
 11
39542.87678606926
 21
-572.5018936109576
 31
0.0
  0
LINE
  5
1D2C36
330
1D2C28
100
AcDbEntity
  8
0
 62
     4
100
AcDbLine
 10
39541.30055431106
 20
-597.5018936109577
 30
0.0
 11
39594.10396481745
 21
-597.5018936109577
 31
0.0
  0
LINE
  5
1D2C37
330
1D2C28
100
AcDbEntity
  8
0
 62
     4
100
AcDbLine
 10
39594.10396481745
 20
-597.5018936109577
 30
0.0
 11
39594.10396481745
 21
-622.5018936109577
 31
0.0
  0
LINE
  5
1D2C38
330
1D2C28
100
AcDbEntity
  8
0
 62
     4
100
AcDbLine
 10
39594.10396481745
 20
-622.5018936109577
 30
0.0
 11
39541.30055431106
 21
-622.5018936109577
 31
0.0
  0
LINE
  5
1D2C39
330
1D2C28
100
AcDbEntity
  8
0
 62
     4
100
AcDbLine
 10
39542.87678606926
 20
-647.5018936109577
 30
0.0
 11
39594.10396481745
 21
-647.5018936109577
 31
0.0
  0
LINE
  5
1D2C3A
330
1D2C28
100
AcDbEntity
  8
0
 62
     4
100
AcDbLine
 10
39594.10396481745
 20
-647.5018936109577
 30
0.0
 11
39594.10396481745
 21
-672.5018936109577
 31
0.0
  0
LINE
  5
1D2C3B
330
1D2C28
100
AcDbEntity
  8
0
 62
     4
100
AcDbLine
 10
39594.10396481745
 20
-672.5018936109577
 30
0.0
 11
39546.04823628963
 21
-672.5018936109577
 31
0.0
  0
LINE
  5
1D2C3C
330
1D2C28
100
AcDbEntity
  8
0
 62
     4
100
AcDbLine
 10
39550.85404541062
 20
-697.5018936109577
 30
0.0
 11
39594.10396481745
 21
-697.5018936109577
 31
0.0
  0
LINE
  5
1D2C3D
330
1D2C28
100
AcDbEntity
  8
0
 62
     4
100
AcDbLine
 10
39594.10396481745
 20
-697.5018936109577
 30
0.0
 11
39594.10396481745
 21
-722.5018936109577
 31
0.0
  0
LINE
  5
1D2C3E
330
1D2C28
100
AcDbEntity
  8
0
 62
     4
100
AcDbLine
 10
39594.10396481745
 20
-722.5018936109577
 30
0.0
 11
39557.35601400328
 21
-722.5018936109577
 31
0.0
  0
LINE
  5
1D2C3F
330
1D2C28
100
AcDbEntity
  8
0
 62
     4
100
AcDbLine
 10
39565.64284083801
 20
-747.5018936109577
 30
0.0
 11
39594.10396481745
 21
-747.5018936109577
 31
0.0
  0
LINE
  5
1D2C40
330
1D2C28
100
AcDbEntity
  8
0
 62
     4
100
AcDbLine
 10
39594.10396481745
 20
-747.5018936109577
 30
0.0
 11
39594.10396481745
 21
-772.5018936109577
 31
0.0
  0
LINE
  5
1D2C41
330
1D2C28
100
AcDbEntity
  8
0
 62
     4
100
AcDbLine
 10
39594.10396481745
 20
-772.5018936109577
 30
0.0
 11
39575.8368218731
 21
-772.5018936109577
 31
0.0
  0
LINE
  5
1D2C42
330
1D2C28
100
AcDbEntity
  8
0
 62
     4
100
AcDbLine
 10
39588.104321451
 20
-797.5018936109577
 30
0.0
 11
39594.10396481745
 21
-797.5018936109577
 31
0.0
  0
LINE
  5
1D2C43
330
1D2C28
100
AcDbEntity
  8
0
 62
     4
100
AcDbLine
 10
39594.10396481745
 20
-797.5018936109577
 30
0.0
 11
39594.10396481745
 21
-808.3097351099921
 31
0.0
  0
LINE
  5
1D2C44
330
1D2C28
100
AcDbEntity
  8
0
 62
     4
100
AcDbLine
 10
39619.85641580726
 20
-372.5018936109577
 30
0.0
 11
39659.10396481745
 21
-372.5018936109577
 31
0.0
  0
LINE
  5
1D2C45
330
1D2C28
100
AcDbEntity
  8
0
 62
     4
100
AcDbLine
 10
39659.10396481745
 20
-372.5018936109577
 30
0.0
 11
39659.10396481745
 21
-397.5018936109577
 31
0.0
  0
LINE
  5
1D2C46
330
1D2C28
100
AcDbEntity
  8
0
 62
     4
100
AcDbLine
 10
39659.10396481745
 20
-397.5018936109577
 30
0.0
 11
39602.67242417263
 21
-397.5018936109577
 31
0.0
  0
INSERT
  5
1D2C47
330
1D2C28
100
AcDbEntity
  8
0
 62
     7
100
AcDbBlockReference
  2
gggr
 10
21716.85239176902
 20
-1354.505650828915
 30
0.0
  0
LINE
  5
1D2C48
330
1D2C28
100
AcDbEntity
  8
0
 62
     4
100
AcDbLine
 10
39588.104321451
 20
-422.5018936109576
 30
0.0
 11
39659.10396481745
 21
-422.5018936109576
 31
0.0
  0
LINE
  5
1D2C49
330
1D2C28
100
AcDbEntity
  8
0
 62
     4
100
AcDbLine
 10
39659.10396481745
 20
-422.5018936109576
 30
0.0
 11
39659.10396481745
 21
-447.5018936109576
 31
0.0
  0
LINE
  5
1D2C4A
330
1D2C28
100
AcDbEntity
  8
0
 62
     4
100
AcDbLine
 10
39659.10396481745
 20
-447.5018936109576
 30
0.0
 11
39575.8368218731
 21
-447.5018936109576
 31
0.0
  0
INSERT
  5
1D2C4B
330
1D2C28
100
AcDbEntity
  8
0
 62
     7
100
AcDbBlockReference
  2
gggr
 10
21716.85239176902
 20
-1404.505650828915
 30
0.0
  0
INSERT
  5
1D2C4C
330
1D2C28
100
AcDbEntity
  8
0
 62
     7
100
AcDbBlockReference
  2
gggr
 10
21651.85239176902
 20
-1429.505650828915
 30
0.0
  0
INSERT
  5
1D2C4D
330
1D2C28
100
AcDbEntity
  8
0
 62
     7
100
AcDbBlockReference
  2
gggr
 10
21716.85239176902
 20
-1454.505650828915
 30
0.0
  0
INSERT
  5
1D2C4E
330
1D2C28
100
AcDbEntity
  8
0
 62
     7
100
AcDbBlockReference
  2
gggr
 10
21651.85239176902
 20
-1479.505650828915
 30
0.0
  0
INSERT
  5
1D2C4F
330
1D2C28
100
AcDbEntity
  8
0
 62
     7
100
AcDbBlockReference
  2
gggr
 10
21716.85239176902
 20
-1504.505650828915
 30
0.0
  0
INSERT
  5
1D2C50
330
1D2C28
100
AcDbEntity
  8
0
 62
     7
100
AcDbBlockReference
  2
gggr
 10
21651.85239176902
 20
-1529.505650828915
 30
0.0
  0
INSERT
  5
1D2C51
330
1D2C28
100
AcDbEntity
  8
0
 62
     7
100
AcDbBlockReference
  2
gggr
 10
21716.85239176902
 20
-1554.505650828915
 30
0.0
  0
INSERT
  5
1D2C52
330
1D2C28
100
AcDbEntity
  8
0
 62
     7
100
AcDbBlockReference
  2
gggr
 10
21651.85239176902
 20
-1579.505650828915
 30
0.0
  0
INSERT
  5
1D2C53
330
1D2C28
100
AcDbEntity
  8
0
 62
     7
100
AcDbBlockReference
  2
gggr
 10
21716.85239176902
 20
-1604.505650828915
 30
0.0
  0
INSERT
  5
1D2C54
330
1D2C28
100
AcDbEntity
  8
0
 62
     7
100
AcDbBlockReference
  2
gggr
 10
21651.85239176902
 20
-1629.505650828915
 30
0.0
  0
INSERT
  5
1D2C55
330
1D2C28
100
AcDbEntity
  8
0
 62
     7
100
AcDbBlockReference
  2
gggr
 10
21716.85239176902
 20
-1654.505650828915
 30
0.0
  0
INSERT
  5
1D2C56
330
1D2C28
100
AcDbEntity
  8
0
 62
     7
100
AcDbBlockReference
  2
gggr
 10
21651.85239176902
 20
-1679.505650828915
 30
0.0
  0
INSERT
  5
1D2C57
330
1D2C28
100
AcDbEntity
  8
0
 62
     7
100
AcDbBlockReference
  2
gggr
 10
21716.85239176902
 20
-1704.505650828915
 30
0.0
  0
LINE
  5
1D2C58
330
1D2C28
100
AcDbEntity
  8
0
 62
     4
100
AcDbLine
 10
39575.8368218731
 20
-772.5018936109577
 30
0.0
 11
39659.10396481745
 21
-772.5018936109577
 31
0.0
  0
LINE
  5
1D2C59
330
1D2C28
100
AcDbEntity
  8
0
 62
     4
100
AcDbLine
 10
39659.10396481745
 20
-772.5018936109577
 30
0.0
 11
39659.10396481745
 21
-797.5018936109577
 31
0.0
  0
LINE
  5
1D2C5A
330
1D2C28
100
AcDbEntity
  8
0
 62
     4
100
AcDbLine
 10
39659.10396481745
 20
-797.5018936109577
 30
0.0
 11
39588.104321451
 21
-797.5018936109577
 31
0.0
  0
INSERT
  5
1D2C5B
330
1D2C28
100
AcDbEntity
  8
0
 62
     7
100
AcDbBlockReference
  2
gggr
 10
21716.85239176902
 20
-1754.505650828915
 30
0.0
  0
LINE
  5
1D2C5C
330
1D2C28
100
AcDbEntity
  8
0
 62
     4
100
AcDbLine
 10
39602.67242417263
 20
-822.5018936109577
 30
0.0
 11
39659.10396481745
 21
-822.5018936109577
 31
0.0
  0
LINE
  5
1D2C5D
330
1D2C28
100
AcDbEntity
  8
0
 62
     4
100
AcDbLine
 10
39659.10396481745
 20
-822.5018936109577
 30
0.0
 11
39659.10396481745
 21
-847.5018936109577
 31
0.0
  0
LINE
  5
1D2C5E
330
1D2C28
100
AcDbEntity
  8
0
 62
     4
100
AcDbLine
 10
39659.10396481745
 20
-847.5018936109577
 30
0.0
 11
39619.85641580726
 21
-847.5018936109577
 31
0.0
  0
LINE
  5
1D2C5F
330
1D2C28
100
AcDbEntity
  8
0
 62
     4
100
AcDbLine
 10
39633.10396481745
 20
-847.5018936109577
 30
0.0
 11
39724.10396481745
 21
-847.5018936109577
 31
0.0
  0
LINE
  5
1D2C60
330
1D2C28
100
AcDbEntity
  8
0
 62
     4
100
AcDbLine
 10
39724.10396481745
 20
-847.5018936109577
 30
0.0
 11
39724.10396481745
 21
-872.5018936109577
 31
0.0
  0
LINE
  5
1D2C61
330
1D2C28
100
AcDbEntity
  8
0
 62
     4
100
AcDbLine
 10
39724.10396481745
 20
-872.5018936109577
 30
0.0
 11
39640.10773368545
 21
-872.5018936109577
 31
0.0
  0
LINE
  5
1D2C62
330
1D2C28
100
AcDbEntity
  8
0
 62
     4
100
AcDbLine
 10
39633.10396481745
 20
-864.316659206678
 30
0.0
 11
39633.10396481745
 21
-847.5018936109577
 31
0.0
  0
LINE
  5
1D2C63
330
1D2C28
100
AcDbEntity
  8
0
 62
     4
100
AcDbLine
 10
39640.10773368545
 20
-872.5018936109577
 30
0.0
 11
39659.10396481745
 21
-872.5018936109577
 31
0.0
  0
LINE
  5
1D2C64
330
1D2C28
100
AcDbEntity
  8
0
 62
     4
100
AcDbLine
 10
39659.10396481745
 20
-872.5018936109577
 30
0.0
 11
39659.10396481745
 21
-892.6430088083156
 31
0.0
  0
LINE
  5
1D2C65
330
1D2C28
100
AcDbEntity
  8
0
 62
     4
100
AcDbLine
 10
39664.10442019122
 20
-897.5018936109577
 30
0.0
 11
39724.10396481745
 21
-897.5018936109577
 31
0.0
  0
LINE
  5
1D2C66
330
1D2C28
100
AcDbEntity
  8
0
 62
     4
100
AcDbLine
 10
39724.10396481745
 20
-897.5018936109577
 30
0.0
 11
39724.10396481745
 21
-922.5018936109577
 31
0.0
  0
LINE
  5
1D2C67
330
1D2C28
100
AcDbEntity
  8
0
 62
     4
100
AcDbLine
 10
39724.10396481745
 20
-922.5018936109577
 30
0.0
 11
39692.94159488668
 21
-922.5018936109577
 31
0.0
  0
INSERT
  5
1D2C68
330
1D2C28
100
AcDbEntity
  8
0
 62
     7
100
AcDbBlockReference
  2
gggr
 10
21781.85239176902
 20
-1329.505650828915
 30
0.0
  0
INSERT
  5
1D2C69
330
1D2C28
100
AcDbEntity
  8
0
 62
     7
100
AcDbBlockReference
  2
gggr
 10
21846.85239176902
 20
-1354.505650828915
 30
0.0
  0
INSERT
  5
1D2C6A
330
1D2C28
100
AcDbEntity
  8
0
 62
     7
100
AcDbBlockReference
  2
gggr
 10
21781.85239176902
 20
-1379.505650828915
 30
0.0
  0
INSERT
  5
1D2C6B
330
1D2C28
100
AcDbEntity
  8
0
 62
     7
100
AcDbBlockReference
  2
gggr
 10
21846.85239176902
 20
-1404.505650828915
 30
0.0
  0
INSERT
  5
1D2C6C
330
1D2C28
100
AcDbEntity
  8
0
 62
     7
100
AcDbBlockReference
  2
gggr
 10
21781.85239176902
 20
-1429.505650828915
 30
0.0
  0
INSERT
  5
1D2C6D
330
1D2C28
100
AcDbEntity
  8
0
 62
     7
100
AcDbBlockReference
  2
gggr
 10
21846.85239176902
 20
-1454.505650828915
 30
0.0
  0
INSERT
  5
1D2C6E
330
1D2C28
100
AcDbEntity
  8
0
 62
     7
100
AcDbBlockReference
  2
gggr
 10
21781.85239176902
 20
-1479.505650828915
 30
0.0
  0
INSERT
  5
1D2C6F
330
1D2C28
100
AcDbEntity
  8
0
 62
     7
100
AcDbBlockReference
  2
gggr
 10
21846.85239176902
 20
-1504.505650828915
 30
0.0
  0
INSERT
  5
1D2C70
330
1D2C28
100
AcDbEntity
  8
0
 62
     7
100
AcDbBlockReference
  2
gggr
 10
21781.85239176902
 20
-1529.505650828915
 30
0.0
  0
INSERT
  5
1D2C71
330
1D2C28
100
AcDbEntity
  8
0
 62
     7
100
AcDbBlockReference
  2
gggr
 10
21846.85239176902
 20
-1554.505650828915
 30
0.0
  0
INSERT
  5
1D2C72
330
1D2C28
100
AcDbEntity
  8
0
 62
     7
100
AcDbBlockReference
  2
gggr
 10
21781.85239176902
 20
-1579.505650828915
 30
0.0
  0
INSERT
  5
1D2C73
330
1D2C28
100
AcDbEntity
  8
0
 62
     7
100
AcDbBlockReference
  2
gggr
 10
21846.85239176902
 20
-1604.505650828915
 30
0.0
  0
INSERT
  5
1D2C74
330
1D2C28
100
AcDbEntity
  8
0
 62
     7
100
AcDbBlockReference
  2
gggr
 10
21781.85239176902
 20
-1629.505650828915
 30
0.0
  0
INSERT
  5
1D2C75
330
1D2C28
100
AcDbEntity
  8
0
 62
     7
100
AcDbBlockReference
  2
gggr
 10
21846.85239176902
 20
-1654.505650828915
 30
0.0
  0
INSERT
  5
1D2C76
330
1D2C28
100
AcDbEntity
  8
0
 62
     7
100
AcDbBlockReference
  2
gggr
 10
21781.85239176902
 20
-1679.505650828915
 30
0.0
  0
INSERT
  5
1D2C77
330
1D2C28
100
AcDbEntity
  8
0
 62
     7
100
AcDbBlockReference
  2
gggr
 10
21846.85239176902
 20
-1704.505650828915
 30
0.0
  0
INSERT
  5
1D2C78
330
1D2C28
100
AcDbEntity
  8
0
 62
     7
100
AcDbBlockReference
  2
gggr
 10
21781.85239176902
 20
-1729.505650828915
 30
0.0
  0
INSERT
  5
1D2C79
330
1D2C28
100
AcDbEntity
  8
0
 62
     7
100
AcDbBlockReference
  2
gggr
 10
21846.85239176902
 20
-1754.505650828915
 30
0.0
  0
INSERT
  5
1D2C7A
330
1D2C28
100
AcDbEntity
  8
0
 62
     7
100
AcDbBlockReference
  2
gggr
 10
21781.85239176902
 20
-1779.505650828915
 30
0.0
  0
INSERT
  5
1D2C7B
330
1D2C28
100
AcDbEntity
  8
0
 62
     7
100
AcDbBlockReference
  2
gggr
 10
21846.85239176902
 20
-1804.505650828915
 30
0.0
  0
INSERT
  5
1D2C7C
330
1D2C28
100
AcDbEntity
  8
0
 62
     7
100
AcDbBlockReference
  2
gggr
 10
21781.85239176902
 20
-1829.505650828915
 30
0.0
  0
INSERT
  5
1D2C7D
330
1D2C28
100
AcDbEntity
  8
0
 62
     7
100
AcDbBlockReference
  2
gggr
 10
21846.85239176902
 20
-1854.505650828915
 30
0.0
  0
LINE
  5
1D2C7E
330
1D2C28
100
AcDbEntity
  8
0
 62
     4
100
AcDbLine
 10
39698.10396481745
 20
-922.5018936109577
 30
0.0
 11
39789.10396481745
 21
-922.5018936109577
 31
0.0
  0
LINE
  5
1D2C7F
330
1D2C28
100
AcDbEntity
  8
0
 62
     4
100
AcDbLine
 10
39789.10396481745
 20
-922.5018936109577
 30
0.0
 11
39789.10396481745
 21
-947.5018936109577
 31
0.0
  0
LINE
  5
1D2C80
330
1D2C28
100
AcDbEntity
  8
0
 62
     4
100
AcDbLine
 10
39789.10396481745
 20
-947.5018936109577
 30
0.0
 11
39728.60396481744
 21
-947.5018936109577
 31
0.0
  0
LINE
  5
1D2C81
330
1D2C28
100
AcDbEntity
  8
0
 62
     4
100
AcDbLine
 10
39698.10396481745
 20
-926.4920198392591
 30
0.0
 11
39698.10396481745
 21
-922.5018936109577
 31
0.0
  0
LINE
  5
1D2C82
330
1D2C28
100
AcDbEntity
  8
0
 62
     4
100
AcDbLine
 10
39763.10396481745
 20
-947.5018936109577
 30
0.0
 11
39854.10396481745
 21
-947.5018936109577
 31
0.0
  0
LINE
  5
1D2C83
330
1D2C28
100
AcDbEntity
  8
0
 62
     4
100
AcDbLine
 10
39854.10396481745
 20
-947.5018936109577
 30
0.0
 11
39854.10396481745
 21
-972.5018936109577
 31
0.0
  0
LINE
  5
1D2C84
330
1D2C28
100
AcDbEntity
  8
0
 62
     4
100
AcDbLine
 10
39854.10396481745
 20
-972.5018936109577
 30
0.0
 11
39775.50890051443
 21
-972.5018936109577
 31
0.0
  0
LINE
  5
1D2C85
330
1D2C28
100
AcDbEntity
  8
0
 62
     4
100
AcDbLine
 10
39763.10396481745
 20
-966.661395096627
 30
0.0
 11
39763.10396481745
 21
-947.5018936109577
 31
0.0
  0
LINE
  5
1D2C86
330
1D2C28
100
AcDbEntity
  8
0
 62
     4
100
AcDbLine
 10
39775.50890051443
 20
-972.5018936109577
 30
0.0
 11
39789.10396481745
 21
-972.5018936109577
 31
0.0
  0
LINE
  5
1D2C87
330
1D2C28
100
AcDbEntity
  8
0
 62
     4
100
AcDbLine
 10
39789.10396481745
 20
-972.5018936109577
 30
0.0
 11
39789.10396481745
 21
-978.3169761150634
 31
0.0
  0
INSERT
  5
1D2C88
330
1D2C28
100
AcDbEntity
  8
0
 62
     7
100
AcDbBlockReference
  2
gggr
 10
21911.85239176902
 20
-1329.505650828915
 30
0.0
  0
INSERT
  5
1D2C89
330
1D2C28
100
AcDbEntity
  8
0
 62
     7
100
AcDbBlockReference
  2
gggr
 10
21976.85239176902
 20
-1354.505650828915
 30
0.0
  0
INSERT
  5
1D2C8A
330
1D2C28
100
AcDbEntity
  8
0
 62
     7
100
AcDbBlockReference
  2
gggr
 10
21911.85239176902
 20
-1379.505650828915
 30
0.0
  0
INSERT
  5
1D2C8B
330
1D2C28
100
AcDbEntity
  8
0
 62
     7
100
AcDbBlockReference
  2
gggr
 10
21976.85239176902
 20
-1404.505650828915
 30
0.0
  0
INSERT
  5
1D2C8C
330
1D2C28
100
AcDbEntity
  8
0
 62
     7
100
AcDbBlockReference
  2
gggr
 10
21911.85239176902
 20
-1429.505650828915
 30
0.0
  0
INSERT
  5
1D2C8D
330
1D2C28
100
AcDbEntity
  8
0
 62
     7
100
AcDbBlockReference
  2
gggr
 10
21976.85239176902
 20
-1454.505650828915
 30
0.0
  0
INSERT
  5
1D2C8E
330
1D2C28
100
AcDbEntity
  8
0
 62
     7
100
AcDbBlockReference
  2
gggr
 10
21911.85239176902
 20
-1479.505650828915
 30
0.0
  0
INSERT
  5
1D2C8F
330
1D2C28
100
AcDbEntity
  8
0
 62
     7
100
AcDbBlockReference
  2
gggr
 10
21976.85239176902
 20
-1504.505650828915
 30
0.0
  0
INSERT
  5
1D2C90
330
1D2C28
100
AcDbEntity
  8
0
 62
     7
100
AcDbBlockReference
  2
gggr
 10
21911.85239176902
 20
-1529.505650828915
 30
0.0
  0
INSERT
  5
1D2C91
330
1D2C28
100
AcDbEntity
  8
0
 62
     7
100
AcDbBlockReference
  2
gggr
 10
21976.85239176902
 20
-1554.505650828915
 30
0.0
  0
INSERT
  5
1D2C92
330
1D2C28
100
AcDbEntity
  8
0
 62
     7
100
AcDbBlockReference
  2
gggr
 10
21911.85239176902
 20
-1579.505650828915
 30
0.0
  0
INSERT
  5
1D2C93
330
1D2C28
100
AcDbEntity
  8
0
 62
     7
100
AcDbBlockReference
  2
gggr
 10
21976.85239176902
 20
-1604.505650828915
 30
0.0
  0
INSERT
  5
1D2C94
330
1D2C28
100
AcDbEntity
  8
0
 62
     7
100
AcDbBlockReference
  2
gggr
 10
21911.85239176902
 20
-1629.505650828915
 30
0.0
  0
INSERT
  5
1D2C95
330
1D2C28
100
AcDbEntity
  8
0
 62
     7
100
AcDbBlockReference
  2
gggr
 10
21976.85239176902
 20
-1654.505650828915
 30
0.0
  0
INSERT
  5
1D2C96
330
1D2C28
100
AcDbEntity
  8
0
 62
     7
100
AcDbBlockReference
  2
gggr
 10
21911.85239176902
 20
-1679.505650828915
 30
0.0
  0
INSERT
  5
1D2C97
330
1D2C28
100
AcDbEntity
  8
0
 62
     7
100
AcDbBlockReference
  2
gggr
 10
21976.85239176902
 20
-1704.505650828915
 30
0.0
  0
INSERT
  5
1D2C98
330
1D2C28
100
AcDbEntity
  8
0
 62
     7
100
AcDbBlockReference
  2
gggr
 10
21911.85239176902
 20
-1729.505650828915
 30
0.0
  0
INSERT
  5
1D2C99
330
1D2C28
100
AcDbEntity
  8
0
 62
     7
100
AcDbBlockReference
  2
gggr
 10
21976.85239176902
 20
-1754.505650828915
 30
0.0
  0
INSERT
  5
1D2C9A
330
1D2C28
100
AcDbEntity
  8
0
 62
     7
100
AcDbBlockReference
  2
gggr
 10
21911.85239176902
 20
-1779.505650828915
 30
0.0
  0
INSERT
  5
1D2C9B
330
1D2C28
100
AcDbEntity
  8
0
 62
     7
100
AcDbBlockReference
  2
gggr
 10
21976.85239176902
 20
-1804.505650828915
 30
0.0
  0
INSERT
  5
1D2C9C
330
1D2C28
100
AcDbEntity
  8
0
 62
     7
100
AcDbBlockReference
  2
gggr
 10
21911.85239176902
 20
-1829.505650828915
 30
0.0
  0
INSERT
  5
1D2C9D
330
1D2C28
100
AcDbEntity
  8
0
 62
     7
100
AcDbBlockReference
  2
gggr
 10
21976.85239176902
 20
-1854.505650828915
 30
0.0
  0
INSERT
  5
1D2C9E
330
1D2C28
100
AcDbEntity
  8
0
 62
     7
100
AcDbBlockReference
  2
gggr
 10
21911.85239176902
 20
-1879.505650828915
 30
0.0
  0
INSERT
  5
1D2C9F
330
1D2C28
100
AcDbEntity
  8
0
 62
     7
100
AcDbBlockReference
  2
gggr
 10
21976.85239176902
 20
-1904.505650828915
 30
0.0
  0
LINE
  5
1D2CA0
330
1D2C28
100
AcDbEntity
  8
0
 62
     4
100
AcDbLine
 10
39828.10396481745
 20
-972.5018936109577
 30
0.0
 11
39919.10396481745
 21
-972.5018936109577
 31
0.0
  0
LINE
  5
1D2CA1
330
1D2C28
100
AcDbEntity
  8
0
 62
     4
100
AcDbLine
 10
39919.10396481745
 20
-972.5018936109577
 30
0.0
 11
39919.10396481745
 21
-997.5018936109577
 31
0.0
  0
LINE
  5
1D2CA2
330
1D2C28
100
AcDbEntity
  8
0
 62
     4
100
AcDbLine
 10
39919.10396481745
 20
-997.5018936109577
 30
0.0
 11
39850.00373908407
 21
-997.5018936109577
 31
0.0
  0
LINE
  5
1D2CA3
330
1D2C28
100
AcDbEntity
  8
0
 62
     4
100
AcDbLine
 10
39828.10396481745
 20
-991.8343175877673
 30
0.0
 11
39828.10396481745
 21
-972.5018936109577
 31
0.0
  0
LINE
  5
1D2CA4
330
1D2C28
100
AcDbEntity
  8
0
 62
     4
100
AcDbLine
 10
39893.10396481745
 20
-997.5018936109577
 30
0.0
 11
39984.10396481745
 21
-997.5018936109577
 31
0.0
  0
LINE
  5
1D2CA5
330
1D2C28
100
AcDbEntity
  8
0
 62
     4
100
AcDbLine
 10
39984.10396481745
 20
-997.5018936109577
 30
0.0
 11
39984.10396481745
 21
-1004.889219312867
 31
0.0
  0
LINE
  5
1D2CA6
330
1D2C28
100
AcDbEntity
  8
0
 62
     4
100
AcDbLine
 10
39893.10396481745
 20
-1004.889219312867
 30
0.0
 11
39893.10396481745
 21
-997.5018936109577
 31
0.0
  0
INSERT
  5
1D2CA7
330
1D2C28
100
AcDbEntity
  8
0
 62
     7
100
AcDbBlockReference
  2
gggr
 10
22041.85239176902
 20
-1329.505650828915
 30
0.0
  0
INSERT
  5
1D2CA8
330
1D2C28
100
AcDbEntity
  8
0
 62
     7
100
AcDbBlockReference
  2
gggr
 10
22106.85239176902
 20
-1354.505650828915
 30
0.0
  0
INSERT
  5
1D2CA9
330
1D2C28
100
AcDbEntity
  8
0
 62
     7
100
AcDbBlockReference
  2
gggr
 10
22041.85239176902
 20
-1379.505650828915
 30
0.0
  0
INSERT
  5
1D2CAA
330
1D2C28
100
AcDbEntity
  8
0
 62
     7
100
AcDbBlockReference
  2
gggr
 10
22106.85239176902
 20
-1404.505650828915
 30
0.0
  0
INSERT
  5
1D2CAB
330
1D2C28
100
AcDbEntity
  8
0
 62
     7
100
AcDbBlockReference
  2
gggr
 10
22041.85239176902
 20
-1429.505650828915
 30
0.0
  0
INSERT
  5
1D2CAC
330
1D2C28
100
AcDbEntity
  8
0
 62
     7
100
AcDbBlockReference
  2
gggr
 10
22106.85239176902
 20
-1454.505650828915
 30
0.0
  0
INSERT
  5
1D2CAD
330
1D2C28
100
AcDbEntity
  8
0
 62
     7
100
AcDbBlockReference
  2
gggr
 10
22041.85239176902
 20
-1479.505650828915
 30
0.0
  0
INSERT
  5
1D2CAE
330
1D2C28
100
AcDbEntity
  8
0
 62
     7
100
AcDbBlockReference
  2
gggr
 10
22106.85239176902
 20
-1504.505650828915
 30
0.0
  0
INSERT
  5
1D2CAF
330
1D2C28
100
AcDbEntity
  8
0
 62
     7
100
AcDbBlockReference
  2
gggr
 10
22041.85239176902
 20
-1529.505650828915
 30
0.0
  0
INSERT
  5
1D2CB0
330
1D2C28
100
AcDbEntity
  8
0
 62
     7
100
AcDbBlockReference
  2
gggr
 10
22106.85239176902
 20
-1554.505650828915
 30
0.0
  0
INSERT
  5
1D2CB1
330
1D2C28
100
AcDbEntity
  8
0
 62
     7
100
AcDbBlockReference
  2
gggr
 10
22041.85239176902
 20
-1579.505650828915
 30
0.0
  0
INSERT
  5
1D2CB2
330
1D2C28
100
AcDbEntity
  8
0
 62
     7
100
AcDbBlockReference
  2
gggr
 10
22106.85239176902
 20
-1604.505650828915
 30
0.0
  0
INSERT
  5
1D2CB3
330
1D2C28
100
AcDbEntity
  8
0
 62
     7
100
AcDbBlockReference
  2
gggr
 10
22041.85239176902
 20
-1629.505650828915
 30
0.0
  0
INSERT
  5
1D2CB4
330
1D2C28
100
AcDbEntity
  8
0
 62
     7
100
AcDbBlockReference
  2
gggr
 10
22106.85239176902
 20
-1654.505650828915
 30
0.0
  0
INSERT
  5
1D2CB5
330
1D2C28
100
AcDbEntity
  8
0
 62
     7
100
AcDbBlockReference
  2
gggr
 10
22041.85239176902
 20
-1679.505650828915
 30
0.0
  0
INSERT
  5
1D2CB6
330
1D2C28
100
AcDbEntity
  8
0
 62
     7
100
AcDbBlockReference
  2
gggr
 10
22106.85239176902
 20
-1704.505650828915
 30
0.0
  0
INSERT
  5
1D2CB7
330
1D2C28
100
AcDbEntity
  8
0
 62
     7
100
AcDbBlockReference
  2
gggr
 10
22041.85239176902
 20
-1729.505650828915
 30
0.0
  0
INSERT
  5
1D2CB8
330
1D2C28
100
AcDbEntity
  8
0
 62
     7
100
AcDbBlockReference
  2
gggr
 10
22106.85239176902
 20
-1754.505650828915
 30
0.0
  0
INSERT
  5
1D2CB9
330
1D2C28
100
AcDbEntity
  8
0
 62
     7
100
AcDbBlockReference
  2
gggr
 10
22041.85239176902
 20
-1779.505650828915
 30
0.0
  0
INSERT
  5
1D2CBA
330
1D2C28
100
AcDbEntity
  8
0
 62
     7
100
AcDbBlockReference
  2
gggr
 10
22106.85239176902
 20
-1804.505650828915
 30
0.0
  0
INSERT
  5
1D2CBB
330
1D2C28
100
AcDbEntity
  8
0
 62
     7
100
AcDbBlockReference
  2
gggr
 10
22041.85239176902
 20
-1829.505650828915
 30
0.0
  0
INSERT
  5
1D2CBC
330
1D2C28
100
AcDbEntity
  8
0
 62
     7
100
AcDbBlockReference
  2
gggr
 10
22106.85239176902
 20
-1854.505650828915
 30
0.0
  0
INSERT
  5
1D2CBD
330
1D2C28
100
AcDbEntity
  8
0
 62
     7
100
AcDbBlockReference
  2
gggr
 10
22041.85239176902
 20
-1879.505650828915
 30
0.0
  0
LINE
  5
1D2CBE
330
1D2C28
100
AcDbEntity
  8
0
 62
     4
100
AcDbLine
 10
40023.10396481744
 20
-947.5018936109577
 30
0.0
 11
40114.10396481744
 21
-947.5018936109577
 31
0.0
  0
LINE
  5
1D2CBF
330
1D2C28
100
AcDbEntity
  8
0
 62
     4
100
AcDbLine
 10
40114.10396481744
 20
-947.5018936109577
 30
0.0
 11
40114.10396481744
 21
-966.661395096627
 31
0.0
  0
LINE
  5
1D2CC0
330
1D2C28
100
AcDbEntity
  8
0
 62
     4
100
AcDbLine
 10
40101.69902912047
 20
-972.5018936109577
 30
0.0
 11
40023.10396481744
 21
-972.5018936109577
 31
0.0
  0
LINE
  5
1D2CC1
330
1D2C28
100
AcDbEntity
  8
0
 62
     4
100
AcDbLine
 10
40023.10396481744
 20
-972.5018936109577
 30
0.0
 11
40023.10396481744
 21
-947.5018936109577
 31
0.0
  0
LINE
  5
1D2CC2
330
1D2C28
100
AcDbEntity
  8
0
 62
     4
100
AcDbLine
 10
39958.10396481745
 20
-972.5018936109577
 30
0.0
 11
40049.10396481744
 21
-972.5018936109577
 31
0.0
  0
LINE
  5
1D2CC3
330
1D2C28
100
AcDbEntity
  8
0
 62
     4
100
AcDbLine
 10
40049.10396481744
 20
-972.5018936109577
 30
0.0
 11
40049.10396481744
 21
-991.8343175877673
 31
0.0
  0
LINE
  5
1D2CC4
330
1D2C28
100
AcDbEntity
  8
0
 62
     4
100
AcDbLine
 10
40027.20419055083
 20
-997.5018936109577
 30
0.0
 11
39958.10396481745
 21
-997.5018936109577
 31
0.0
  0
LINE
  5
1D2CC5
330
1D2C28
100
AcDbEntity
  8
0
 62
     4
100
AcDbLine
 10
39958.10396481745
 20
-997.5018936109577
 30
0.0
 11
39958.10396481745
 21
-972.5018936109577
 31
0.0
  0
INSERT
  5
1D2CC6
330
1D2C28
100
AcDbEntity
  8
0
 62
     7
100
AcDbBlockReference
  2
gggr
 10
22171.85239176902
 20
-1329.505650828915
 30
0.0
  0
INSERT
  5
1D2CC7
330
1D2C28
100
AcDbEntity
  8
0
 62
     7
100
AcDbBlockReference
  2
gggr
 10
22236.85239176902
 20
-1354.505650828915
 30
0.0
  0
INSERT
  5
1D2CC8
330
1D2C28
100
AcDbEntity
  8
0
 62
     7
100
AcDbBlockReference
  2
gggr
 10
22171.85239176902
 20
-1379.505650828915
 30
0.0
  0
INSERT
  5
1D2CC9
330
1D2C28
100
AcDbEntity
  8
0
 62
     7
100
AcDbBlockReference
  2
gggr
 10
22236.85239176902
 20
-1404.505650828915
 30
0.0
  0
INSERT
  5
1D2CCA
330
1D2C28
100
AcDbEntity
  8
0
 62
     7
100
AcDbBlockReference
  2
gggr
 10
22171.85239176902
 20
-1429.505650828915
 30
0.0
  0
INSERT
  5
1D2CCB
330
1D2C28
100
AcDbEntity
  8
0
 62
     7
100
AcDbBlockReference
  2
gggr
 10
22236.85239176902
 20
-1454.505650828915
 30
0.0
  0
INSERT
  5
1D2CCC
330
1D2C28
100
AcDbEntity
  8
0
 62
     7
100
AcDbBlockReference
  2
gggr
 10
22171.85239176902
 20
-1479.505650828915
 30
0.0
  0
INSERT
  5
1D2CCD
330
1D2C28
100
AcDbEntity
  8
0
 62
     7
100
AcDbBlockReference
  2
gggr
 10
22236.85239176902
 20
-1504.505650828915
 30
0.0
  0
INSERT
  5
1D2CCE
330
1D2C28
100
AcDbEntity
  8
0
 62
     7
100
AcDbBlockReference
  2
gggr
 10
22171.85239176902
 20
-1529.505650828915
 30
0.0
  0
INSERT
  5
1D2CCF
330
1D2C28
100
AcDbEntity
  8
0
 62
     7
100
AcDbBlockReference
  2
gggr
 10
22236.85239176902
 20
-1554.505650828915
 30
0.0
  0
INSERT
  5
1D2CD0
330
1D2C28
100
AcDbEntity
  8
0
 62
     7
100
AcDbBlockReference
  2
gggr
 10
22171.85239176902
 20
-1579.505650828915
 30
0.0
  0
INSERT
  5
1D2CD1
330
1D2C28
100
AcDbEntity
  8
0
 62
     7
100
AcDbBlockReference
  2
gggr
 10
22236.85239176902
 20
-1604.505650828915
 30
0.0
  0
INSERT
  5
1D2CD2
330
1D2C28
100
AcDbEntity
  8
0
 62
     7
100
AcDbBlockReference
  2
gggr
 10
22171.85239176902
 20
-1629.505650828915
 30
0.0
  0
INSERT
  5
1D2CD3
330
1D2C28
100
AcDbEntity
  8
0
 62
     7
100
AcDbBlockReference
  2
gggr
 10
22236.85239176902
 20
-1654.505650828915
 30
0.0
  0
INSERT
  5
1D2CD4
330
1D2C28
100
AcDbEntity
  8
0
 62
     7
100
AcDbBlockReference
  2
gggr
 10
22171.85239176902
 20
-1679.505650828915
 30
0.0
  0
INSERT
  5
1D2CD5
330
1D2C28
100
AcDbEntity
  8
0
 62
     7
100
AcDbBlockReference
  2
gggr
 10
22236.85239176902
 20
-1704.505650828915
 30
0.0
  0
INSERT
  5
1D2CD6
330
1D2C28
100
AcDbEntity
  8
0
 62
     7
100
AcDbBlockReference
  2
gggr
 10
22171.85239176902
 20
-1729.505650828915
 30
0.0
  0
INSERT
  5
1D2CD7
330
1D2C28
100
AcDbEntity
  8
0
 62
     7
100
AcDbBlockReference
  2
gggr
 10
22236.85239176902
 20
-1754.505650828915
 30
0.0
  0
INSERT
  5
1D2CD8
330
1D2C28
100
AcDbEntity
  8
0
 62
     7
100
AcDbBlockReference
  2
gggr
 10
22171.85239176902
 20
-1779.505650828915
 30
0.0
  0
LINE
  5
1D2CD9
330
1D2C28
100
AcDbEntity
  8
0
 62
     4
100
AcDbLine
 10
40153.10396481744
 20
-847.5018936109577
 30
0.0
 11
40244.10396481744
 21
-847.5018936109577
 31
0.0
  0
LINE
  5
1D2CDA
330
1D2C28
100
AcDbEntity
  8
0
 62
     4
100
AcDbLine
 10
40244.10396481744
 20
-847.5018936109577
 30
0.0
 11
40244.10396481744
 21
-864.316659206678
 31
0.0
  0
LINE
  5
1D2CDB
330
1D2C28
100
AcDbEntity
  8
0
 62
     4
100
AcDbLine
 10
40237.10019594944
 20
-872.5018936109577
 30
0.0
 11
40153.10396481744
 21
-872.5018936109577
 31
0.0
  0
LINE
  5
1D2CDC
330
1D2C28
100
AcDbEntity
  8
0
 62
     4
100
AcDbLine
 10
40153.10396481744
 20
-872.5018936109577
 30
0.0
 11
40153.10396481744
 21
-847.5018936109577
 31
0.0
  0
INSERT
  5
1D2CDD
330
1D2C28
100
AcDbEntity
  8
0
 62
     7
100
AcDbBlockReference
  2
gggr
 10
22171.85239176902
 20
-1829.505650828915
 30
0.0
  0
LINE
  5
1D2CDE
330
1D2C28
100
AcDbEntity
  8
0
 62
     4
100
AcDbLine
 10
40153.10396481744
 20
-897.5018936109577
 30
0.0
 11
40213.10350944367
 21
-897.5018936109577
 31
0.0
  0
LINE
  5
1D2CDF
330
1D2C28
100
AcDbEntity
  8
0
 62
     4
100
AcDbLine
 10
40184.26633474822
 20
-922.5018936109577
 30
0.0
 11
40153.10396481744
 21
-922.5018936109577
 31
0.0
  0
LINE
  5
1D2CE0
330
1D2C28
100
AcDbEntity
  8
0
 62
     4
100
AcDbLine
 10
40153.10396481744
 20
-922.5018936109577
 30
0.0
 11
40153.10396481744
 21
-897.5018936109577
 31
0.0
  0
LINE
  5
1D2CE1
330
1D2C28
100
AcDbEntity
  8
0
 62
     4
100
AcDbLine
 10
40088.10396481744
 20
-922.5018936109577
 30
0.0
 11
40179.10396481744
 21
-922.5018936109577
 31
0.0
  0
LINE
  5
1D2CE2
330
1D2C28
100
AcDbEntity
  8
0
 62
     4
100
AcDbLine
 10
40179.10396481744
 20
-922.5018936109577
 30
0.0
 11
40179.10396481744
 21
-926.4920198392591
 31
0.0
  0
LINE
  5
1D2CE3
330
1D2C28
100
AcDbEntity
  8
0
 62
     4
100
AcDbLine
 10
40148.60396481746
 20
-947.5018936109577
 30
0.0
 11
40088.10396481744
 21
-947.5018936109577
 31
0.0
  0
LINE
  5
1D2CE4
330
1D2C28
100
AcDbEntity
  8
0
 62
     4
100
AcDbLine
 10
40088.10396481744
 20
-947.5018936109577
 30
0.0
 11
40088.10396481744
 21
-922.5018936109577
 31
0.0
  0
LINE
  5
1D2CE5
330
1D2C28
100
AcDbEntity
  8
0
 62
     4
100
AcDbLine
 10
40088.10396481744
 20
-972.5018936109577
 30
0.0
 11
40101.69902912047
 21
-972.5018936109577
 31
0.0
  0
LINE
  5
1D2CE6
330
1D2C28
100
AcDbEntity
  8
0
 62
     4
100
AcDbLine
 10
40088.10396481744
 20
-978.3169761150634
 30
0.0
 11
40088.10396481744
 21
-972.5018936109577
 31
0.0
  0
LINE
  5
1D2CE7
330
1D2C28
100
AcDbEntity
  8
0
 62
     4
100
AcDbLine
 10
40218.10396481744
 20
-372.5018936109577
 30
0.0
 11
40257.35151382764
 21
-372.5018936109577
 31
0.0
  0
LINE
  5
1D2CE8
330
1D2C28
100
AcDbEntity
  8
0
 62
     4
100
AcDbLine
 10
40274.53550546227
 20
-397.5018936109577
 30
0.0
 11
40218.10396481744
 21
-397.5018936109577
 31
0.0
  0
LINE
  5
1D2CE9
330
1D2C28
100
AcDbEntity
  8
0
 62
     4
100
AcDbLine
 10
40218.10396481744
 20
-397.5018936109577
 30
0.0
 11
40218.10396481744
 21
-372.5018936109577
 31
0.0
  0
LINE
  5
1D2CEA
330
1D2C28
100
AcDbEntity
  8
0
 62
     4
100
AcDbLine
 10
40218.10396481744
 20
-422.5018936109576
 30
0.0
 11
40289.1036081839
 21
-422.5018936109576
 31
0.0
  0
LINE
  5
1D2CEB
330
1D2C28
100
AcDbEntity
  8
0
 62
     4
100
AcDbLine
 10
40301.3711077618
 20
-447.5018936109576
 30
0.0
 11
40218.10396481744
 21
-447.5018936109576
 31
0.0
  0
LINE
  5
1D2CEC
330
1D2C28
100
AcDbEntity
  8
0
 62
     4
100
AcDbLine
 10
40218.10396481744
 20
-447.5018936109576
 30
0.0
 11
40218.10396481744
 21
-422.5018936109576
 31
0.0
  0
INSERT
  5
1D2CED
330
1D2C28
100
AcDbEntity
  8
0
 62
     7
100
AcDbBlockReference
  2
gggr
 10
22301.85239176902
 20
-1429.505650828915
 30
0.0
  0
INSERT
  5
1D2CEE
330
1D2C28
100
AcDbEntity
  8
0
 62
     7
100
AcDbBlockReference
  2
gggr
 10
22301.85239176902
 20
-1479.505650828915
 30
0.0
  0
INSERT
  5
1D2CEF
330
1D2C28
100
AcDbEntity
  8
0
 62
     7
100
AcDbBlockReference
  2
gggr
 10
22301.85239176902
 20
-1529.505650828915
 30
0.0
  0
INSERT
  5
1D2CF0
330
1D2C28
100
AcDbEntity
  8
0
 62
     7
100
AcDbBlockReference
  2
gggr
 10
22301.85239176902
 20
-1579.505650828915
 30
0.0
  0
INSERT
  5
1D2CF1
330
1D2C28
100
AcDbEntity
  8
0
 62
     7
100
AcDbBlockReference
  2
gggr
 10
22301.85239176902
 20
-1629.505650828915
 30
0.0
  0
INSERT
  5
1D2CF2
330
1D2C28
100
AcDbEntity
  8
0
 62
     7
100
AcDbBlockReference
  2
gggr
 10
22301.85239176902
 20
-1679.505650828915
 30
0.0
  0
LINE
  5
1D2CF3
330
1D2C28
100
AcDbEntity
  8
0
 62
     4
100
AcDbLine
 10
40218.10396481744
 20
-772.5018936109577
 30
0.0
 11
40301.3711077618
 21
-772.5018936109577
 31
0.0
  0
LINE
  5
1D2CF4
330
1D2C28
100
AcDbEntity
  8
0
 62
     4
100
AcDbLine
 10
40289.1036081839
 20
-797.5018936109577
 30
0.0
 11
40218.10396481744
 21
-797.5018936109577
 31
0.0
  0
LINE
  5
1D2CF5
330
1D2C28
100
AcDbEntity
  8
0
 62
     4
100
AcDbLine
 10
40218.10396481744
 20
-797.5018936109577
 30
0.0
 11
40218.10396481744
 21
-772.5018936109577
 31
0.0
  0
LINE
  5
1D2CF6
330
1D2C28
100
AcDbEntity
  8
0
 62
     4
100
AcDbLine
 10
40218.10396481744
 20
-822.5018936109577
 30
0.0
 11
40274.53550546227
 21
-822.5018936109577
 31
0.0
  0
LINE
  5
1D2CF7
330
1D2C28
100
AcDbEntity
  8
0
 62
     4
100
AcDbLine
 10
40257.35151382764
 20
-847.5018936109577
 30
0.0
 11
40218.10396481744
 21
-847.5018936109577
 31
0.0
  0
LINE
  5
1D2CF8
330
1D2C28
100
AcDbEntity
  8
0
 62
     4
100
AcDbLine
 10
40218.10396481744
 20
-847.5018936109577
 30
0.0
 11
40218.10396481744
 21
-822.5018936109577
 31
0.0
  0
LINE
  5
1D2CF9
330
1D2C28
100
AcDbEntity
  8
0
 62
     4
100
AcDbLine
 10
40218.10396481744
 20
-872.5018936109577
 30
0.0
 11
40237.10019594944
 21
-872.5018936109577
 31
0.0
  0
LINE
  5
1D2CFA
330
1D2C28
100
AcDbEntity
  8
0
 62
     4
100
AcDbLine
 10
40218.10396481744
 20
-892.6430088083156
 30
0.0
 11
40218.10396481744
 21
-872.5018936109577
 31
0.0
  0
LINE
  5
1D2CFB
330
1D2C28
100
AcDbEntity
  8
0
 62
     4
100
AcDbLine
 10
40289.1036081839
 20
-422.5018936109576
 30
0.0
 11
40283.10396481744
 21
-422.5018936109576
 31
0.0
  0
LINE
  5
1D2CFC
330
1D2C28
100
AcDbEntity
  8
0
 62
     4
100
AcDbLine
 10
40283.10396481744
 20
-422.5018936109576
 30
0.0
 11
40283.10396481744
 21
-411.6940521119233
 31
0.0
  0
LINE
  5
1D2CFD
330
1D2C28
100
AcDbEntity
  8
0
 62
     4
100
AcDbLine
 10
40283.10396481744
 20
-447.5018936109576
 30
0.0
 11
40301.3711077618
 21
-447.5018936109576
 31
0.0
  0
LINE
  5
1D2CFE
330
1D2C28
100
AcDbEntity
  8
0
 62
     4
100
AcDbLine
 10
40311.56508879688
 20
-472.5018936109576
 30
0.0
 11
40283.10396481744
 21
-472.5018936109576
 31
0.0
  0
LINE
  5
1D2CFF
330
1D2C28
100
AcDbEntity
  8
0
 62
     4
100
AcDbLine
 10
40283.10396481744
 20
-472.5018936109576
 30
0.0
 11
40283.10396481744
 21
-447.5018936109576
 31
0.0
  0
LINE
  5
1D2D00
330
1D2C28
100
AcDbEntity
  8
0
 62
     4
100
AcDbLine
 10
40283.10396481744
 20
-497.5018936109576
 30
0.0
 11
40319.85191563162
 21
-497.5018936109576
 31
0.0
  0
LINE
  5
1D2D01
330
1D2C28
100
AcDbEntity
  8
0
 62
     4
100
AcDbLine
 10
40326.35388422428
 20
-522.5018936109576
 30
0.0
 11
40283.10396481744
 21
-522.5018936109576
 31
0.0
  0
LINE
  5
1D2D02
330
1D2C28
100
AcDbEntity
  8
0
 62
     4
100
AcDbLine
 10
40283.10396481744
 20
-522.5018936109576
 30
0.0
 11
40283.10396481744
 21
-497.5018936109576
 31
0.0
  0
LINE
  5
1D2D03
330
1D2C28
100
AcDbEntity
  8
0
 62
     4
100
AcDbLine
 10
40283.10396481744
 20
-547.5018936109576
 30
0.0
 11
40331.15969334526
 21
-547.5018936109576
 31
0.0
  0
LINE
  5
1D2D04
330
1D2C28
100
AcDbEntity
  8
0
 62
     4
100
AcDbLine
 10
40334.33114356564
 20
-572.5018936109576
 30
0.0
 11
40283.10396481744
 21
-572.5018936109576
 31
0.0
  0
LINE
  5
1D2D05
330
1D2C28
100
AcDbEntity
  8
0
 62
     4
100
AcDbLine
 10
40283.10396481744
 20
-572.5018936109576
 30
0.0
 11
40283.10396481744
 21
-547.5018936109576
 31
0.0
  0
LINE
  5
1D2D06
330
1D2C28
100
AcDbEntity
  8
0
 62
     4
100
AcDbLine
 10
40283.10396481744
 20
-597.5018936109577
 30
0.0
 11
40335.90737532383
 21
-597.5018936109577
 31
0.0
  0
LINE
  5
1D2D07
330
1D2C28
100
AcDbEntity
  8
0
 62
     4
100
AcDbLine
 10
40335.90737532383
 20
-622.5018936109577
 30
0.0
 11
40283.10396481744
 21
-622.5018936109577
 31
0.0
  0
LINE
  5
1D2D08
330
1D2C28
100
AcDbEntity
  8
0
 62
     4
100
AcDbLine
 10
40283.10396481744
 20
-622.5018936109577
 30
0.0
 11
40283.10396481744
 21
-597.5018936109577
 31
0.0
  0
LINE
  5
1D2D09
330
1D2C28
100
AcDbEntity
  8
0
 62
     4
100
AcDbLine
 10
40283.10396481744
 20
-647.5018936109577
 30
0.0
 11
40334.33114356564
 21
-647.5018936109577
 31
0.0
  0
LINE
  5
1D2D0A
330
1D2C28
100
AcDbEntity
  8
0
 62
     4
100
AcDbLine
 10
40331.15969334526
 20
-672.5018936109577
 30
0.0
 11
40283.10396481744
 21
-672.5018936109577
 31
0.0
  0
LINE
  5
1D2D0B
330
1D2C28
100
AcDbEntity
  8
0
 62
     4
100
AcDbLine
 10
40283.10396481744
 20
-672.5018936109577
 30
0.0
 11
40283.10396481744
 21
-647.5018936109577
 31
0.0
  0
LINE
  5
1D2D0C
330
1D2C28
100
AcDbEntity
  8
0
 62
     4
100
AcDbLine
 10
40283.10396481744
 20
-697.5018936109577
 30
0.0
 11
40326.35388422428
 21
-697.5018936109577
 31
0.0
  0
LINE
  5
1D2D0D
330
1D2C28
100
AcDbEntity
  8
0
 62
     4
100
AcDbLine
 10
40319.85191563162
 20
-722.5018936109577
 30
0.0
 11
40283.10396481744
 21
-722.5018936109577
 31
0.0
  0
LINE
  5
1D2D0E
330
1D2C28
100
AcDbEntity
  8
0
 62
     4
100
AcDbLine
 10
40283.10396481744
 20
-722.5018936109577
 30
0.0
 11
40283.10396481744
 21
-697.5018936109577
 31
0.0
  0
LINE
  5
1D2D0F
330
1D2C28
100
AcDbEntity
  8
0
 62
     4
100
AcDbLine
 10
40283.10396481744
 20
-747.5018936109577
 30
0.0
 11
40311.56508879688
 21
-747.5018936109577
 31
0.0
  0
LINE
  5
1D2D10
330
1D2C28
100
AcDbEntity
  8
0
 62
     4
100
AcDbLine
 10
40301.3711077618
 20
-772.5018936109577
 30
0.0
 11
40283.10396481744
 21
-772.5018936109577
 31
0.0
  0
LINE
  5
1D2D11
330
1D2C28
100
AcDbEntity
  8
0
 62
     4
100
AcDbLine
 10
40283.10396481744
 20
-772.5018936109577
 30
0.0
 11
40283.10396481744
 21
-747.5018936109577
 31
0.0
  0
LINE
  5
1D2D12
330
1D2C28
100
AcDbEntity
  8
0
 62
     4
100
AcDbLine
 10
40283.10396481744
 20
-797.5018936109577
 30
0.0
 11
40289.1036081839
 21
-797.5018936109577
 31
0.0
  0
LINE
  5
1D2D13
330
1D2C28
100
AcDbEntity
  8
0
 62
     4
100
AcDbLine
 10
40283.10396481744
 20
-808.3097351099921
 30
0.0
 11
40283.10396481744
 21
-797.5018936109577
 31
0.0
  0
LINE
  5
1D2D14
330
1D2C28
100
AcDbEntity
  8
0
 62
     4
100
AcDbLine
 10
39640.10773368545
 20
-347.5018936109578
 30
0.0
 11
39724.10396481745
 21
-347.5018936109577
 31
0.0
  0
LINE
  5
1D2D15
330
1D2C28
100
AcDbEntity
  8
0
 62
     4
100
AcDbLine
 10
39724.10396481745
 20
-347.5018936109577
 30
0.0
 11
39724.10396481745
 21
-372.5018936109577
 31
0.0
  0
LINE
  5
1D2D16
330
1D2C28
100
AcDbEntity
  8
0
 62
     4
100
AcDbLine
 10
39724.10396481745
 20
-372.5018936109577
 30
0.0
 11
39633.10396481745
 21
-372.5018936109577
 31
0.0
  0
LINE
  5
1D2D17
330
1D2C28
100
AcDbEntity
  8
0
 62
     4
100
AcDbLine
 10
39633.10396481745
 20
-372.5018936109577
 30
0.0
 11
39633.10396481745
 21
-355.6871280152375
 31
0.0
  0
INSERT
  5
1D2D18
330
1D2C28
100
AcDbEntity
  8
0
 62
     7
100
AcDbBlockReference
  2
gggr
 10
21846.85239176902
 20
-1304.505650828915
 30
0.0
  0
INSERT
  5
1D2D19
330
1D2C28
100
AcDbEntity
  8
0
 62
     7
100
AcDbBlockReference
  2
gggr
 10
21976.85239176902
 20
-1304.505650828915
 30
0.0
  0
INSERT
  5
1D2D1A
330
1D2C28
100
AcDbEntity
  8
0
 62
     7
100
AcDbBlockReference
  2
gggr
 10
22106.85239176902
 20
-1304.505650828915
 30
0.0
  0
LINE
  5
1D2D1B
330
1D2C28
100
AcDbEntity
  8
0
 62
     4
100
AcDbLine
 10
40153.10396481744
 20
-347.5018936109577
 30
0.0
 11
40237.10019594944
 21
-347.5018936109578
 31
0.0
  0
LINE
  5
1D2D1C
330
1D2C28
100
AcDbEntity
  8
0
 62
     4
100
AcDbLine
 10
40244.10396481744
 20
-355.6871280152375
 30
0.0
 11
40244.10396481744
 21
-372.5018936109577
 31
0.0
  0
LINE
  5
1D2D1D
330
1D2C28
100
AcDbEntity
  8
0
 62
     4
100
AcDbLine
 10
40244.10396481744
 20
-372.5018936109577
 30
0.0
 11
40153.10396481744
 21
-372.5018936109577
 31
0.0
  0
LINE
  5
1D2D1E
330
1D2C28
100
AcDbEntity
  8
0
 62
     4
100
AcDbLine
 10
40153.10396481744
 20
-372.5018936109577
 30
0.0
 11
40153.10396481744
 21
-347.5018936109577
 31
0.0
  0
LINE
  5
1D2D1F
330
1D2C28
100
AcDbEntity
  8
0
 62
     4
100
AcDbLine
 10
39659.10396481745
 20
-327.3607784135998
 30
0.0
 11
39659.10396481745
 21
-347.5018936109577
 31
0.0
  0
LINE
  5
1D2D20
330
1D2C28
100
AcDbEntity
  8
0
 62
     4
100
AcDbLine
 10
39659.10396481745
 20
-347.5018936109577
 30
0.0
 11
39640.10773368545
 21
-347.5018936109578
 31
0.0
  0
INSERT
  5
1D2D21
330
1D2C28
100
AcDbEntity
  8
0
 62
     7
100
AcDbBlockReference
  2
gggr
 10
21781.85239176902
 20
-1279.505650828915
 30
0.0
  0
INSERT
  5
1D2D22
330
1D2C28
100
AcDbEntity
  8
0
 62
     7
100
AcDbBlockReference
  2
gggr
 10
21911.85239176902
 20
-1279.505650828915
 30
0.0
  0
INSERT
  5
1D2D23
330
1D2C28
100
AcDbEntity
  8
0
 62
     7
100
AcDbBlockReference
  2
gggr
 10
22041.85239176902
 20
-1279.505650828915
 30
0.0
  0
INSERT
  5
1D2D24
330
1D2C28
100
AcDbEntity
  8
0
 62
     7
100
AcDbBlockReference
  2
gggr
 10
22171.85239176902
 20
-1279.505650828915
 30
0.0
  0
LINE
  5
1D2D25
330
1D2C28
100
AcDbEntity
  8
0
 62
     4
100
AcDbLine
 10
40237.10019594944
 20
-347.5018936109578
 30
0.0
 11
40218.10396481744
 21
-347.5018936109577
 31
0.0
  0
LINE
  5
1D2D26
330
1D2C28
100
AcDbEntity
  8
0
 62
     4
100
AcDbLine
 10
40218.10396481744
 20
-347.5018936109577
 30
0.0
 11
40218.10396481744
 21
-327.3607784135998
 31
0.0
  0
LINE
  5
1D2D27
330
1D2C28
100
AcDbEntity
  8
0
 62
     4
100
AcDbLine
 10
39692.94159488668
 20
-297.5018936109578
 30
0.0
 11
39724.10396481745
 21
-297.5018936109577
 31
0.0
  0
LINE
  5
1D2D28
330
1D2C28
100
AcDbEntity
  8
0
 62
     4
100
AcDbLine
 10
39724.10396481745
 20
-297.5018936109577
 30
0.0
 11
39724.10396481745
 21
-322.5018936109577
 31
0.0
  0
LINE
  5
1D2D29
330
1D2C28
100
AcDbEntity
  8
0
 62
     4
100
AcDbLine
 10
39724.10396481745
 20
-322.5018936109577
 30
0.0
 11
39664.10442019122
 21
-322.5018936109578
 31
0.0
  0
INSERT
  5
1D2D2A
330
1D2C28
100
AcDbEntity
  8
0
 62
     7
100
AcDbBlockReference
  2
gggr
 10
21846.85239176902
 20
-1254.505650828915
 30
0.0
  0
INSERT
  5
1D2D2B
330
1D2C28
100
AcDbEntity
  8
0
 62
     7
100
AcDbBlockReference
  2
gggr
 10
21976.85239176902
 20
-1254.505650828915
 30
0.0
  0
INSERT
  5
1D2D2C
330
1D2C28
100
AcDbEntity
  8
0
 62
     7
100
AcDbBlockReference
  2
gggr
 10
22106.85239176902
 20
-1254.505650828915
 30
0.0
  0
LINE
  5
1D2D2D
330
1D2C28
100
AcDbEntity
  8
0
 62
     4
100
AcDbLine
 10
40153.10396481744
 20
-297.5018936109577
 30
0.0
 11
40184.26633474822
 21
-297.5018936109578
 31
0.0
  0
LINE
  5
1D2D2E
330
1D2C28
100
AcDbEntity
  8
0
 62
     4
100
AcDbLine
 10
40213.10350944367
 20
-322.5018936109578
 30
0.0
 11
40153.10396481744
 21
-322.5018936109577
 31
0.0
  0
LINE
  5
1D2D2F
330
1D2C28
100
AcDbEntity
  8
0
 62
     4
100
AcDbLine
 10
40153.10396481744
 20
-322.5018936109577
 30
0.0
 11
40153.10396481744
 21
-297.5018936109577
 31
0.0
  0
LINE
  5
1D2D30
330
1D2C28
100
AcDbEntity
  8
0
 62
     4
100
AcDbLine
 10
39728.60396481744
 20
-272.5018936109578
 30
0.0
 11
39789.10396481745
 21
-272.5018936109577
 31
0.0
  0
LINE
  5
1D2D31
330
1D2C28
100
AcDbEntity
  8
0
 62
     4
100
AcDbLine
 10
39789.10396481745
 20
-272.5018936109577
 30
0.0
 11
39789.10396481745
 21
-297.5018936109577
 31
0.0
  0
LINE
  5
1D2D32
330
1D2C28
100
AcDbEntity
  8
0
 62
     4
100
AcDbLine
 10
39789.10396481745
 20
-297.5018936109577
 30
0.0
 11
39698.10396481745
 21
-297.5018936109577
 31
0.0
  0
LINE
  5
1D2D33
330
1D2C28
100
AcDbEntity
  8
0
 62
     4
100
AcDbLine
 10
39698.10396481745
 20
-297.5018936109577
 30
0.0
 11
39698.10396481745
 21
-293.5117673826563
 31
0.0
  0
INSERT
  5
1D2D34
330
1D2C28
100
AcDbEntity
  8
0
 62
     7
100
AcDbBlockReference
  2
gggr
 10
21911.85239176902
 20
-1229.505650828915
 30
0.0
  0
INSERT
  5
1D2D35
330
1D2C28
100
AcDbEntity
  8
0
 62
     7
100
AcDbBlockReference
  2
gggr
 10
22041.85239176902
 20
-1229.505650828915
 30
0.0
  0
LINE
  5
1D2D36
330
1D2C28
100
AcDbEntity
  8
0
 62
     4
100
AcDbLine
 10
40088.10396481744
 20
-272.5018936109577
 30
0.0
 11
40148.60396481746
 21
-272.5018936109578
 31
0.0
  0
LINE
  5
1D2D37
330
1D2C28
100
AcDbEntity
  8
0
 62
     4
100
AcDbLine
 10
40179.10396481744
 20
-293.5117673826563
 30
0.0
 11
40179.10396481744
 21
-297.5018936109577
 31
0.0
  0
LINE
  5
1D2D38
330
1D2C28
100
AcDbEntity
  8
0
 62
     4
100
AcDbLine
 10
40179.10396481744
 20
-297.5018936109577
 30
0.0
 11
40088.10396481744
 21
-297.5018936109577
 31
0.0
  0
LINE
  5
1D2D39
330
1D2C28
100
AcDbEntity
  8
0
 62
     4
100
AcDbLine
 10
40088.10396481744
 20
-297.5018936109577
 30
0.0
 11
40088.10396481744
 21
-272.5018936109577
 31
0.0
  0
LINE
  5
1D2D3A
330
1D2C28
100
AcDbEntity
  8
0
 62
     4
100
AcDbLine
 10
39775.50890051443
 20
-247.5018936109577
 30
0.0
 11
39854.10396481745
 21
-247.5018936109577
 31
0.0
  0
LINE
  5
1D2D3B
330
1D2C28
100
AcDbEntity
  8
0
 62
     4
100
AcDbLine
 10
39854.10396481745
 20
-247.5018936109577
 30
0.0
 11
39854.10396481745
 21
-272.5018936109577
 31
0.0
  0
LINE
  5
1D2D3C
330
1D2C28
100
AcDbEntity
  8
0
 62
     4
100
AcDbLine
 10
39854.10396481745
 20
-272.5018936109577
 30
0.0
 11
39763.10396481745
 21
-272.5018936109577
 31
0.0
  0
LINE
  5
1D2D3D
330
1D2C28
100
AcDbEntity
  8
0
 62
     4
100
AcDbLine
 10
39763.10396481745
 20
-272.5018936109577
 30
0.0
 11
39763.10396481745
 21
-253.3423921252884
 31
0.0
  0
INSERT
  5
1D2D3E
330
1D2C28
100
AcDbEntity
  8
0
 62
     7
100
AcDbBlockReference
  2
gggr
 10
21976.85239176902
 20
-1204.505650828915
 30
0.0
  0
LINE
  5
1D2D3F
330
1D2C28
100
AcDbEntity
  8
0
 62
     4
100
AcDbLine
 10
40023.10396481744
 20
-247.5018936109577
 30
0.0
 11
40101.69902912047
 21
-247.5018936109577
 31
0.0
  0
LINE
  5
1D2D40
330
1D2C28
100
AcDbEntity
  8
0
 62
     4
100
AcDbLine
 10
40114.10396481744
 20
-253.3423921252884
 30
0.0
 11
40114.10396481744
 21
-272.5018936109577
 31
0.0
  0
LINE
  5
1D2D41
330
1D2C28
100
AcDbEntity
  8
0
 62
     4
100
AcDbLine
 10
40114.10396481744
 20
-272.5018936109577
 30
0.0
 11
40023.10396481744
 21
-272.5018936109577
 31
0.0
  0
LINE
  5
1D2D42
330
1D2C28
100
AcDbEntity
  8
0
 62
     4
100
AcDbLine
 10
40023.10396481744
 20
-272.5018936109577
 30
0.0
 11
40023.10396481744
 21
-247.5018936109577
 31
0.0
  0
LINE
  5
1D2D43
330
1D2C28
100
AcDbEntity
  8
0
 62
     4
100
AcDbLine
 10
39789.10396481745
 20
-241.6868111068521
 30
0.0
 11
39789.10396481745
 21
-247.5018936109577
 31
0.0
  0
LINE
  5
1D2D44
330
1D2C28
100
AcDbEntity
  8
0
 62
     4
100
AcDbLine
 10
39789.10396481745
 20
-247.5018936109577
 30
0.0
 11
39775.50890051443
 21
-247.5018936109577
 31
0.0
  0
LINE
  5
1D2D45
330
1D2C28
100
AcDbEntity
  8
0
 62
     4
100
AcDbLine
 10
39850.00373908407
 20
-222.5018936109577
 30
0.0
 11
39919.10396481745
 21
-222.5018936109577
 31
0.0
  0
LINE
  5
1D2D46
330
1D2C28
100
AcDbEntity
  8
0
 62
     4
100
AcDbLine
 10
39919.10396481745
 20
-222.5018936109577
 30
0.0
 11
39919.10396481745
 21
-247.5018936109577
 31
0.0
  0
LINE
  5
1D2D47
330
1D2C28
100
AcDbEntity
  8
0
 62
     4
100
AcDbLine
 10
39919.10396481745
 20
-247.5018936109577
 30
0.0
 11
39828.10396481745
 21
-247.5018936109577
 31
0.0
  0
LINE
  5
1D2D48
330
1D2C28
100
AcDbEntity
  8
0
 62
     4
100
AcDbLine
 10
39828.10396481745
 20
-247.5018936109577
 30
0.0
 11
39828.10396481745
 21
-228.169469634148
 31
0.0
  0
LINE
  5
1D2D49
330
1D2C28
100
AcDbEntity
  8
0
 62
     4
100
AcDbLine
 10
39958.10396481745
 20
-222.5018936109577
 30
0.0
 11
40027.20419055083
 21
-222.5018936109577
 31
0.0
  0
LINE
  5
1D2D4A
330
1D2C28
100
AcDbEntity
  8
0
 62
     4
100
AcDbLine
 10
40049.10396481744
 20
-228.169469634148
 30
0.0
 11
40049.10396481744
 21
-247.5018936109577
 31
0.0
  0
LINE
  5
1D2D4B
330
1D2C28
100
AcDbEntity
  8
0
 62
     4
100
AcDbLine
 10
40049.10396481744
 20
-247.5018936109577
 30
0.0
 11
39958.10396481745
 21
-247.5018936109577
 31
0.0
  0
LINE
  5
1D2D4C
330
1D2C28
100
AcDbEntity
  8
0
 62
     4
100
AcDbLine
 10
39958.10396481745
 20
-247.5018936109577
 30
0.0
 11
39958.10396481745
 21
-222.5018936109577
 31
0.0
  0
LINE
  5
1D2D4D
330
1D2C28
100
AcDbEntity
  8
0
 62
     4
100
AcDbLine
 10
40101.69902912047
 20
-247.5018936109577
 30
0.0
 11
40088.10396481744
 21
-247.5018936109577
 31
0.0
  0
LINE
  5
1D2D4E
330
1D2C28
100
AcDbEntity
  8
0
 62
     4
100
AcDbLine
 10
40088.10396481744
 20
-247.5018936109577
 30
0.0
 11
40088.10396481744
 21
-241.6868111068521
 31
0.0
  0
LINE
  5
1D2D4F
330
1D2C28
100
AcDbEntity
  8
0
 62
     4
100
AcDbLine
 10
39854.10396481745
 20
-221.5871668046668
 30
0.0
 11
39854.10396481745
 21
-222.5018936109577
 31
0.0
  0
LINE
  5
1D2D50
330
1D2C28
100
AcDbEntity
  8
0
 62
     4
100
AcDbLine
 10
39854.10396481745
 20
-222.5018936109577
 30
0.0
 11
39850.00373908407
 21
-222.5018936109577
 31
0.0
  0
LINE
  5
1D2D51
330
1D2C28
100
AcDbEntity
  8
0
 62
     4
100
AcDbLine
 10
39984.10396481744
 20
-215.1145679090475
 30
0.0
 11
39984.10396481745
 21
-222.5018936109577
 31
0.0
  0
LINE
  5
1D2D52
330
1D2C28
100
AcDbEntity
  8
0
 62
     4
100
AcDbLine
 10
39984.10396481745
 20
-222.5018936109577
 30
0.0
 11
39893.10396481745
 21
-222.5018936109577
 31
0.0
  0
LINE
  5
1D2D53
330
1D2C28
100
AcDbEntity
  8
0
 62
     4
100
AcDbLine
 10
39893.10396481745
 20
-222.5018936109577
 30
0.0
 11
39893.10396481745
 21
-215.1145679090483
 31
0.0
  0
LINE
  5
1D2D54
330
1D2C28
100
AcDbEntity
  8
0
 62
     4
100
AcDbLine
 10
40023.10396481744
 20
-222.5018936109577
 30
0.0
 11
40023.10396481743
 21
-221.5871668046653
 31
0.0
  0
CIRCLE
  5
1D2D55
330
1D2C28
100
AcDbEntity
  8
Widoczne (ISO)
 62
     2
100
AcDbCircle
 10
39938.60396481745
 20
-610.0018936109577
 30
0.0
 40
397.5000000000077
  0
LINE
  5
1D2D56
330
1D2C28
100
AcDbEntity
  8
0
100
AcDbLine
 10
39938.60396481745
 20
-597.5018936109577
 30
0.0
 11
39938.60396481745
 21
-622.5018936109577
 31
0.0
  0
ENDBLK
  5
1D2C2A
330
1D2C28
100
AcDbEntity
  8
0
100
AcDbBlockEnd
  0
ENDSEC
  0
SECTION
  2
ENTITIES
  0
LINE
  5
1CE56A
330
6C
100
AcDbEntity
  8
Widoczne (ISO)
 62
     2
100
AcDbLine
 10
37561.96904331371
 20
-27.97962883882792
 30
0.0
 11
37564.09047368808
 21
-30.10083914586244
 31
0.0
  0
LINE
  5
1CE576
330
6C
100
AcDbEntity
  8
Widoczne (ISO)
 62
     2
100
AcDbLine
 10
36548.03095668627
 20
-1050.508629154371
 30
0.0
 11
36545.90952631189
 21
-1048.387418847336
 31
0.0
  0
LINE
  5
1CE57C
330
6C
100
AcDbEntity
  8
Widoczne (ISO)
 62
     2
100
AcDbLine
 10
37564.14328985074
 20
-1048.334602684696
 30
0.0
 11
37562.0220795437
 21
-1050.456033059074
 31
0.0
  0
LINE
  5
1CE582
330
6C
100
AcDbEntity
  8
Widoczne (ISO)
 62
     2
100
AcDbLine
 10
37566.26450015776
 20
-1046.213172310318
 30
0.0
 11
37564.14328985074
 21
-1048.334602684696
 31
0.0
  0
LINE
  5
1CE589
330
6C
100
AcDbEntity
  8
Widoczne (ISO)
 62
     2
100
AcDbLine
 10
37566.21190406247
 20
-32.22204945289377
 30
0.0
 11
37564.09047368808
 21
-30.10083914586039
 31
0.0
  0
LINE
  5
1CE595
330
6C
100
AcDbEntity
  8
Widoczne (ISO)
 62
     2
100
AcDbLine
 10
36543.78809593752
 20
-1046.266208540305
 30
0.0
 11
36545.90952631189
 21
-1048.387418847338
 31
0.0
  0
LINE
  5
1CE597
330
6C
100
AcDbEntity
  8
Widoczne (ISO)
 62
     2
100
AcDbLine
 10
37051.2626325912
 20
181.1556781139043
 30
0.0
 11
37035.26263261272
 21
181.1548481880015
 31
0.0
  0
LINE
  5
1CE598
330
6C
100
AcDbEntity
  8
Widoczne (ISO)
 62
     2
100
AcDbLine
 10
37042.96307521135
 20
180.6552476121278
 30
0.0
 11
37035.26265854791
 21
180.6548481886741
 31
0.0
  0
LINE
  5
1CE599
330
6C
100
AcDbEntity
  8
Widoczne (ISO)
 62
     2
100
AcDbLine
 10
37035.26265854791
 20
180.6548481886741
 30
0.0
 11
37035.26263261272
 21
181.1548481880013
 31
0.0
  0
LINE
  5
1CE59A
330
6C
100
AcDbEntity
  8
Widoczne (ISO)
 62
     2
100
AcDbLine
 10
37051.26265383249
 20
180.746171107246
 30
0.0
 11
37051.2626325912
 21
181.1556781139038
 31
0.0
  0
ARC
  5
1CE59B
330
6C
100
AcDbEntity
  8
Widoczne (ISO)
 62
     2
100
AcDbCircle
 10
37043.26310808034
 20
171.9885964966174
 30
0.0
 40
12.16666666666676
100
AcDbArc
 50
48.89088151402376
 51
131.1150623923662
  0
LINE
  5
1CE59C
330
6C
100
AcDbEntity
  8
Widoczne (ISO)
 62
     2
100
AcDbLine
 10
37039.57169531618
 20
180.6550717000011
 30
0.0
 11
37039.57169866285
 21
180.5905516890786
 31
0.0
  0
LINE
  5
1CE59D
330
6C
100
AcDbEntity
  8
Widoczne (ISO)
 62
     2
100
AcDbLine
 10
37074.66263255972
 20
181.1568918805381
 30
0.0
 11
37058.66263258123
 21
181.1560619546353
 31
0.0
  0
LINE
  5
1CE59E
330
6C
100
AcDbEntity
  8
Widoczne (ISO)
 62
     2
100
AcDbLine
 10
37074.66265849491
 20
180.6568918812106
 30
0.0
 11
37066.96224183138
 21
180.6564924577569
 31
0.0
  0
LINE
  5
1CE59F
330
6C
100
AcDbEntity
  8
Widoczne (ISO)
 62
     2
100
AcDbLine
 10
37058.66265382252
 20
180.7465549479761
 30
0.0
 11
37058.66263258123
 21
181.1560619546353
 31
0.0
  0
LINE
  5
1CE5A0
330
6C
100
AcDbEntity
  8
Widoczne (ISO)
 62
     2
100
AcDbLine
 10
37074.66265849491
 20
180.6568918812104
 30
0.0
 11
37074.66263255972
 21
181.1568918805378
 31
0.0
  0
ARC
  5
1CE5A1
330
6C
100
AcDbEntity
  8
Widoczne (ISO)
 62
     2
100
AcDbCircle
 10
37066.66310804886
 20
171.989810263251
 30
0.0
 40
12.16666666666705
100
AcDbArc
 50
48.89088151402376
 51
131.1150623923662
  0
LINE
  5
1CE5A2
330
6C
100
AcDbEntity
  8
Widoczne (ISO)
 62
     2
100
AcDbLine
 10
37070.49104307059
 20
180.6566754979792
 30
0.0
 11
37070.49104657036
 21
180.5892041272256
 31
0.0
  0
LINE
  5
1CE5A3
330
6C
100
AcDbEntity
  8
Widoczne (ISO)
 62
     2
100
AcDbLine
 10
37320.60217713039
 20
130.454044439457
 30
0.0
 11
37305.66459290769
 21
136.1871568218901
 31
0.0
  0
LINE
  5
1CE5A4
330
6C
100
AcDbEntity
  8
Widoczne (ISO)
 62
     2
100
AcDbLine
 10
37305.5053392944
 20
135.7722226460796
 30
0.0
 11
37305.66459290769
 21
136.1871568218898
 31
0.0
  0
LINE
  5
1CE5A5
330
6C
100
AcDbEntity
  8
Widoczne (ISO)
 62
     2
100
AcDbLine
 10
37320.4429235171
 20
130.0391102636463
 30
0.0
 11
37320.60217713039
 21
130.454044439457
 31
0.0
  0
ARC
  5
1CE5A6
330
6C
100
AcDbEntity
  8
Widoczne (ISO)
 62
     2
100
AcDbCircle
 10
37309.84878938326
 20
124.762609669749
 30
0.0
 40
12.16666666666652
100
AcDbArc
 50
27.8908815140371
 51
110.1150623923301
  0
LINE
  5
1CE5A7
330
6C
100
AcDbEntity
  8
Widoczne (ISO)
 62
     2
100
AcDbLine
 10
37542.95935503249
 20
-9.210330228757355
 30
0.0
 11
37531.06848251202
 21
1.49514270344207
 31
0.0
  0
LINE
  5
1CE5A8
330
6C
100
AcDbEntity
  8
Widoczne (ISO)
 62
     2
100
AcDbLine
 10
37530.77110734603
 20
1.164839669469754
 30
0.0
 11
37531.06848251202
 21
1.49514270344207
 31
0.0
  0
LINE
  5
1CE5A9
330
6C
100
AcDbEntity
  8
Widoczne (ISO)
 62
     2
100
AcDbLine
 10
37542.66197986649
 20
-9.540633262729443
 30
0.0
 11
37542.95935503249
 21
-9.210330228757355
 31
0.0
  0
ARC
  5
1CE5AA
330
6C
100
AcDbEntity
  8
Widoczne (ISO)
 62
     2
100
AcDbCircle
 10
37530.88057490485
 20
-10.67007281084079
 30
0.0
 40
12.16666666666671
100
AcDbArc
 50
6.890881514062534
 51
89.11506239239946
  0
LINE
  5
1CE5AB
330
6C
100
AcDbEntity
  8
Widoczne (ISO)
 62
     2
100
AcDbLine
 10
36804.26533870128
 20
136.1611490575653
 30
0.0
 11
36789.32834931627
 21
130.426487069976
 31
0.0
  0
LINE
  5
1CE5AC
330
6C
100
AcDbEntity
  8
Widoczne (ISO)
 62
     2
100
AcDbLine
 10
36789.48764597428
 20
130.0115694174878
 30
0.0
 11
36789.32834931627
 21
130.426487069976
 31
0.0
  0
LINE
  5
1CE5AD
330
6C
100
AcDbEntity
  8
Widoczne (ISO)
 62
     2
100
AcDbLine
 10
36804.42463535929
 20
135.746231405077
 30
0.0
 11
36804.26533870128
 21
136.1611490575651
 31
0.0
  0
ARC
  5
1CE5AE
330
6C
100
AcDbEntity
  8
Widoczne (ISO)
 62
     2
100
AcDbCircle
 10
36800.08232743917
 20
124.7361678952716
 30
0.0
 40
12.1666666666666
100
AcDbArc
 50
69.89088151396545
 51
152.1150623923636
  0
LINE
  5
1CE5AF
330
6C
100
AcDbEntity
  8
Widoczne (ISO)
 62
     2
100
AcDbLine
 10
36385.30182656351
 20
-273.6419518672642
 30
0.0
 11
36379.5687141811
 21
-288.5795360899779
 31
0.0
  0
LINE
  5
1CE5B0
330
6C
100
AcDbEntity
  8
Widoczne (ISO)
 62
     2
100
AcDbLine
 10
36379.98364835692
 20
-288.7387897032631
 30
0.0
 11
36379.5687141811
 21
-288.579536089978
 31
0.0
  0
LINE
  5
1CE5B1
330
6C
100
AcDbEntity
  8
Widoczne (ISO)
 62
     2
100
AcDbLine
 10
36385.71676073931
 20
-273.8012054805495
 30
0.0
 11
36385.30182656351
 21
-273.6419518672643
 31
0.0
  0
ARC
  5
1CE5B2
330
6C
100
AcDbEntity
  8
Widoczne (ISO)
 62
     2
100
AcDbCircle
 10
36390.99326133324
 20
-284.3953396143764
 30
0.0
 40
12.16666666666663
100
AcDbArc
 50
117.8908815141894
 51
200.1150623924609
  0
LINE
  5
1CE5B3
330
6C
100
AcDbEntity
  8
Widoczne (ISO)
 62
     2
100
AcDbLine
 10
36578.87542335877
 20
1.445752098116598
 30
0.0
 11
36566.98566149595
 21
-9.260954344362744
 31
0.0
  0
LINE
  5
1CE5B4
330
6C
100
AcDbEntity
  8
Widoczne (ISO)
 62
     2
100
AcDbLine
 10
36567.28307092622
 20
-9.591226526634043
 30
0.0
 11
36566.98566149595
 21
-9.260954344362744
 31
0.0
  0
LINE
  5
1CE5B5
330
6C
100
AcDbEntity
  8
Widoczne (ISO)
 62
     2
100
AcDbLine
 10
36579.17283278905
 20
1.115479915845297
 30
0.0
 11
36578.87542335877
 21
1.445752098116598
 31
0.0
  0
ARC
  5
1CE5B6
330
6C
100
AcDbEntity
  8
Widoczne (ISO)
 62
     2
100
AcDbCircle
 10
36579.06459299337
 20
-10.71944385703023
 30
0.0
 40
12.1666666666666
100
AcDbArc
 50
90.8908815140842
 51
173.1150623923892
  0
LINE
  5
1CE5B7
330
6C
100
AcDbEntity
  8
Widoczne (ISO)
 62
     2
100
AcDbLine
 10
36334.59958600615
 20
-531.2814964222708
 30
0.0
 11
36334.60041593208
 21
-547.2814964007468
 31
0.0
  0
LINE
  5
1CE5B8
330
6C
100
AcDbEntity
  8
Widoczne (ISO)
 62
     2
100
AcDbLine
 10
36335.04486174775
 20
-547.2814733471778
 30
0.0
 11
36334.60041593208
 21
-547.2814964007468
 31
0.0
  0
LINE
  5
1CE5B9
330
6C
100
AcDbEntity
  8
Widoczne (ISO)
 62
     2
100
AcDbLine
 10
36335.04403182183
 20
-531.2814733687019
 30
0.0
 11
36334.59958600615
 21
-531.2814964222708
 31
0.0
  0
ARC
  5
1CE5BA
330
6C
100
AcDbEntity
  8
Widoczne (ISO)
 62
     2
100
AcDbCircle
 10
36343.76666762345
 20
-539.2810209331128
 30
0.0
 40
12.16666666666671
100
AcDbArc
 50
138.8908815141313
 51
221.1150623924469
  0
LINE
  5
1CE5BB
330
6C
100
AcDbEntity
  8
Widoczne (ISO)
 62
     2
100
AcDbLine
 10
36789.39782286959
 20
-1208.942302432657
 30
0.0
 11
36804.3354070923
 21
-1214.67541481509
 31
0.0
  0
LINE
  5
1CE5BC
330
6C
100
AcDbEntity
  8
Widoczne (ISO)
 62
     2
100
AcDbLine
 10
36804.49466070558
 20
-1214.26048063928
 30
0.0
 11
36804.3354070923
 21
-1214.67541481509
 31
0.0
  0
LINE
  5
1CE5BD
330
6C
100
AcDbEntity
  8
Widoczne (ISO)
 62
     2
100
AcDbLine
 10
36789.55707648288
 20
-1208.527368256847
 30
0.0
 11
36789.39782286959
 21
-1208.942302432657
 31
0.0
  0
ARC
  5
1CE5BE
330
6C
100
AcDbEntity
  8
Widoczne (ISO)
 62
     2
100
AcDbCircle
 10
36800.15121061671
 20
-1203.250867662949
 30
0.0
 40
12.16666666666665
100
AcDbArc
 50
207.8908815140371
 51
290.11506239233
  0
LINE
  5
1CE5BF
330
6C
100
AcDbEntity
  8
Widoczne (ISO)
 62
     2
100
AcDbLine
 10
37730.40527805377
 20
-288.5094676968271
 30
0.0
 11
37724.67061606615
 21
-273.5724783118197
 31
0.0
  0
LINE
  5
1CE5C0
330
6C
100
AcDbEntity
  8
Widoczne (ISO)
 62
     2
100
AcDbLine
 10
37724.25569841365
 20
-273.7317749698286
 30
0.0
 11
37724.67061606615
 21
-273.5724783118197
 31
0.0
  0
LINE
  5
1CE5C1
330
6C
100
AcDbEntity
  8
Widoczne (ISO)
 62
     2
100
AcDbLine
 10
37729.99036040127
 20
-288.6687643548361
 30
0.0
 11
37730.40527805377
 21
-288.5094676968271
 31
0.0
  0
ARC
  5
1CE5C2
330
6C
100
AcDbEntity
  8
Widoczne (ISO)
 62
     2
100
AcDbCircle
 10
37718.98029689147
 20
-284.3264564347265
 30
0.0
 40
12.16666666666656
100
AcDbArc
 50
339.8908815141306
 51
62.11506239239679
  0
LINE
  5
1CE5C3
330
6C
100
AcDbEntity
  8
Widoczne (ISO)
 62
     2
100
AcDbLine
 10
37775.40041399499
 20
-547.2067615695666
 30
0.0
 11
37775.39958406906
 21
-531.2067615910907
 31
0.0
  0
LINE
  5
1CE5C4
330
6C
100
AcDbEntity
  8
Widoczne (ISO)
 62
     2
100
AcDbLine
 10
37774.9551382528
 20
-531.2067846446599
 30
0.0
 11
37775.39958406906
 21
-531.2067615910907
 31
0.0
  0
LINE
  5
1CE5C5
330
6C
100
AcDbEntity
  8
Widoczne (ISO)
 62
     2
100
AcDbLine
 10
37774.95596817875
 20
-547.2067846231359
 30
0.0
 11
37775.40041399499
 21
-547.2067615695666
 31
0.0
  0
ARC
  5
1CE5C6
330
6C
100
AcDbEntity
  8
Widoczne (ISO)
 62
     2
100
AcDbCircle
 10
37766.23333237769
 20
-539.2072370587261
 30
0.0
 40
12.16666666666686
100
AcDbArc
 50
318.8908815141313
 51
41.11506239244692
  0
LINE
  5
1CE5C7
330
6C
100
AcDbEntity
  8
Widoczne (ISO)
 62
     2
100
AcDbLine
 10
36567.04064496749
 20
-1069.277927764441
 30
0.0
 11
36578.93151748797
 21
-1079.98340069664
 31
0.0
  0
LINE
  5
1CE5C8
330
6C
100
AcDbEntity
  8
Widoczne (ISO)
 62
     2
100
AcDbLine
 10
36579.22889265395
 20
-1079.653097662669
 30
0.0
 11
36578.93151748797
 21
-1079.98340069664
 31
0.0
  0
LINE
  5
1CE5C9
330
6C
100
AcDbEntity
  8
Widoczne (ISO)
 62
     2
100
AcDbLine
 10
36567.33802013348
 20
-1068.94762473047
 30
0.0
 11
36567.04064496749
 21
-1069.27792776444
 31
0.0
  0
ARC
  5
1CE5CA
330
6C
100
AcDbEntity
  8
Widoczne (ISO)
 62
     2
100
AcDbCircle
 10
36579.11942509513
 20
-1067.818185182357
 30
0.0
 40
12.16666666666669
100
AcDbArc
 50
186.8908815140625
 51
269.1150623923995
  0
LINE
  5
1CE5CB
330
6C
100
AcDbEntity
  8
Widoczne (ISO)
 62
     2
100
AcDbLine
 10
36379.59472194622
 20
-789.9787902963713
 30
0.0
 11
36385.32938393383
 21
-804.9157796813782
 31
0.0
  0
LINE
  5
1CE5CC
330
6C
100
AcDbEntity
  8
Widoczne (ISO)
 62
     2
100
AcDbLine
 10
36385.74430158632
 20
-804.7564830233708
 30
0.0
 11
36385.32938393383
 21
-804.9157796813782
 31
0.0
  0
LINE
  5
1CE5CD
330
6C
100
AcDbEntity
  8
Widoczne (ISO)
 62
     2
100
AcDbLine
 10
36380.00963959871
 20
-789.8194936383632
 30
0.0
 11
36379.59472194622
 21
-789.9787902963711
 31
0.0
  0
ARC
  5
1CE5CE
330
6C
100
AcDbEntity
  8
Widoczne (ISO)
 62
     2
100
AcDbCircle
 10
36391.01970310851
 20
-794.1618015584716
 30
0.0
 40
12.16666666666663
100
AcDbArc
 50
159.8908815141306
 51
242.1150623923968
  0
ARC
  5
1CE5CF
330
6C
100
AcDbEntity
  8
Widoczne (ISO)
 62
     2
100
AcDbCircle
 10
37040.50406507152
 20
170.5688032073319
 30
0.0
 40
12.16666666666664
100
AcDbArc
 50
109.9040273629271
 51
125.8448000932099
  0
ARC
  5
1CE5D0
330
6C
100
AcDbEntity
  8
Widoczne (ISO)
 62
     2
100
AcDbCircle
 10
37069.44203479397
 20
170.6106642054858
 30
0.0
 40
12.16666666666665
100
AcDbArc
 50
53.81899359428905
 51
70.9301360734548
  0
ARC
  5
1CE5D1
330
6C
100
AcDbEntity
  8
Widoczne (ISO)
 62
     2
100
AcDbCircle
 10
36642.28411468166
 20
36.30053389508385
 30
0.0
 40
12.16666666666684
100
AcDbArc
 50
110.8976553788973
 51
140.390013298222
  0
ARC
  5
1CE5D2
330
6C
100
AcDbEntity
  8
Widoczne (ISO)
 62
     2
100
AcDbCircle
 10
36642.34382433227
 20
-1114.831604242953
 30
0.0
 40
12.16666666666696
100
AcDbArc
 50
219.6159306085638
 51
249.1082885275297
  0
ARC
  5
1CE5D3
330
6C
100
AcDbEntity
  8
Widoczne (ISO)
 62
     2
100
AcDbCircle
 10
37467.6561756677
 20
36.34334624975759
 30
0.0
 40
12.16666666666683
100
AcDbArc
 50
39.61593060856168
 51
69.10828852752972
  0
LINE
  5
1CE5D4
330
6C
100
AcDbEntity
  8
Widoczne (ISO)
 62
     2
100
AcDbLine
 10
37035.33736744025
 20
-1259.645149873736
 30
0.0
 11
37051.33736741873
 21
-1259.644319947833
 31
0.0
  0
LINE
  5
1CE5D5
330
6C
100
AcDbEntity
  8
Widoczne (ISO)
 62
     2
100
AcDbLine
 10
37035.33734150508
 20
-1259.145149874408
 30
0.0
 11
37043.03775816846
 21
-1259.144750450954
 31
0.0
  0
LINE
  5
1CE5D6
330
6C
100
AcDbEntity
  8
Widoczne (ISO)
 62
     2
100
AcDbLine
 10
37051.33734617746
 20
-1259.234812941176
 30
0.0
 11
37051.33736741873
 21
-1259.644319947833
 31
0.0
  0
LINE
  5
1CE5D7
330
6C
100
AcDbEntity
  8
Widoczne (ISO)
 62
     2
100
AcDbLine
 10
37035.33734150508
 20
-1259.145149874408
 30
0.0
 11
37035.33736744025
 21
-1259.645149873735
 31
0.0
  0
ARC
  5
1CE5D8
330
6C
100
AcDbEntity
  8
Widoczne (ISO)
 62
     2
100
AcDbCircle
 10
37043.33689195111
 20
-1250.478068256449
 30
0.0
 40
12.16666666666666
100
AcDbArc
 50
228.8908815140238
 51
311.1150623923661
  0
LINE
  5
1CE5D9
330
6C
100
AcDbEntity
  8
Widoczne (ISO)
 62
     2
100
AcDbLine
 10
37040.21669777334
 20
-1259.144896780398
 30
0.0
 11
37040.21669504747
 21
-1259.092344869003
 31
0.0
  0
LINE
  5
1CE5DA
330
6C
100
AcDbEntity
  8
Widoczne (ISO)
 62
     2
100
AcDbLine
 10
37058.73736740878
 20
-1259.643936107103
 30
0.0
 11
37074.73736738725
 21
-1259.643106181201
 31
0.0
  0
LINE
  5
1CE5DB
330
6C
100
AcDbEntity
  8
Widoczne (ISO)
 62
     2
100
AcDbLine
 10
37067.03692478868
 20
-1259.143505605327
 30
0.0
 11
37074.73734145207
 21
-1259.143106181873
 31
0.0
  0
LINE
  5
1CE5DC
330
6C
100
AcDbEntity
  8
Widoczne (ISO)
 62
     2
100
AcDbLine
 10
37074.73734145207
 20
-1259.143106181873
 30
0.0
 11
37074.73736738725
 21
-1259.6431061812
 31
0.0
  0
LINE
  5
1CE5DD
330
6C
100
AcDbEntity
  8
Widoczne (ISO)
 62
     2
100
AcDbLine
 10
37058.7373461675
 20
-1259.234429100446
 30
0.0
 11
37058.73736740878
 21
-1259.643936107103
 31
0.0
  0
ARC
  5
1CE5DE
330
6C
100
AcDbEntity
  8
Widoczne (ISO)
 62
     2
100
AcDbCircle
 10
37066.73689191963
 20
-1250.476854489817
 30
0.0
 40
12.16666666666668
100
AcDbArc
 50
228.8908815140238
 51
311.1150623923661
  0
LINE
  5
1CE5DF
330
6C
100
AcDbEntity
  8
Widoczne (ISO)
 62
     2
100
AcDbLine
 10
37070.2608264129
 20
-1259.14333838036
 30
0.0
 11
37070.26082325096
 21
-1259.082379768053
 31
0.0
  0
LINE
  5
1CE5E0
330
6C
100
AcDbEntity
  8
Widoczne (ISO)
 62
     2
100
AcDbLine
 10
37305.73466129869
 20
-1214.649407050764
 30
0.0
 11
37320.67165068371
 21
-1208.914745063174
 31
0.0
  0
LINE
  5
1CE5E1
330
6C
100
AcDbEntity
  8
Widoczne (ISO)
 62
     2
100
AcDbLine
 10
37320.5123540257
 20
-1208.499827410686
 30
0.0
 11
37320.67165068371
 21
-1208.914745063174
 31
0.0
  0
LINE
  5
1CE5E2
330
6C
100
AcDbEntity
  8
Widoczne (ISO)
 62
     2
100
AcDbLine
 10
37305.57536464068
 20
-1214.234489398275
 30
0.0
 11
37305.73466129869
 21
-1214.649407050764
 31
0.0
  0
ARC
  5
1CE5E3
330
6C
100
AcDbEntity
  8
Widoczne (ISO)
 62
     2
100
AcDbCircle
 10
37309.91767256081
 20
-1203.22442588847
 30
0.0
 40
12.16666666666667
100
AcDbArc
 50
249.8908815139655
 51
332.1150623923638
  0
LINE
  5
1CE5E4
330
6C
100
AcDbEntity
  8
Widoczne (ISO)
 62
     2
100
AcDbLine
 10
37531.12457664121
 20
-1079.934010091315
 30
0.0
 11
37543.01433850404
 21
-1069.227303648836
 31
0.0
  0
LINE
  5
1CE5E5
330
6C
100
AcDbEntity
  8
Widoczne (ISO)
 62
     2
100
AcDbLine
 10
37542.71692907375
 20
-1068.897031466564
 30
0.0
 11
37543.01433850404
 21
-1069.227303648836
 31
0.0
  0
LINE
  5
1CE5E6
330
6C
100
AcDbEntity
  8
Widoczne (ISO)
 62
     2
100
AcDbLine
 10
37530.82716721094
 20
-1079.603737909043
 30
0.0
 11
37531.12457664121
 21
-1079.934010091315
 31
0.0
  0
ARC
  5
1CE5E7
330
6C
100
AcDbEntity
  8
Widoczne (ISO)
 62
     2
100
AcDbCircle
 10
37530.93540700661
 20
-1067.768814136168
 30
0.0
 40
12.16666666666667
100
AcDbArc
 50
270.8908815140842
 51
353.1150623923893
  0
CIRCLE
  5
1CE6C9
330
6C
100
AcDbEntity
  8
Widoczne (ISO)
 62
     2
100
AcDbCircle
 10
37054.99999999999
 20
-539.2441289966
 30
0.0
 40
720.0000000000142
  0
CIRCLE
  5
1D1DD4
330
6C
100
AcDbEntity
  8
Widoczne (ISO)
 62
     2
100
AcDbCircle
 10
37054.99999999999
 20
-539.2441289965999
 30
0.0
 40
720.0000000000142
  0
CIRCLE
  5
1D2563
330
6C
100
AcDbEntity
  8
0
  6
ACISOTGB
 62
     6
 48
25.0
100
AcDbCircle
 10
37054.99999999999
 20
-539.2441289965999
 30
0.0
 40
1900.000000000014
  0
INSERT
  5
1D2D57
330
6C
100
AcDbEntity
  8
0
100
AcDbBlockReference
  2
5464
 10
-2883.603964817463
 20
70.75776461435771
 30
0.0
  0
ENDSEC
  0
SECTION
  2
OBJECTS
  0
DICTIONARY
  5
C
330
0
100
AcDbDictionary
281
     1
  3
ACAD_2007HEADERVARS_RT
350
1D2EA2
  3
ACAD_COLOR
350
63
  3
ACAD_GROUP
350
D
  3
ACAD_LAYOUT
350
62
  3
ACAD_MATERIAL
350
10
  3
ACAD_MLEADERSTYLE
350
66
  3
ACAD_MLINESTYLE
350
5F
  3
ACAD_PLOTSETTINGS
350
61
  3
ACAD_PLOTSTYLENAME
350
E
  3
ACAD_SCALELIST
350
42
  3
ACAD_TABLESTYLE
350
64
  3
ACAD_VISUALSTYLE
350
29
  3
ACDB_RECOMPOSE_DATA
350
1D2EA0
  3
AcDbVariableDictionary
350
22DB7
  3
AcmDictionary
350
22E11
  3
AMG
350
22DC3
  3
AMGSNAPSETTINGS
350
22E52
  3
DWGPROPS
350
1D2EA1
  0
DICTIONARY
  5
22E5D
330
2
100
AcDbDictionary
280
     1
281
     1
  3
ACAD_LAYERSTATES
360
22E5E
  3
AMLAYER_GROUPCOLORS
360
79095
  0
DICTIONARY
  5
2D669
330
6C
100
AcDbDictionary
280
     1
281
     1
  3
ACAD_SORTENTS
360
2D66A
  0
DICTIONARY
  5
1D2745
330
1D2744
100
AcDbDictionary
280
     1
281
     1
  3
ACAD_SORTENTS
360
1D2746
  0
DICTIONARY
  5
1D2EA2
102
{ACAD_REACTORS
330
C
102
}
330
C
100
AcDbDictionary
281
     1
  3
DIMARCSYM
350
1D2EA3
  3
DIMLTEX1
350
1D2EA5
  3
DIMLTEX2
350
1D2EA6
  3
DIMLTYPE
350
1D2EA4
  0
DICTIONARY
  5
63
102
{ACAD_REACTORS
330
C
102
}
330
C
100
AcDbDictionary
281
     1
  0
DICTIONARY
  5
D
102
{ACAD_REACTORS
330
C
102
}
330
C
100
AcDbDictionary
281
     1
  0
DICTIONARY
  5
62
102
{ACAD_REACTORS
330
C
102
}
330
C
100
AcDbDictionary
281
     1
  3
Layout1
350
6B
  3
Layout2
350
73
  3
Model
350
6F
  0
DICTIONARY
  5
10
102
{ACAD_REACTORS
330
C
102
}
330
C
100
AcDbDictionary
281
     1
  3
ByBlock
350
19
  3
ByLayer
350
11
  3
Global
350
21
  0
DICTIONARY
  5
66
102
{ACAD_REACTORS
330
C
102
}
330
C
100
AcDbDictionary
281
     1
  3
Standard
350
67
  0
DICTIONARY
  5
5F
102
{ACAD_REACTORS
330
C
102
}
330
C
100
AcDbDictionary
281
     1
  3
Standard
350
60
  0
DICTIONARY
  5
61
102
{ACAD_REACTORS
330
C
102
}
330
C
100
AcDbDictionary
281
     1
  0
ACDBDICTIONARYWDFLT
  5
E
102
{ACAD_REACTORS
330
C
102
}
330
C
100
AcDbDictionary
281
     1
  3
Normal
350
F
100
AcDbDictionaryWithDefault
340
F
  0
DICTIONARY
  5
42
102
{ACAD_REACTORS
330
C
102
}
330
C
100
AcDbDictionary
281
     1
  3
A0
350
43
  3
A1
350
44
  3
A2
350
45
  3
A3
350
46
  3
A4
350
47
  3
A5
350
48
  3
A6
350
49
  3
A7
350
4A
  3
A8
350
4B
  3
A9
350
4C
  3
B0
350
4D
  3
B1
350
4E
  3
B2
350
4F
  3
B3
350
50
  3
B4
350
51
  3
B5
350
52
  3
B6
350
53
  0
DICTIONARY
  5
64
102
{ACAD_REACTORS
330
C
102
}
330
C
100
AcDbDictionary
281
     1
  3
Standard
350
65
  0
DICTIONARY
  5
29
102
{ACAD_REACTORS
330
C
102
}
330
C
100
AcDbDictionary
281
     1
  3
2dWireframe
350
2F
  3
3dWireframe
350
22EE4
  3
Basic
350
2E
  3
Brighten
350
35
  3
ColorChange
350
39
  3
Conceptual
350
32
  3
Dim
350
34
  3
EdgeColorOff
350
41
  3
Facepattern
350
38
  3
Flat
350
2A
  3
FlatWithEdges
350
2B
  3
Gouraud
350
2C
  3
GouraudWithEdges
350
2D
  3
Hidden
350
31
  3
JitterOff
350
3F
  3
Linepattern
350
37
  3
OverhangOff
350
40
  3
Realistic
350
33
  3
Shaded
350
3E
  3
Shaded with edges
350
3D
  3
Shades of Gray
350
3A
  3
Sketchy
350
3B
  3
Thicken
350
36
  3
Wireframe
350
30
  3
X-Ray
350
3C
  0
XRECORD
  5
1D2EA0
102
{ACAD_REACTORS
330
C
102
}
330
C
100
AcDbXrecord
280
     1
 90
        1
330
65
  0
DICTIONARY
  5
22DB7
102
{ACAD_REACTORS
330
C
102
}
330
C
100
AcDbDictionary
281
     1
  3
CANNOSCALE
350
22DBA
  3
CMLEADERSTYLE
350
22DB9
  3
CTABLESTYLE
350
22DB8
  3
DIMASSOC
350
1D246A
  3
HIDETEXT
350
1D2469
  3
HPORIGIN
350
7A31F
  3
INDEXCTL
350
1D2468
  3
LAYEREVAL
350
1D2465
  3
LAYERNOTIFY
350
1D2466
  3
LIGHTINGUNITS
350
1D2464
  3
MSLTSCALE
350
1D2463
  3
SORTENTS
350
1D2467
  3
XCLIPFRAME
350
1D2E9E
  0
DICTIONARY
  5
22E11
102
{ACAD_REACTORS
330
C
102
}
330
C
100
AcDbDictionary
281
     1
  3
AcmStdDictionary
350
22E1C
  0
DICTIONARY
  5
22DC3
102
{ACAD_REACTORS
330
C
102
}
330
C
100
AcDbDictionary
281
     1
  0
DICTIONARY
  5
22E52
102
{ACAD_REACTORS
330
C
102
}
330
C
100
AcDbDictionary
281
     1
  0
XRECORD
  5
1D2EA1
102
{ACAD_REACTORS
330
C
102
}
330
C
100
AcDbXrecord
280
     1
  1
DWGPROPS COOKIE
  2

  3

  4
Daniel Mazur
  6

  7

  8
Jumpo
  9

300
Menadżer=
301
Firma=
302
Kategoria=
303
Numer części=
304
Opis=
305
Projekt=
306
Projektant=Daniel Mazur
307
Inżynier=
308
Zatwierdził=
309
Centrum kosztów=
 40
1.03309886574074
 41
2458022.861501852
 42
2458667.564107315
  1

 90
       16
300
Dostawca=
300
Stan użytkownika=
300
Stan projektu=PracaWToku
300
Sprawdził=
300
Zatwierdził konstrukcję=
300
Zatwierdził do produkcji=
  0
DICTIONARY
  5
22E5E
102
{ACAD_REACTORS
330
22E5D
102
}
330
22E5D
100
AcDbDictionary
281
     1
  0
DICTIONARY
  5
79095
102
{ACAD_REACTORS
330
22E5D
102
}
330
22E5D
100
AcDbDictionary
280
     1
281
     1
  0
SORTENTSTABLE
  5
2D66A
102
{ACAD_REACTORS
330
2D669
102
}
330
2D669
100
AcDbSortentsTable
330
6C
331
1CE5DF
  5
1CE5DF
331
1CE5D5
  5
1CE5D5
331
1CE5A1
  5
1CE5A1
331
1CE5B4
  5
1CE5B4
331
1CE5C7
  5
1CE5C7
331
1CE5E4
  5
1CE5E4
331
1CE5A6
  5
1CE5A6
331
1CE5B9
  5
1CE5B9
331
1CE5CC
  5
1CE5CC
331
1CE598
  5
1CE598
331
1CE5AB
  5
1CE5AB
331
1CE5BE
  5
1CE5BE
331
1CE5DC
  5
1CE5DC
331
1CE59D
  5
1CE59D
331
1CE5D2
  5
1CE5D2
331
1D2563
  5
1D2397
331
1CE57C
  5
1CE57C
331
1CE5B1
  5
1CE5B1
331
1CE5C4
  5
1CE5C4
331
1CE5E1
  5
1CE5E1
331
1CE5D7
  5
1CE5D7
331
1CE6C9
  5
1CE6C9
331
1CE5A3
  5
1CE5A3
331
1D1DD4
  5
1D1DD4
331
1CE5B6
  5
1CE5B6
331
1CE582
  5
1CE582
331
1CE5C9
  5
1CE5C9
331
1CE5E6
  5
1CE5E6
331
1CE595
  5
1CE595
331
1CE5A8
  5
1CE5A8
331
1CE5BB
  5
1CE5BB
331
1CE5CE
  5
1CE5CE
331
1CE5D9
  5
1CE5D9
331
1CE59A
  5
1CE59A
331
1CE5AD
  5
1CE5AD
331
1CE5C1
  5
1CE5C1
331
1CE5DE
  5
1CE5DE
331
1CE59F
  5
1CE59F
331
1CE5D4
  5
1CE5D4
331
1CE5A0
  5
1CE5A0
331
1CE5B3
  5
1CE5B3
331
1CE5C6
  5
1CE5C6
331
1CE5E3
  5
1CE5E3
331
1CE5A5
  5
1CE5A5
331
1CE5B8
  5
1CE5B8
331
1CE5CB
  5
1CE5CB
331
1CE597
  5
1CE597
331
1CE5AA
  5
1CE5AA
331
1CE576
  5
1CE576
331
1CE5BD
  5
1CE5BD
331
1CE589
  5
1CE589
331
1CE5DB
  5
1CE5DB
331
1CE59C
  5
1CE59C
331
1CE5D1
  5
1CE5D1
331
1CE5AF
  5
1CE5AF
331
1CE5B0
  5
1CE5B0
331
1CE5C3
  5
1CE5C3
331
1CE5E0
  5
1CE5E0
331
1CE5D6
  5
1CE5D6
331
1CE5A2
  5
1CE5A2
331
1CE5B5
  5
1CE5B5
331
1CE5C8
  5
1CE5C8
331
1CE5E5
  5
1CE5E5
331
1CE5A7
  5
1CE5A7
331
1CE5BA
  5
1CE5BA
331
1CE5CD
  5
1CE5CD
331
1CE5D8
  5
1CE5D8
331
1CE599
  5
1CE599
331
1CE5AC
  5
1CE5AC
331
1CE5BF
  5
1CE5BF
331
1CE5C0
  5
1CE5C0
331
1CE5DD
  5
1CE5DD
331
1CE59E
  5
1CE59E
331
1CE5D3
  5
1CE5D3
331
1CE56A
  5
1CE56A
331
1CE5B2
  5
1CE5B2
331
1CE5C5
  5
1CE5C5
331
1CE5E2
  5
1CE5E2
331
1CE5A4
  5
1CE5A4
331
1CE5B7
  5
1CE5B7
331
1CE5CA
  5
1CE5CA
331
1CE5E7
  5
1CE5E7
331
1CE5A9
  5
1CE5A9
331
1CE5BC
  5
1CE5BC
331
1CE5CF
  5
1CE5CF
331
1CE5DA
  5
1CE5DA
331
1CE59B
  5
1CE59B
331
1CE5D0
  5
1CE5D0
331
1CE5AE
  5
1CE5AE
331
1CE5C2
  5
1CE5C2
  0
SORTENTSTABLE
  5
1D2746
102
{ACAD_REACTORS
330
1D2745
102
}
330
1D2745
100
AcDbSortentsTable
330
1D2744
  0
XRECORD
  5
1D2EA3
102
{ACAD_REACTORS
330
1D2EA2
102
}
330
1D2EA2
100
AcDbXrecord
280
     1
 70
     1
  0
XRECORD
  5
1D2EA5
102
{ACAD_REACTORS
330
1D2EA2
102
}
330
1D2EA2
100
AcDbXrecord
280
     1
340
5B
  0
XRECORD
  5
1D2EA6
102
{ACAD_REACTORS
330
1D2EA2
102
}
330
1D2EA2
100
AcDbXrecord
280
     1
340
5B
  0
XRECORD
  5
1D2EA4
102
{ACAD_REACTORS
330
1D2EA2
102
}
330
1D2EA2
100
AcDbXrecord
280
     1
340
5B
  0
LAYOUT
  5
6B
102
{ACAD_XDICTIONARY
360
1D2ED8
102
}
102
{ACAD_REACTORS
330
62
102
}
330
62
100
AcDbPlotSettings
  1

  2

  4

  6

 40
0.0
 41
0.0
 42
0.0
 43
0.0
 44
0.0
 45
0.0
 46
0.0
 47
0.0
 48
0.0
 49
0.0
140
0.0
141
0.0
142
1.0
143
1.0
 70
   688
 72
     0
 73
     0
 74
     5
  7
monochrome.ctb
 75
    16
147
1.0
148
0.0
149
0.0
100
AcDbLayout
  1
Layout1
 70
     1
 71
     1
 10
0.0
 20
0.0
 11
420.0
 21
297.0
 12
0.0
 22
0.0
 32
0.0
 14
0.0
 24
0.0
 34
0.0
 15
420.0
 25
297.0
 35
0.0
146
0.0
 13
0.0
 23
0.0
 33
0.0
 16
1.0
 26
0.0
 36
0.0
 17
0.0
 27
1.0
 37
0.0
 76
     0
330
68
  0
LAYOUT
  5
73
102
{ACAD_XDICTIONARY
360
1D2EDB
102
}
102
{ACAD_REACTORS
330
62
102
}
330
62
100
AcDbPlotSettings
  1

  2

  4

  6

 40
0.0
 41
0.0
 42
0.0
 43
0.0
 44
0.0
 45
0.0
 46
0.0
 47
0.0
 48
0.0
 49
0.0
140
0.0
141
0.0
142
1.0
143
1.0
 70
   688
 72
     0
 73
     0
 74
     5
  7
monochrome.ctb
 75
    16
147
1.0
148
0.0
149
0.0
100
AcDbLayout
  1
Layout2
 70
     1
 71
     2
 10
0.0
 20
0.0
 11
12.0
 21
9.0
 12
0.0
 22
0.0
 32
0.0
 14
0.0
 24
0.0
 34
0.0
 15
0.0
 25
0.0
 35
0.0
146
0.0
 13
0.0
 23
0.0
 33
0.0
 16
1.0
 26
0.0
 36
0.0
 17
0.0
 27
1.0
 37
0.0
 76
     0
330
70
  0
LAYOUT
  5
6F
102
{ACAD_XDICTIONARY
360
22E63
102
}
102
{ACAD_REACTORS
330
62
102
}
330
62
100
AcDbPlotSettings
  1

  2
PDFCreator
  4
A4
  6

 40
3.174999952316281
 41
3.174999952316281
 42
3.175003051757812
 43
3.17498779296875
 44
209.8886566162109
 45
297.0530090332031
 46
0.0
 47
0.0
 48
0.0
 49
0.0
140
0.0
141
0.0
142
1.0
143
44.55739079110222
 70
 11952
 72
     1
 73
     1
 74
     0
  7
monochrome.ctb
 75
     0
147
0.022442965852473
148
3615.822218811902
149
2375.763017350619
100
AcDbLayout
  1
Model
 70
     1
 71
     0
 10
0.0
 20
0.0
 11
12.0
 21
9.0
 12
0.0
 22
0.0
 32
0.0
 14
0.0
 24
0.0
 34
0.0
 15
0.0
 25
0.0
 35
0.0
146
0.0
 13
0.0
 23
0.0
 33
0.0
 16
1.0
 26
0.0
 36
0.0
 17
0.0
 27
1.0
 37
0.0
 76
     0
330
6C
331
57
1001
ACAD_PSEXT
1000
PDFCreator
1000
PDFCreator
1000
pdfcmon
1000
PDFCreator Printer
1070
     0
  0
MATERIAL
  5
19
102
{ACAD_XDICTIONARY
360
1A
102
}
102
{ACAD_REACTORS
330
10
102
}
330
10
100
AcDbMaterial
  1
ByBlock
 72
     0
 43
0.0208333333333333
 43
0.0
 43
0.0
 43
0.0
 43
0.0
 43
0.0208333333333333
 43
0.0
 43
0.0
 43
0.0
 43
0.0
 43
1.0
 43
0.0
 43
0.0
 43
0.0
 43
0.0
 43
1.0
 77
     0
 47
0.0208333333333333
 47
0.0
 47
0.0
 47
0.0
 47
0.0
 47
0.0208333333333333
 47
0.0
 47
0.0
 47
0.0
 47
0.0
 47
1.0
 47
0.0
 47
0.0
 47
0.0
 47
0.0
 47
1.0
171
     0
 49
0.0208333333333333
 49
0.0
 49
0.0
 49
0.0
 49
0.0
 49
0.0208333333333333
 49
0.0
 49
0.0
 49
0.0
 49
0.0
 49
1.0
 49
0.0
 49
0.0
 49
0.0
 49
0.0
 49
1.0
175
     0
142
0.0208333333333333
142
0.0
142
0.0
142
0.0
142
0.0
142
0.0208333333333333
142
0.0
142
0.0
142
0.0
142
0.0
142
1.0
142
0.0
142
0.0
142
0.0
142
0.0
142
1.0
179
     0
144
0.0208333333333333
144
0.0
144
0.0
144
0.0
144
0.0
144
0.0208333333333333
144
0.0
144
0.0
144
0.0
144
0.0
144
1.0
144
0.0
144
0.0
144
0.0
144
0.0
144
1.0
147
0.0208333333333333
147
0.0
147
0.0
147
0.0
147
0.0
147
0.0208333333333333
147
0.0
147
0.0
147
0.0
147
0.0
147
1.0
147
0.0
147
0.0
147
0.0
147
0.0
147
1.0
  0
MATERIAL
  5
11
102
{ACAD_XDICTIONARY
360
12
102
}
102
{ACAD_REACTORS
330
10
102
}
330
10
100
AcDbMaterial
  1
ByLayer
 72
     0
 43
0.0208333333333333
 43
0.0
 43
0.0
 43
0.0
 43
0.0
 43
0.0208333333333333
 43
0.0
 43
0.0
 43
0.0
 43
0.0
 43
1.0
 43
0.0
 43
0.0
 43
0.0
 43
0.0
 43
1.0
 77
     0
 47
0.0208333333333333
 47
0.0
 47
0.0
 47
0.0
 47
0.0
 47
0.0208333333333333
 47
0.0
 47
0.0
 47
0.0
 47
0.0
 47
1.0
 47
0.0
 47
0.0
 47
0.0
 47
0.0
 47
1.0
171
     0
 49
0.0208333333333333
 49
0.0
 49
0.0
 49
0.0
 49
0.0
 49
0.0208333333333333
 49
0.0
 49
0.0
 49
0.0
 49
0.0
 49
1.0
 49
0.0
 49
0.0
 49
0.0
 49
0.0
 49
1.0
175
     0
142
0.0208333333333333
142
0.0
142
0.0
142
0.0
142
0.0
142
0.0208333333333333
142
0.0
142
0.0
142
0.0
142
0.0
142
1.0
142
0.0
142
0.0
142
0.0
142
0.0
142
1.0
179
     0
144
0.0208333333333333
144
0.0
144
0.0
144
0.0
144
0.0
144
0.0208333333333333
144
0.0
144
0.0
144
0.0
144
0.0
144
1.0
144
0.0
144
0.0
144
0.0
144
0.0
144
1.0
147
0.0208333333333333
147
0.0
147
0.0
147
0.0
147
0.0
147
0.0208333333333333
147
0.0
147
0.0
147
0.0
147
0.0
147
1.0
147
0.0
147
0.0
147
0.0
147
0.0
147
1.0
  0
MATERIAL
  5
21
102
{ACAD_XDICTIONARY
360
22
102
}
102
{ACAD_REACTORS
330
10
102
}
330
10
100
AcDbMaterial
  1
Global
 72
     0
 43
0.0208333333333333
 43
0.0
 43
0.0
 43
0.0
 43
0.0
 43
0.0208333333333333
 43
0.0
 43
0.0
 43
0.0
 43
0.0
 43
1.0
 43
0.0
 43
0.0
 43
0.0
 43
0.0
 43
1.0
 77
     0
 47
0.0208333333333333
 47
0.0
 47
0.0
 47
0.0
 47
0.0
 47
0.0208333333333333
 47
0.0
 47
0.0
 47
0.0
 47
0.0
 47
1.0
 47
0.0
 47
0.0
 47
0.0
 47
0.0
 47
1.0
171
     0
 49
0.0208333333333333
 49
0.0
 49
0.0
 49
0.0
 49
0.0
 49
0.0208333333333333
 49
0.0
 49
0.0
 49
0.0
 49
0.0
 49
1.0
 49
0.0
 49
0.0
 49
0.0
 49
0.0
 49
1.0
175
     0
142
0.0208333333333333
142
0.0
142
0.0
142
0.0
142
0.0
142
0.0208333333333333
142
0.0
142
0.0
142
0.0
142
0.0
142
1.0
142
0.0
142
0.0
142
0.0
142
0.0
142
1.0
179
     0
144
0.0208333333333333
144
0.0
144
0.0
144
0.0
144
0.0
144
0.0208333333333333
144
0.0
144
0.0
144
0.0
144
0.0
144
1.0
144
0.0
144
0.0
144
0.0
144
0.0
144
1.0
147
0.0208333333333333
147
0.0
147
0.0
147
0.0
147
0.0
147
0.0208333333333333
147
0.0
147
0.0
147
0.0
147
0.0
147
1.0
147
0.0
147
0.0
147
0.0
147
0.0
147
1.0
  0
MLEADERSTYLE
  5
67
102
{ACAD_REACTORS
330
66
102
}
330
66
100
AcDbMLeaderStyle
170
     2
171
     1
172
     0
 90
        2
 40
0.0
 41
0.0
173
     1
 91
-1056964608
340
5B
 92
       -2
290
     1
 42
0.09
291
     1
 43
0.36
  3
Standard
 44
0.18
300

342
55
174
     1
178
     6
175
     1
176
     0
 93
-1056964608
 45
0.18
292
     0
297
     0
 46
0.18
 94
-1056964608
 47
1.0
 49
1.0
140
1.0
293
     1
141
0.0
294
     1
177
     0
142
1.0
295
     0
296
     0
143
0.125
1001
ACAD_MLEADERVER
1070
     2
  0
MLINESTYLE
  5
60
102
{ACAD_REACTORS
330
5F
102
}
330
5F
100
AcDbMlineStyle
  2
STANDARD
 70
     0
  3

 62
   256
 51
90.0
 52
90.0
 71
     2
 49
0.5
 62
   256
  6
BYLAYER
 49
-0.5
 62
   256
  6
BYLAYER
  0
ACDBPLACEHOLDER
  5
F
102
{ACAD_REACTORS
330
E
102
}
330
E
  0
SCALE
  5
43
102
{ACAD_REACTORS
330
42
102
}
330
42
100
AcDbScale
 70
     0
300
1:1
140
1.0
141
1.0
290
     1
  0
SCALE
  5
44
102
{ACAD_REACTORS
330
42
102
}
330
42
100
AcDbScale
 70
     0
300
1/128" = 1'-0"
140
0.0078125
141
12.0
290
     0
  0
SCALE
  5
45
102
{ACAD_REACTORS
330
42
102
}
330
42
100
AcDbScale
 70
     0
300
1/64" = 1'-0"
140
0.015625
141
12.0
290
     0
  0
SCALE
  5
46
102
{ACAD_REACTORS
330
42
102
}
330
42
100
AcDbScale
 70
     0
300
1/32" = 1'-0"
140
0.03125
141
12.0
290
     0
  0
SCALE
  5
47
102
{ACAD_REACTORS
330
42
102
}
330
42
100
AcDbScale
 70
     0
300
1/16" = 1'-0"
140
0.0625
141
12.0
290
     0
  0
SCALE
  5
48
102
{ACAD_REACTORS
330
42
102
}
330
42
100
AcDbScale
 70
     0
300
3/32" = 1'-0"
140
0.09375
141
12.0
290
     0
  0
SCALE
  5
49
102
{ACAD_REACTORS
330
42
102
}
330
42
100
AcDbScale
 70
     0
300
1/8" = 1'-0"
140
0.125
141
12.0
290
     0
  0
SCALE
  5
4A
102
{ACAD_REACTORS
330
42
102
}
330
42
100
AcDbScale
 70
     0
300
3/16" = 1'-0"
140
0.1875
141
12.0
290
     0
  0
SCALE
  5
4B
102
{ACAD_REACTORS
330
42
102
}
330
42
100
AcDbScale
 70
     0
300
1/4" = 1'-0"
140
0.25
141
12.0
290
     0
  0
SCALE
  5
4C
102
{ACAD_REACTORS
330
42
102
}
330
42
100
AcDbScale
 70
     0
300
3/8" = 1'-0"
140
0.375
141
12.0
290
     0
  0
SCALE
  5
4D
102
{ACAD_REACTORS
330
42
102
}
330
42
100
AcDbScale
 70
     0
300
1/2" = 1'-0"
140
0.5
141
12.0
290
     0
  0
SCALE
  5
4E
102
{ACAD_REACTORS
330
42
102
}
330
42
100
AcDbScale
 70
     0
300
3/4" = 1'-0"
140
0.75
141
12.0
290
     0
  0
SCALE
  5
4F
102
{ACAD_REACTORS
330
42
102
}
330
42
100
AcDbScale
 70
     0
300
1" = 1'-0"
140
1.0
141
12.0
290
     0
  0
SCALE
  5
50
102
{ACAD_REACTORS
330
42
102
}
330
42
100
AcDbScale
 70
     0
300
1-1/2" = 1'-0"
140
1.5
141
12.0
290
     0
  0
SCALE
  5
51
102
{ACAD_REACTORS
330
42
102
}
330
42
100
AcDbScale
 70
     0
300
3" = 1'-0"
140
3.0
141
12.0
290
     0
  0
SCALE
  5
52
102
{ACAD_REACTORS
330
42
102
}
330
42
100
AcDbScale
 70
     0
300
6" = 1'-0"
140
6.0
141
12.0
290
     0
  0
SCALE
  5
53
102
{ACAD_REACTORS
330
42
102
}
330
42
100
AcDbScale
 70
     0
300
1'-0" = 1'-0"
140
12.0
141
12.0
290
     0
  0
TABLESTYLE
  5
65
102
{ACAD_XDICTIONARY
360
1D246C
102
}
102
{ACAD_REACTORS
330
64
102
}
330
64
100
AcDbTableStyle
  3
Standard
 70
     0
 71
     0
 40
0.06
 41
0.06
280
     0
281
     0
  7
Standard
140
0.18
170
     2
 62
     0
 63
     7
283
     0
274
    -2
284
     1
 64
     0
275
    -2
285
     1
 65
     0
276
    -2
286
     1
 66
     0
277
    -2
287
     1
 67
     0
278
    -2
288
     1
 68
     0
279
    -2
289
     1
 69
     0
  7
Standard
140
0.25
170
     5
 62
     0
 63
     7
283
     0
274
    -2
284
     1
 64
     0
275
    -2
285
     1
 65
     0
276
    -2
286
     1
 66
     0
277
    -2
287
     1
 67
     0
278
    -2
288
     1
 68
     0
279
    -2
289
     1
 69
     0
  7
Standard
140
0.18
170
     5
 62
     0
 63
     7
283
     0
274
    -2
284
     1
 64
     0
275
    -2
285
     1
 65
     0
276
    -2
286
     1
 66
     0
277
    -2
287
     1
 67
     0
278
    -2
288
     1
 68
     0
279
    -2
289
     1
 69
     0
  0
VISUALSTYLE
  5
2F
102
{ACAD_XDICTIONARY
360
1D2EB1
102
}
102
{ACAD_REACTORS
330
29
102
}
330
29
100
AcDbVisualStyle
  2

 70
     4
 71
     0
 72
     2
 73
     0
 90
        0
 40
-0.6
 41
-30.0
 62
     5
 63
     7
 74
     1
 91
        4
 64
     7
 65
   257
 75
     1
175
     1
 42
1.0
 92
        0
 66
   257
 43
1.0
 76
     1
 77
     6
 78
     2
 67
     7
 79
     5
170
     0
171
     0
290
     0
174
     0
 93
        1
 44
0.0
173
     0
291
     0
 45
0.0
1001
ACAD
1000
AcDbSavedByObjectVersion
1070
     0
  0
VISUALSTYLE
  5
22EE4
102
{ACAD_XDICTIONARY
360
1D2EDD
102
}
102
{ACAD_REACTORS
330
29
102
}
330
29
100
AcDbVisualStyle
  2

 70
     5
 71
     0
 72
     2
 73
     1
 90
        0
 40
-0.6
 41
-30.0
 62
     5
 63
     7
 74
     1
 91
        4
 64
     7
 65
   257
 75
     1
175
     1
 42
1.0
 92
        0
 66
   257
 43
1.0
 76
     1
 77
     6
 78
     2
 67
     7
 79
     5
170
     0
171
     0
290
     0
174
     0
 93
        1
 44
0.0
173
     0
291
     0
 45
0.0
1001
ACAD
1000
AcDbSavedByObjectVersion
1070
     0
  0
VISUALSTYLE
  5
2E
102
{ACAD_XDICTIONARY
360
1D2EAF
102
}
102
{ACAD_REACTORS
330
29
102
}
330
29
100
AcDbVisualStyle
  2

 70
     7
 71
     1
 72
     0
 73
     1
 90
        0
 40
-0.6
 41
-30.0
 62
     5
 63
     7
 74
     0
 91
        4
 64
     7
 65
   257
 75
     1
175
     1
 42
1.0
 92
        8
 66
     7
 43
1.0
 76
     1
 77
     6
 78
     2
 67
     7
 79
     5
170
     0
171
     0
290
     0
174
     0
 93
        1
 44
0.0
173
     0
291
     1
 45
0.0
1001
ACAD
1000
AcDbSavedByObjectVersion
1070
     0
  0
VISUALSTYLE
  5
35
102
{ACAD_XDICTIONARY
360
1D2EBD
102
}
102
{ACAD_REACTORS
330
29
102
}
330
29
100
AcDbVisualStyle
  2

 70
    12
 71
     2
 72
     2
 73
     0
 90
        0
 40
-0.6
 41
-30.0
 62
     5
 63
     7
 74
     1
 91
        4
 64
     7
 65
   257
 75
     1
175
     1
 42
1.0
 92
        8
 66
     7
 43
1.0
 76
     1
 77
     6
 78
     2
 67
     7
 79
     5
170
     0
171
     0
290
     0
174
     0
 93
        1
 44
50.0
173
     0
291
     1
 45
0.0
1001
ACAD
1000
AcDbSavedByObjectVersion
1070
     0
  0
VISUALSTYLE
  5
39
102
{ACAD_XDICTIONARY
360
1D2EC5
102
}
102
{ACAD_REACTORS
330
29
102
}
330
29
100
AcDbVisualStyle
  2

 70
    16
 71
     2
 72
     2
 73
     3
 90
        0
 40
-0.6
 41
-30.0
 62
     5
 63
     8
 74
     1
 91
        4
 64
     7
 65
   257
 75
     1
175
     1
 42
1.0
 92
        8
 66
     8
 43
1.0
 76
     1
 77
     6
 78
     2
 67
     7
 79
     5
170
     0
171
     0
290
     0
174
     0
 93
        1
 44
0.0
173
     0
291
     1
 45
0.0
1001
ACAD
1000
AcDbSavedByObjectVersion
1070
     0
  0
VISUALSTYLE
  5
32
102
{ACAD_XDICTIONARY
360
1D2EB7
102
}
102
{ACAD_REACTORS
330
29
102
}
330
29
100
AcDbVisualStyle
  2

 70
     9
 71
     3
 72
     2
 73
     0
 90
        0
 40
-0.6
 41
-30.0
 62
     5
 63
     7
 74
     2
 91
        2
 64
     7
 65
   257
 75
     1
175
     1
 42
179.0
 92
        8
 66
     7
 43
1.0
 76
     1
 77
     6
 78
     2
 67
     7
 79
     3
170
     0
171
     0
290
     0
174
     0
 93
        1
 44
0.0
173
     0
291
     0
 45
0.0
1001
ACAD
1000
AcDbSavedByObjectVersion
1070
     0
  0
VISUALSTYLE
  5
34
102
{ACAD_XDICTIONARY
360
1D2EBB
102
}
102
{ACAD_REACTORS
330
29
102
}
330
29
100
AcDbVisualStyle
  2

 70
    11
 71
     2
 72
     2
 73
     0
 90
        0
 40
-0.6
 41
-30.0
 62
     5
 63
     7
 74
     1
 91
        4
 64
     7
 65
   257
 75
     1
175
     1
 42
1.0
 92
        8
 66
     7
 43
1.0
 76
     1
 77
     6
 78
     2
 67
     7
 79
     5
170
     0
171
     0
290
     0
174
     0
 93
        1
 44
-50.0
173
     0
291
     1
 45
0.0
1001
ACAD
1000
AcDbSavedByObjectVersion
1070
     0
  0
VISUALSTYLE
  5
41
102
{ACAD_XDICTIONARY
360
1D2ED5
102
}
102
{ACAD_REACTORS
330
29
102
}
330
29
100
AcDbVisualStyle
  2

 70
    22
 71
     2
 72
     2
 73
     0
 90
        0
 40
-0.6
 41
-30.0
 62
     5
 63
     7
 74
     1
 91
        4
 64
     7
 65
   257
 75
     1
175
     1
 42
1.0
 92
        8
 66
     7
 43
1.0
 76
     1
 77
     6
 78
     2
 67
     7
 79
     5
170
     0
171
     0
290
     0
174
     0
 93
        1
 44
0.0
173
     0
291
     1
 45
0.0
1001
ACAD
1000
AcDbSavedByObjectVersion
1070
     0
  0
VISUALSTYLE
  5
38
102
{ACAD_XDICTIONARY
360
1D2EC3
102
}
102
{ACAD_REACTORS
330
29
102
}
330
29
100
AcDbVisualStyle
  2

 70
    15
 71
     2
 72
     2
 73
     0
 90
        0
 40
-0.6
 41
-30.0
 62
     5
 63
     7
 74
     1
 91
        4
 64
     7
 65
   257
 75
     1
175
     1
 42
1.0
 92
        8
 66
     7
 43
1.0
 76
     1
 77
     6
 78
     2
 67
     7
 79
     5
170
     0
171
     0
290
     0
174
     0
 93
        1
 44
0.0
173
     0
291
     1
 45
0.0
1001
ACAD
1000
AcDbSavedByObjectVersion
1070
     0
  0
VISUALSTYLE
  5
2A
102
{ACAD_XDICTIONARY
360
1D2EA7
102
}
102
{ACAD_REACTORS
330
29
102
}
330
29
100
AcDbVisualStyle
  2

 70
     0
 71
     2
 72
     1
 73
     1
 90
        2
 40
-0.6
 41
30.0
 62
     5
 63
     7
 74
     0
 91
        0
 64
     7
 65
   257
 75
     1
175
     1
 42
1.0
 92
        8
 66
     7
 43
1.0
 76
     1
 77
     6
 78
     2
 67
     7
 79
     5
170
     0
171
     0
290
     0
174
     0
 93
       13
 44
0.0
173
     0
291
     1
 45
0.0
1001
ACAD
1000
AcDbSavedByObjectVersion
1070
     0
  0
VISUALSTYLE
  5
2B
102
{ACAD_XDICTIONARY
360
1D2EA9
102
}
102
{ACAD_REACTORS
330
29
102
}
330
29
100
AcDbVisualStyle
  2

 70
     1
 71
     2
 72
     1
 73
     1
 90
        2
 40
-0.6
 41
30.0
 62
     5
 63
     7
 74
     1
 91
        0
 64
     7
 65
   257
 75
     1
175
     1
 42
1.0
 92
        0
 66
   257
 43
1.0
 76
     1
 77
     6
 78
     2
 67
     7
 79
     5
170
     0
171
     0
290
     0
174
     0
 93
       13
 44
0.0
173
     0
291
     1
 45
0.0
1001
ACAD
1000
AcDbSavedByObjectVersion
1070
     0
  0
VISUALSTYLE
  5
2C
102
{ACAD_XDICTIONARY
360
1D2EAB
102
}
102
{ACAD_REACTORS
330
29
102
}
330
29
100
AcDbVisualStyle
  2

 70
     2
 71
     2
 72
     2
 73
     1
 90
        2
 40
-0.6
 41
30.0
 62
     5
 63
     7
 74
     0
 91
        0
 64
     7
 65
   257
 75
     1
175
     1
 42
1.0
 92
        0
 66
     7
 43
1.0
 76
     1
 77
     6
 78
     2
 67
     7
 79
     5
170
     0
171
     0
290
     0
174
     0
 93
       13
 44
0.0
173
     0
291
     1
 45
0.0
1001
ACAD
1000
AcDbSavedByObjectVersion
1070
     0
  0
VISUALSTYLE
  5
2D
102
{ACAD_XDICTIONARY
360
1D2EAD
102
}
102
{ACAD_REACTORS
330
29
102
}
330
29
100
AcDbVisualStyle
  2

 70
     3
 71
     2
 72
     2
 73
     1
 90
        2
 40
-0.6
 41
30.0
 62
     5
 63
     7
 74
     1
 91
        0
 64
     7
 65
   257
 75
     1
175
     1
 42
1.0
 92
        0
 66
   257
 43
1.0
 76
     1
 77
     6
 78
     2
 67
     7
 79
     5
170
     0
171
     0
290
     0
174
     0
 93
       13
 44
0.0
173
     0
291
     1
 45
0.0
1001
ACAD
1000
AcDbSavedByObjectVersion
1070
     0
  0
VISUALSTYLE
  5
31
102
{ACAD_XDICTIONARY
360
1D2EB5
102
}
102
{ACAD_REACTORS
330
29
102
}
330
29
100
AcDbVisualStyle
  2

 70
     6
 71
     1
 72
     2
 73
     2
 90
        0
 40
-0.6
 41
-30.0
 62
     5
 63
     7
 74
     2
 91
        2
 64
     7
 65
   257
 75
     2
175
     1
 42
40.0
 92
        0
 66
   257
 43
1.0
 76
     1
 77
     6
 78
     2
 67
     7
 79
     3
170
     0
171
     0
290
     0
174
     0
 93
        1
 44
0.0
173
     0
291
     0
 45
0.0
1001
ACAD
1000
AcDbSavedByObjectVersion
1070
     0
  0
VISUALSTYLE
  5
3F
102
{ACAD_XDICTIONARY
360
1D2ED1
102
}
102
{ACAD_REACTORS
330
29
102
}
330
29
100
AcDbVisualStyle
  2

 70
    20
 71
     2
 72
     2
 73
     0
 90
        0
 40
-0.6
 41
-30.0
 62
     5
 63
     7
 74
     1
 91
        4
 64
     7
 65
   257
 75
     1
175
     1
 42
1.0
 92
       10
 66
     7
 43
1.0
 76
     1
 77
     6
 78
     2
 67
     7
 79
     5
170
     0
171
     0
290
     0
174
     0
 93
        1
 44
0.0
173
     0
291
     1
 45
0.0
1001
ACAD
1000
AcDbSavedByObjectVersion
1070
     0
  0
VISUALSTYLE
  5
37
102
{ACAD_XDICTIONARY
360
1D2EC1
102
}
102
{ACAD_REACTORS
330
29
102
}
330
29
100
AcDbVisualStyle
  2

 70
    14
 71
     2
 72
     2
 73
     0
 90
        0
 40
-0.6
 41
-30.0
 62
     5
 63
     7
 74
     1
 91
        4
 64
     7
 65
   257
 75
     7
175
     7
 42
1.0
 92
        8
 66
     7
 43
1.0
 76
     1
 77
     6
 78
     2
 67
     7
 79
     5
170
     0
171
     0
290
     0
174
     0
 93
        1
 44
0.0
173
     0
291
     1
 45
0.0
1001
ACAD
1000
AcDbSavedByObjectVersion
1070
     0
  0
VISUALSTYLE
  5
40
102
{ACAD_XDICTIONARY
360
1D2ED3
102
}
102
{ACAD_REACTORS
330
29
102
}
330
29
100
AcDbVisualStyle
  2

 70
    21
 71
     2
 72
     2
 73
     0
 90
        0
 40
-0.6
 41
-30.0
 62
     5
 63
     7
 74
     1
 91
        4
 64
     7
 65
   257
 75
     1
175
     1
 42
1.0
 92
        9
 66
     7
 43
1.0
 76
     1
 77
     6
 78
     2
 67
     7
 79
     5
170
     0
171
     0
290
     0
174
     0
 93
        1
 44
0.0
173
     0
291
     1
 45
0.0
1001
ACAD
1000
AcDbSavedByObjectVersion
1070
     0
  0
VISUALSTYLE
  5
33
102
{ACAD_XDICTIONARY
360
1D2EB9
102
}
102
{ACAD_REACTORS
330
29
102
}
330
29
100
AcDbVisualStyle
  2

 70
     8
 71
     2
 72
     3
 73
     0
 90
        2
 40
-0.6
 41
30.0
 62
     5
 63
     7
 74
     0
 91
        0
 64
     7
 65
   257
 75
     1
175
     1
 42
1.0
 92
        8
 66
   257
 43
1.0
 76
     1
 77
     6
 78
     2
 67
     7
 79
     3
170
     0
171
     0
290
     0
174
     0
 93
       13
 44
0.0
173
     0
291
     0
 45
0.0
1001
ACAD
1000
AcDbSavedByObjectVersion
1070
     0
  0
VISUALSTYLE
  5
3E
102
{ACAD_XDICTIONARY
360
1D2ECF
102
}
102
{ACAD_REACTORS
330
29
102
}
330
29
100
AcDbVisualStyle
  2

 70
    27
 71
     2
 72
     2
 73
     1
 90
        2
 40
-0.6
 41
30.0
 62
     5
 63
     7
 74
     0
 91
        4
 64
     7
 65
   257
 75
     1
175
     1
 42
1.0
 92
        8
 66
   257
 43
1.0
 76
     1
 77
     6
 78
     2
 67
     8
 79
     3
170
     0
171
     0
290
     0
174
     0
 93
        5
 44
0.0
173
     0
291
     0
 45
0.0
1001
ACAD
1000
AcDbSavedByObjectVersion
1070
     0
  0
VISUALSTYLE
  5
3D
102
{ACAD_XDICTIONARY
360
1D2ECD
102
}
102
{ACAD_REACTORS
330
29
102
}
330
29
100
AcDbVisualStyle
  2

 70
    26
 71
     2
 72
     2
 73
     1
 90
        2
 40
-0.6
 41
30.0
 62
     5
 63
     7
 74
     1
 91
       10
 64
     7
 65
   257
 75
     2
175
     1
 42
1.0
 92
        8
 66
   257
 43
1.0
 76
     1
 77
     6
 78
     2
 67
     7
 79
     3
170
     0
171
     0
290
     0
174
     0
 93
        5
 44
0.0
173
     0
291
     0
 45
0.0
1001
ACAD
1000
AcDbSavedByObjectVersion
1070
     0
  0
VISUALSTYLE
  5
3A
102
{ACAD_XDICTIONARY
360
1D2EC7
102
}
102
{ACAD_REACTORS
330
29
102
}
330
29
100
AcDbVisualStyle
  2

 70
    23
 71
     2
 72
     2
 73
     3
 90
        0
 40
-0.6
 41
-30.0
 62
     5
 63
     7
 74
     2
 91
        2
 64
     7
 65
     7
 75
     1
175
     1
 42
40.0
 92
        8
 66
     7
 43
1.0
 76
     1
 77
     6
 78
     2
 67
     7
 79
     3
170
     0
171
     0
290
     0
174
     0
 93
        1
 44
0.0
173
     0
291
     0
 45
0.0
1001
ACAD
1000
AcDbSavedByObjectVersion
1070
     0
  0
VISUALSTYLE
  5
3B
102
{ACAD_XDICTIONARY
360
1D2EC9
102
}
102
{ACAD_REACTORS
330
29
102
}
330
29
100
AcDbVisualStyle
  2

 70
    24
 71
     1
 72
     2
 73
     2
 90
        0
 40
-0.6
 41
-30.0
 62
     5
 63
     7
 74
     2
 91
        2
 64
     7
 65
     7
 75
     1
175
     1
 42
40.0
 92
       11
 66
     7
 43
1.0
 76
     1
 77
     6
 78
     2
 67
     7
 79
     6
170
     0
171
     0
290
     0
174
     0
 93
        1
 44
0.0
173
     0
291
     0
 45
0.0
1001
ACAD
1000
AcDbSavedByObjectVersion
1070
     0
  0
VISUALSTYLE
  5
36
102
{ACAD_XDICTIONARY
360
1D2EBF
102
}
102
{ACAD_REACTORS
330
29
102
}
330
29
100
AcDbVisualStyle
  2

 70
    13
 71
     2
 72
     2
 73
     0
 90
        0
 40
-0.6
 41
-30.0
 62
     5
 63
     7
 74
     1
 91
        4
 64
     7
 65
   257
 75
     1
175
     1
 42
1.0
 92
       12
 66
     7
 43
1.0
 76
     1
 77
     6
 78
     2
 67
     7
 79
     5
170
     0
171
     0
290
     0
174
     0
 93
        1
 44
0.0
173
     0
291
     1
 45
0.0
1001
ACAD
1000
AcDbSavedByObjectVersion
1070
     0
  0
VISUALSTYLE
  5
30
102
{ACAD_XDICTIONARY
360
1D2EB3
102
}
102
{ACAD_REACTORS
330
29
102
}
330
29
100
AcDbVisualStyle
  2

 70
     5
 71
     0
 72
     2
 73
     0
 90
        0
 40
-0.6
 41
-30.0
 62
     5
 63
     7
 74
     1
 91
        4
 64
     7
 65
   257
 75
     1
175
     1
 42
1.0
 92
        0
 66
   257
 43
1.0
 76
     1
 77
     6
 78
     2
 67
     7
 79
     3
170
     0
171
     0
290
     0
174
     0
 93
        1
 44
0.0
173
     0
291
     0
 45
0.0
1001
ACAD
1000
AcDbSavedByObjectVersion
1070
     0
  0
VISUALSTYLE
  5
3C
102
{ACAD_XDICTIONARY
360
1D2ECB
102
}
102
{ACAD_REACTORS
330
29
102
}
330
29
100
AcDbVisualStyle
  2

 70
    25
 71
     2
 72
     2
 73
     1
 90
        1
 40
0.5
 41
-30.0
 62
     5
 63
     7
 74
     1
 91
        0
 64
     7
 65
   257
 75
     1
175
     1
 42
1.0
 92
        8
 66
     7
 43
1.0
 76
     1
 77
     6
 78
     2
 67
     7
 79
     3
170
     0
171
     0
290
     0
174
     0
 93
       13
 44
0.0
173
     0
291
     0
 45
0.0
1001
ACAD
1000
AcDbSavedByObjectVersion
1070
     0
  0
DICTIONARYVAR
  5
22DBA
102
{ACAD_REACTORS
330
22DB7
102
}
330
22DB7
100
DictionaryVariables
280
     0
  1
1:1
  0
DICTIONARYVAR
  5
22DB9
102
{ACAD_REACTORS
330
22DB7
102
}
330
22DB7
100
DictionaryVariables
280
     0
  1
STANDARD
  0
DICTIONARYVAR
  5
22DB8
102
{ACAD_REACTORS
330
22DB7
102
}
330
22DB7
100
DictionaryVariables
280
     0
  1
STANDARD
  0
DICTIONARYVAR
  5
1D246A
102
{ACAD_REACTORS
330
22DB7
102
}
330
22DB7
100
DictionaryVariables
280
     0
  1
1
  0
DICTIONARYVAR
  5
1D2469
102
{ACAD_REACTORS
330
22DB7
102
}
330
22DB7
100
DictionaryVariables
280
     0
  1
1
  0
DICTIONARYVAR
  5
7A31F
102
{ACAD_REACTORS
330
22DB7
102
}
330
22DB7
100
DictionaryVariables
280
     0
  1
-201.059514;-1326.672515
  0
DICTIONARYVAR
  5
1D2468
102
{ACAD_REACTORS
330
22DB7
102
}
330
22DB7
100
DictionaryVariables
280
     0
  1
0
  0
DICTIONARYVAR
  5
1D2465
102
{ACAD_REACTORS
330
22DB7
102
}
330
22DB7
100
DictionaryVariables
280
     0
  1
0
  0
DICTIONARYVAR
  5
1D2466
102
{ACAD_REACTORS
330
22DB7
102
}
330
22DB7
100
DictionaryVariables
280
     0
  1
0
  0
DICTIONARYVAR
  5
1D2464
102
{ACAD_REACTORS
330
22DB7
102
}
330
22DB7
100
DictionaryVariables
280
     0
  1
2
  0
DICTIONARYVAR
  5
1D2463
102
{ACAD_REACTORS
330
22DB7
102
}
330
22DB7
100
DictionaryVariables
280
     0
  1
1
  0
DICTIONARYVAR
  5
1D2467
102
{ACAD_REACTORS
330
22DB7
102
}
330
22DB7
100
DictionaryVariables
280
     0
  1
127
  0
DICTIONARYVAR
  5
1D2E9E
102
{ACAD_REACTORS
330
22DB7
102
}
330
22DB7
100
DictionaryVariables
280
     0
  1
2
  0
DICTIONARY
  5
22E1C
102
{ACAD_REACTORS
330
22E11
102
}
330
22E11
100
AcDbDictionary
281
     1
  0
DICTIONARY
  5
1D2ED8
330
6B
100
AcDbDictionary
280
     1
281
     1
  3
ACAD_XREC_ROUNDTRIP
360
1D2ED9
  0
DICTIONARY
  5
1D2EDB
330
73
100
AcDbDictionary
280
     1
281
     1
  3
ACAD_XREC_ROUNDTRIP
360
1D2EDC
  0
DICTIONARY
  5
22E63
330
6F
100
AcDbDictionary
280
     1
281
     1
  3
ACAD_XREC_ROUNDTRIP
360
1D2EDA
  3
ADSK_XREC_LAYOUTTHUMBNAIL
360
22E64
  0
DICTIONARY
  5
1A
330
19
100
AcDbDictionary
280
     1
281
     1
  3
ACAD_XREC_ROUNDTRIP
360
1D2471
  3
BUMPTILE
360
1C
  3
DIFFUSETILE
360
1B
  3
OPACITYTILE
360
1F
  3
REFLECTIONTILE
360
1E
  3
REFRACTIONTILE
360
20
  3
SPECULARTILE
360
1D
  0
DICTIONARY
  5
12
330
11
100
AcDbDictionary
280
     1
281
     1
  3
ACAD_XREC_ROUNDTRIP
360
1D2470
  3
BUMPTILE
360
14
  3
DIFFUSETILE
360
13
  3
OPACITYTILE
360
17
  3
REFLECTIONTILE
360
16
  3
REFRACTIONTILE
360
18
  3
SPECULARTILE
360
15
  0
DICTIONARY
  5
22
330
21
100
AcDbDictionary
280
     1
281
     1
  3
ACAD_XREC_ROUNDTRIP
360
1D2472
  3
BUMPTILE
360
24
  3
DIFFUSETILE
360
23
  3
OPACITYTILE
360
27
  3
REFLECTIONTILE
360
26
  3
REFRACTIONTILE
360
28
  3
SPECULARTILE
360
25
  0
DICTIONARY
  5
1D246C
330
65
100
AcDbDictionary
280
     1
281
     1
  3
ACAD_ROUNDTRIP_2008_TABLESTYLE_CELLSTYLEMAP
360
1D2E9F
  3
ACAD_XREC_ROUNDTRIP
360
1D2ED7
  0
DICTIONARY
  5
1D2EB1
330
2F
100
AcDbDictionary
280
     1
281
     1
  3
ACAD_XREC_ROUNDTRIP
360
1D2EB2
  0
DICTIONARY
  5
1D2EDD
330
22EE4
100
AcDbDictionary
280
     1
281
     1
  3
ACAD_XREC_ROUNDTRIP
360
1D2EDE
  0
DICTIONARY
  5
1D2EAF
330
2E
100
AcDbDictionary
280
     1
281
     1
  3
ACAD_XREC_ROUNDTRIP
360
1D2EB0
  0
DICTIONARY
  5
1D2EBD
330
35
100
AcDbDictionary
280
     1
281
     1
  3
ACAD_XREC_ROUNDTRIP
360
1D2EBE
  0
DICTIONARY
  5
1D2EC5
330
39
100
AcDbDictionary
280
     1
281
     1
  3
ACAD_XREC_ROUNDTRIP
360
1D2EC6
  0
DICTIONARY
  5
1D2EB7
330
32
100
AcDbDictionary
280
     1
281
     1
  3
ACAD_XREC_ROUNDTRIP
360
1D2EB8
  0
DICTIONARY
  5
1D2EBB
330
34
100
AcDbDictionary
280
     1
281
     1
  3
ACAD_XREC_ROUNDTRIP
360
1D2EBC
  0
DICTIONARY
  5
1D2ED5
330
41
100
AcDbDictionary
280
     1
281
     1
  3
ACAD_XREC_ROUNDTRIP
360
1D2ED6
  0
DICTIONARY
  5
1D2EC3
330
38
100
AcDbDictionary
280
     1
281
     1
  3
ACAD_XREC_ROUNDTRIP
360
1D2EC4
  0
DICTIONARY
  5
1D2EA7
330
2A
100
AcDbDictionary
280
     1
281
     1
  3
ACAD_XREC_ROUNDTRIP
360
1D2EA8
  0
DICTIONARY
  5
1D2EA9
330
2B
100
AcDbDictionary
280
     1
281
     1
  3
ACAD_XREC_ROUNDTRIP
360
1D2EAA
  0
DICTIONARY
  5
1D2EAB
330
2C
100
AcDbDictionary
280
     1
281
     1
  3
ACAD_XREC_ROUNDTRIP
360
1D2EAC
  0
DICTIONARY
  5
1D2EAD
330
2D
100
AcDbDictionary
280
     1
281
     1
  3
ACAD_XREC_ROUNDTRIP
360
1D2EAE
  0
DICTIONARY
  5
1D2EB5
330
31
100
AcDbDictionary
280
     1
281
     1
  3
ACAD_XREC_ROUNDTRIP
360
1D2EB6
  0
DICTIONARY
  5
1D2ED1
330
3F
100
AcDbDictionary
280
     1
281
     1
  3
ACAD_XREC_ROUNDTRIP
360
1D2ED2
  0
DICTIONARY
  5
1D2EC1
330
37
100
AcDbDictionary
280
     1
281
     1
  3
ACAD_XREC_ROUNDTRIP
360
1D2EC2
  0
DICTIONARY
  5
1D2ED3
330
40
100
AcDbDictionary
280
     1
281
     1
  3
ACAD_XREC_ROUNDTRIP
360
1D2ED4
  0
DICTIONARY
  5
1D2EB9
330
33
100
AcDbDictionary
280
     1
281
     1
  3
ACAD_XREC_ROUNDTRIP
360
1D2EBA
  0
DICTIONARY
  5
1D2ECF
330
3E
100
AcDbDictionary
280
     1
281
     1
  3
ACAD_XREC_ROUNDTRIP
360
1D2ED0
  0
DICTIONARY
  5
1D2ECD
330
3D
100
AcDbDictionary
280
     1
281
     1
  3
ACAD_XREC_ROUNDTRIP
360
1D2ECE
  0
DICTIONARY
  5
1D2EC7
330
3A
100
AcDbDictionary
280
     1
281
     1
  3
ACAD_XREC_ROUNDTRIP
360
1D2EC8
  0
DICTIONARY
  5
1D2EC9
330
3B
100
AcDbDictionary
280
     1
281
     1
  3
ACAD_XREC_ROUNDTRIP
360
1D2ECA
  0
DICTIONARY
  5
1D2EBF
330
36
100
AcDbDictionary
280
     1
281
     1
  3
ACAD_XREC_ROUNDTRIP
360
1D2EC0
  0
DICTIONARY
  5
1D2EB3
330
30
100
AcDbDictionary
280
     1
281
     1
  3
ACAD_XREC_ROUNDTRIP
360
1D2EB4
  0
DICTIONARY
  5
1D2ECB
330
3C
100
AcDbDictionary
280
     1
281
     1
  3
ACAD_XREC_ROUNDTRIP
360
1D2ECC
  0
XRECORD
  5
1D2ED9
102
{ACAD_REACTORS
330
1D2ED8
102
}
330
1D2ED8
100
AcDbXrecord
280
     1
102
SHADEPLOT
 70
     0
102
SHADEPLOTRESLEVEL
 70
     2
102
SHADEPLOTCUSTOMDPI
 70
   300
  0
XRECORD
  5
1D2EDC
102
{ACAD_REACTORS
330
1D2EDB
102
}
330
1D2EDB
100
AcDbXrecord
280
     1
102
SHADEPLOT
 70
     0
102
SHADEPLOTRESLEVEL
 70
     2
102
SHADEPLOTCUSTOMDPI
 70
   300
  0
XRECORD
  5
1D2EDA
102
{ACAD_REACTORS
330
22E63
102
}
330
22E63
100
AcDbXrecord
280
     1
102
SHADEPLOT
 70
     0
102
SHADEPLOTRESLEVEL
 70
     2
102
SHADEPLOTCUSTOMDPI
 70
   300
  0
XRECORD
  5
22E64
102
{ACAD_REACTORS
330
22E63
102
}
330
22E63
100
AcDbXrecord
280
     1
310
28000000000100005A0000000100080000000000005A0000000000000000000000010000000000003028210000000000FFFFFF000000000000000000000000000000000000000000000000000000000000000000330000006600000099000000CC000000FF00000000330000333300006633000099330000CC330000FF3300
310
0000660000336600006666000099660000CC660000FF66000000990000339900006699000099990000CC990000FF99000000CC000033CC000066CC000099CC0000CCCC0000FFCC000000FF000033FF000066FF000099FF0000CCFF0000FFFF000000003300330033006600330099003300CC003300FF003300003333003333
310
33006633330099333300CC333300FF33330000663300336633006666330099663300CC663300FF66330000993300339933006699330099993300CC993300FF99330000CC330033CC330066CC330099CC3300CCCC3300FFCC330000FF330033FF330066FF330099FF3300CCFF3300FFFF330000006600330066006600660099
310
006600CC006600FF00660000336600333366006633660099336600CC336600FF33660000666600336666006666660099666600CC666600FF66660000996600339966006699660099996600CC996600FF99660000CC660033CC660066CC660099CC6600CCCC6600FFCC660000FF660033FF660066FF660099FF6600CCFF6600
310
FFFF660000009900330099006600990099009900CC009900FF00990000339900333399006633990099339900CC339900FF33990000669900336699006666990099669900CC669900FF66990000999900339999006699990099999900CC999900FF99990000CC990033CC990066CC990099CC9900CCCC9900FFCC990000FF99
310
0033FF990066FF990099FF9900CCFF9900FFFF99000000CC003300CC006600CC009900CC00CC00CC00FF00CC000033CC003333CC006633CC009933CC00CC33CC00FF33CC000066CC003366CC006666CC009966CC00CC66CC00FF66CC000099CC003399CC006699CC009999CC00CC99CC00FF99CC0000CCCC0033CCCC0066CC
310
CC0099CCCC00CCCCCC00FFCCCC0000FFCC0033FFCC0066FFCC0099FFCC00CCFFCC00FFFFCC000000FF003300FF006600FF009900FF00CC00FF00FF00FF000033FF003333FF006633FF009933FF00CC33FF00FF33FF000066FF003366FF006666FF009966FF00CC66FF00FF66FF000099FF003399FF006699FF009999FF00CC
310
99FF00FF99FF0000CCFF0033CCFF0066CCFF0099CCFF00CCCCFF00FFCCFF0000FFFF0033FFFF0066FFFF0099FFFF00CCFFFF00FFFFFF00000000000D0D0D001A1A1A00282828003535350043434300505050005D5D5D006B6B6B00787878008686860093939300A1A1A100AEAEAE00BBBBBB00C9C9C900D6D6D600E4E4E400
310
F1F1F100FFFFFF000000000000000000000000000000000000000000000000000000000000000000000000000000000000000000000000000000000000000000000000000000000000000000000000000000000000000000000000000000000000000000000000000000000000000000000000000000000000000000000000
310
0000000000000000000000000000000000000000000000000000000000000000000000000000000000000000000000C3C3C3C300000000000000000000000000000000000000000000000000000000000000000000000000000000000000000000000000000000000000000000000000000000000000000000000000000000
310
00000000000000000000000000000000000000000000000000000000000000000000000000000000000000000000000000000000000000000000000000000000000000000000000000000000000000000000000000000000000000000000000000000000000000000000000000000000000000000000000000000000000000
310
0000000000000000000000000000000000000000000000000000000000000000000000000000000000C3C3C3C3C3C3C3C300000000C3C3C3C3C3C3C3C3000000000000000000000000000000000000000000000000000000000000000000000000000000000000000000000000000000000000000000000000000000000000
310
00000000000000000000000000000000000000000000000000000000000000000000000000000000000000000000000000000000000000000000000000000000000000000000000000000000000000000000000000000000000000000000000000000000000000000000000000000000000000000000000000000000000000
310
00000000000000000000000000000000000000000000000000000000000000000000000000000000C3C3C30000000000000000000000000000000000000000C3C3C300000000000000000000000000000000000000000000000000000000000000000000000000000000000000000000000000000000000000000000000000
310
00000000000000000000000000000000000000000000000000000000000000000000000000000000000000000000000000000000000000000000000000000000000000000000000000000000000000000000000000000000000000000000000000000000000000000000000000000000000000000000000000000000000000
310
0000000000000000000000000000000000000000000000000000000000000000000000000000C3C3C3C30000000000000000000000000000000000000000000000000000C3C3C3C300000000000000000000000000000000000000000000000000000000000000000000000000000000000000000000000000000000000000
310
00000000000000000000000000000000000000000000000000000000000000000000000000000000000000000000000000000000000000000000000000000000000000000000000000000000000000000000000000000000000000000000000000000000000000000000000000000000000000000000000000000000000000
310
000000000000000000000000000000000000000000000000000000000000000000000000000000C3000000000000000000000000000000000000000000000000000000000000000000C30000000000000000000000000000000000000000000000000000000000000000000000000000000000000000000000000000000000
310
00000000000000000000000000000000000000000000000000000000000000000000000000000000000000000000000000000000000000000000000000000000000000000000000000000000000000000000000000000000000000000000000000000000000000000000000000000000000000000000000000000000000000
310
0000000000000000000000000000000000000000000000000000000000000000000000000000C3C3C30000000000000000000000000000000000000000000000000000000000000000000000C3C3C3C30000000000000000000000000000000000000000000000000000000000000000000000000000000000000000000000
310
00000000000000000000000000000000000000000000000000000000000000000000000000000000000000000000000000000000000000000000000000000000000000000000000000000000000000000000000000000000000000000000000000000000000000000000000000000000000000000000000000000000000000
310
000000000000000000000000000000000000000000000000000000000000000000000000000000C3000000000000000000000000000000000000000000000000000000000000000000000000000000000000C30000000000000000000000000000000000000000000000000000000000000000000000000000000000000000
310
00000000000000000000000000000000000000000000000000000000000000000000000000000000000000000000000000000000000000000000000000000000000000000000000000000000000000000000000000000000000000000000000000000000000000000000000000000000000000000000000000000000000000
310
0000000000000000000000000000000000000000000000000000000000000000000000000000C3C3C30000000000000000000000000000000000000000000000000000000000000000000000000000000000000000C3C3C3000000000000000000000000000000000000000000000000000000000000000000000000000000
310
00000000000000000000000000000000000000000000000000000000000000000000000000000000000000000000000000000000000000000000000000000000000000000000000000000000000000000000000000000000000000000000000000000000000000000000000000000000000000000000000000000000000000
310
000000000000000000000000000000000000000000000000000000000000000000000000000000C3C3000000000000000000000000000000000000000000000000000000000000000000000000000000000000000000000000C3C3000000000000000000000000000000000000000000000000000000000000000000000000
310
00000000000000000000000000000000000000000000000000000000000000000000000000000000000000000000000000000000000000000000000000000000000000000000000000000000000000000000000000000000000000000000000000000000000000000000000000000000000000000000000000000000000000
310
00000000000000000000000000000000000000000000000000000000000000000000000000000000C3000000000000000000000000000000000000000000000000000000000000000000000000000000000000000000000000000000C3C3000000000000000000000000000000000000000000000000000000000000000000
310
00000000000000000000000000000000000000000000000000000000000000000000000000000000000000000000000000000000000000000000000000000000000000000000000000000000000000000000000000000000000000000000000000000000000000000000000000000000000000000000000000000000000000
310
00000000000000000000000000000000000000000000000000000000000000000000000000000000C3C3000000000000000000000000000000000000000000000000000000000000000000000000000000000000000000000000000000000000C3C30000000000000000000000000000000000000000000000000000000000
310
00000000000000000000000000000000000000000000000000000000000000000000000000000000000000000000000000000000000000000000000000000000000000000000000000000000000000000000000000000000000000000000000000000000000000000000000000000000000000000000000000000000000000
310
0000000000000000000000000000000000000000000000000000000000000000000000000000000000C3C30000000000000000000000000000000000000000000000000000000000000000000000000000000000000000000000000000000000000000C3C30000000000000000000000000000000000000000000000000000
310
00000000000000000000000000000000000000000000000000000000000000000000000000000000000000000000000000000000000000000000000000000000000000000000000000000000000000000000000000000000000000000000000000000000000000000000000000000000000000000000000000000000000000
310
000000000000000000000000000000000000000000000000000000000000000000000000000000000000C3C300000000000000000000000000000000000000000000000000000000000000000000000000000000000000000000000000000000000000000000C3C30000000000000000000000000000000000000000000000
310
00000000000000000000000000000000000000000000000000000000000000000000000000000000000000000000000000000000000000000000000000000000000000000000000000000000000000000000000000000000000000000000000000000000000000000000000000000000000000000000000000000000000000
310
0000000000000000000000000000000000000000000000000000000000000000000000000000000000000000C300000000000000000000000000000000000000000000000000000000000000000000000000000000000000000000000000000000000000000000000000C30000000000000000000000000000000000000000
310
00000000000000000000000000000000000000000000000000000000000000000000000000000000000000000000000000000000000000000000000000000000000000000000000000000000000000000000000000000000000000000000000000000000000000000000000000000000000000000000000000000000000000
310
0000000000000000000000000000000000000000000000000000000000000000000000000000000000000000C3C30000000000000000000000000000000000000000000000000000000000000000000000000000000000000000000000000000000000000000000000000000C3C30000000000000000000000000000000000
310
00000000000000000000000000000000000000000000000000000000000000000000000000000000000000000000000000000000000000000000000000000000000000000000000000000000000000000000000000000000000000000000000000000000000000000000000000000000000000000000000000000000000000
310
000000000000000000000000000000000000000000000000000000000000000000000000000000000000000000C3C30000000000000000000000000000000000000000000000000000000000000000000000000000000000000000000000000000000000000000000000000000000000C30000000000000000000000000000
310
00000000000000000000000000000000000000000000000000000000000000000000000000000000000000000000000000000000000000000000000000000000000000000000000000000000000000000000000000000000000000000000000000000000000000000000000000000000000000000000000000000000000000
310
0000000000000000000000000000000000000000000000000000000000000000000000000000000000000000000000C3000000000000000000000000000000000000000000000000000000000000000000000000000000000000000000000000000000000000000000000000000000000000C3000000000000000000000000
310
00000000000000000000000000000000000000000000000000000000000000000000000000000000000000000000000000000000000000000000000000000000000000000000000000000000000000000000000000000000000000000000000000000000000000000000000000000000000000000000000000000000000000
310
000000000000000000000000000000000000000000000000000000000000000000000000000000000000000000000000C30000000000000000000000000000000000000000000000000000000000000000000000000000000000000000000000000000000000000000000000000000000000000000C3C30000000000000000
310
00000000000000000000000000000000000000000000000000000000000000000000000000000000000000000000000000000000000000000000000000000000000000000000000000000000000000000000000000000000000000000000000000000000000000000000000000000000000000000000000000000000000000
310
00000000000000000000000000000000000000000000000000000000000000000000000000000000000000000000000000C300000000000000000000000000000000000000000000000000000000000000000000000000000000000000000000000000000000000000000000000000000000000000000000C3000000000000
310
00000000000000000000000000000000000000000000000000000000000000000000000000000000000000000000000000000000000000000000000000000000000000000000000000000000000000000000000000000000000000000000000000000000000000000000000000000000000000000000000000000000000000
310
0000000000000000000000000000000000000000000000000000000000000000000000000000000000000000000000000000C3000000000000000000000000000000000000000000000000000000000000000000000000000000000000000000000000000000000000000000000000000000000000000000000000C3000000
310
00000000000000000000000000000000000000000000000000000000000000000000000000000000000000000000000000000000000000000000000000000000000000000000000000000000000000000000000000000000000000000000000000000000000000000000000000000000000000000000000000000000000000
310
000000000000000000000000000000000000000000000000000000000000000000000000000000000000000000000000000000C3C3000000000000000000000000000000000000000000000000000000000000000000000000000000000000000000000000000000000000000000000000000000000000000000000000C300
310
00000000000000000000000000000000000000000000000000000000000000000000000000000000000000000000000000000000000000000000000000000000000000000000000000000000000000000000000000000000000000000000000000000000000000000000000000000000000000000000000000000000000000
310
0000000000000000000000000000000000000000000000000000000000000000000000000000000000000000000000000000000000C300000000000000000000000000000000000000000000000000000000000000000000000000000000000000000000000000000000000000000000000000000000000000000000000000
310
00C30000000000000000000000000000000000000000000000000000000000000000000000000000000000000000000000000000000000000000000000000000000000000000000000000000000000000000000000000000000000000000000000000000000000000000000000000000000000000000000000000000000000
310
000000000000000000000000000000000000000000000000000000000000000000000000000000000000000000000000000000000000C3000000000000000000000000000000000000000000000000000000000000000000000000000000000000000000000000000000000000000000000000000000000000000000000000
310
00000000C30000000000000000000000000000000000000000000000000000000000000000000000000000000000000000000000000000000000000000000000000000000000000000000000000000000000000000000000000000000000000000000000000000000000000000000000000000000000000000000000000000
310
0000000000000000000000000000000000000000000000000000000000000000000000000000000000000000000000000000000000000000C300000000000000000000000000000000000000000000000000000000000000000000000000000000000000000000000000000000000000000000000000000000000000000000
310
000000000000C3C30000000000000000000000000000000000000000000000000000000000000000000000000000000000000000000000000000000000000000000000000000000000000000000000000000000000000000000000000000000000000000000000000000000000000000000000000000000000000000000000
310
000000000000000000000000000000000000000000000000000000000000000000000000000000000000000000000000000000000000000000C3000000000000000000000000000000000000000000000000000000000000000000000000000000000000000000000000000000000000000000000000000000000000000000
310
000000000000000000C3000000000000000000000000000000000000000000000000000000000000000000000000000000000000000000000000000000000000000000000000000000000000000000000000000000000000000000000000000000000000000000000000000000000000000000000000000000000000000000
310
0000000000000000000000000000000000000000000000000000000000000000000000000000000000000000000000000000000000000000000000C300000000000000000000000000000000000000000000000000000000000000000000000000000000000000000000000000000000000000000000000000000000000000
310
0000000000000000000000C300000000000000000000000000000000000000000000000000000000000000000000000000000000000000000000000000000000000000000000000000000000000000000000000000000000000000000000000000000000000000000000000000000000000000000000000000000000000000
310
00000000000000000000000000000000000000000000000000000000000000000000000000000000000000000000000000000000000000000000000000C30000000000000000000000000000000000000000000000000000000000000000000000000000000000000000000000000000000000000000000000000000000000
310
0000000000000000000000000000C300000000000000000000000000000000000000000000000000000000000000000000000000000000000000000000000000000000000000000000000000000000000000000000000000000000000000000000000000000000000000000000000000000000000000000000000000000000
310
00000000000000000000000000000000000000000000000000000000000000000000000000000000000000000000000000000000000000000000000000C3C300000000000000000000000000000000000000000000000000000000000000000000000000000000000000000000000000000000000000000000000000000000
310
00000000000000000000000000000000C30000000000000000000000000000000000000000000000000000000000000000000000000000000000000000000000000000000000000000000000000000000000000000000000000000000000000000000000000000000000000000000000000000000000000000000000000000
310
000000000000000000000000000000000000000000000000000000000000000000000000000000000000000000000000000000000000000000000000000000C30000000000000000000000000000000000000000000000000000000000000000000000DCDCDCDCDCDCDCDCDCDCDCDC00000000000000000000000000000000
310
00000000000000000000000000000000000000C30000000000000000000000000000000000000000000000000000000000000000000000000000000000000000000000000000000000000000000000000000000000000000000000000000000000000000000000000000000000000000000000000000000000000000000000
310
0000000000000000000000000000000000000000000000000000000000000000000000000000000000000000000000000000000000000000000000000000000000C3000000000000000000000000000000000000000000000000000000000000000000DCDCDC00000000000000000000DCDCDC000000000000000000000000
310
000000000000000000000000000000000000000000C3000000000000000000000000000000000000000000000000000000000000000000000000000000000000000000000000000000000000000000000000000000000000000000000000000000000000000000000000000000000000000000000000000000000000000000
310
00000000000000000000000000000000000000000000000000000000000000000000000000000000000000000000000000000000000000000000000000000000000000C300000000000000000000000000000000000000000000000000000000000000DCDC00000000000000000000000000000000DCDC0000000000000000
310
000000000000000000000000000000000000000000000000C3000000000000000000000000000000000000000000000000000000000000000000000000000000000000000000000000000000000000000000000000000000000000000000000000000000000000000000000000000000000000000000000000000000000000
310
0000000000000000000000000000000000000000000000000000000000000000000000000000000000000000000000000000000000000000000000000000000000000000C300000000000000000000000000000000000000000000000000000000000000DCDC00000000000000000000000000000000000000DC0000000000
310
0000000000000000000000000000000000000000000000000000C300000000000000000000000000000000000000000000000000000000000000000000000000000000000000000000000000000000000000000000000000000000000000000000000000000000000000000000000000000000000000000000000000000000
310
00000000000000000000000000000000000000000000000000000000000000000000000000000000000000000000000000000000000000000000000000000000000000000000C30000000000000000000000000000000000000000000000000000000000DCDC00000000000000000000000000000000000000000000DCDC00
310
00000000000000000000000000000000000000000000000000000000C30000000000000000000000000000000000000000000000000000000000000000000000000000000000000000000000000000000000000000000000000000000000000000000000000000000000000000000000000000000000000000000000000000
310
0000000000000000000000000000000000000000000000000000000000000000000000000000000000000000000000000000000000000000000000000000000000000000000000C3C30000000000000000000000000000000000000000000000000000000000DCDC00000000000000000000000000000000000000000000DC
310
DC000000000000000000000000000000000000000000000000000000000000C30000000000000000000000000000000000000000000000000000000000000000000000000000000000000000000000000000000000000000000000000000000000000000000000000000000000000000000000000000000000000000000000
310
00000000000000000000000000000000000000000000000000000000000000000000000000000000000000000000000000000000000000000000000000000000000000000000000000C3000000000000000000000000000000000000000000000000000000000000DC00000000000000000000000000000000000000000000
310
0000DC000000000000000000000000000000000000000000000000000000000000C3000000000000000000000000000000000000000000000000000000000000000000000000000000000000000000000000000000000000000000000000000000000000000000000000000000000000000000000000000000000000000000
310
000000000000000000000000000000000000000000000000000000000000000000000000000000000000000000000000000000000000000000000000000000000000000000000000000000C300000000000000000000000000000000000000000000000000000000DCDC000000000000000000002DDCDCDCDC2D0000000000
310
0000000000DCDC00000000000000000000000000000000000000000000000000000000C300000000000000000000000000000000000000000000000000000000000000000000000000000000000000000000000000000000000000000000000000000000000000000000000000000000000000000000000000000000000000
310
0000000000000000000000000000000000000000000000000000000000000000000000000000000000000000000000000000000000000000000000000000000000000000000000000000000000C300000000000000000000000000000000000000000000000000000000DC000000000000000000DCDCDC2D2D2D2DDCDCDC00
310
0000000000000000DC00000000000000000000000000000000000000000000000000000000C30000000000000000000000000000000000000000000000000000000000000000000000000000000000000000000000000000000000000000000000000000000000000000000000000000000000000000000000000000000000
310
00000000000000000000000000000000000000000000000000000000000000000000000000000000000000000000000000000000000000000000000000000000000000000000000000000000000000C3000000000000000000000000000000000000000000000000000000DC000000000000000000DC2D2D2D2D2D2D2D2D2D
310
2DDC000000000000000000DC000000000000000000000000000000000000000000000000000000C3000000000000000000000000000000000000000000000000000000000000000000000000000000000000000000000000000000000000000000000000000000000000000000000000000000000000000000000000000000
310
0000000000000000000000000000000000000000000000000000000000000000000000000000000000000000000000000000000000000000000000000000000000000000000000000000000000000000C300000000000000000000000000000000000000000000000000000000DC0000000000000000DC2D2D2D2D2D2D2D2D
310
2D2D2D2DDC2D00000000000000DC00000000000000000000000000000000000000000000000000000000C3000000000000000000000000000000000000000000000000000000000000000000000000000000000000000000000000000000000000000000000000000000000000000000000000000000000000000000000000
310
00000000000000000000000000000000000000000000000000000000000000000000000000000000000000000000000000000000000000000000000000000000000000000000000000000000000000000000C300000000000000000000000000000000000000000000000000000000DC00000000000000DC2D2D2D2D2D2D2D
310
2D2D2D2D2D2D2DDC0000000000000000DC000000000000000000000000000000000000000000000000000000C300000000000000000000000000000000000000000000000000000000000000000000000000000000000000000000000000000000000000000000000000000000000000000000000000000000000000000000
310
000000000000000000000000000000000000000000000000000000000000000000000000000000000000000000000000000000000000000000000000000000000000000000000000000000000000000000000000C3000000000000000000000000000000000000000000000000000000DC00000000000000DC2D2D2D2D2D2D
310
2D2D2D2D2D2D2D2D2D2DDC00000000000000DC000000000000000000000000000000000000000000000000000000C30000000000000000000000000000000000000000000000000000000000000000000000000000000000000000000000000000000000000000000000000000000000000000000000000000000000000000
310
0000000000000000000000000000000000000000000000000000000000000000000000000000000000000000000000000000000000000000000000000000000000000000000000000000000000000000000000000000C3000000000000000000000000000000000000000000000000000000DC00000000000000DC2D2D2D2D
310
2D2D2D2D2D2D2D2D2D2D2D2DDC00000000000000DC000000000000000000000000000000000000000000000000000000C3000000000000000000000000000000000000000000000000000000000000000000000000000000000000000000000000000000000000000000000000000000000000000000000000000000000000
310
00000000000000000000000000000000000000000000000000000000000000000000000000000000000000000000000000000000000000000000000000000000000000000000000000000000000000000000000000000000C3000000000000000000000000000000000000000000000000000000DC000000000000DC2D2D2D
310
2D2D2D2D2D2D2D2D2D2D2D2D2D2D2DDC000000000000DC000000000000000000000000000000000000000000000000000000C300000000000000000000000000000000000000000000000000000000000000000000000000000000000000000000000000000000000000000000000000000000000000000000000000000000
310
000000000000000000000000000000000000000000000000000000000000000000000000000000000000000000000000000000000000000000000000000000000000000000000000000000000000000000000000000000000000C3000000000000000000000000000000000000000000000000000000DC000000000000DC2D
310
2D2D2D2D2D2D2D2D2D2D2D2D2D2D2D2D2DDC000000000000DC000000000000000000000000000000000000000000000000000000C30000000000000000000000000000000000000000000000000000000000000000000000000000000000000000000000000000000000000000000000000000000000000000000000000000
310
0000000000000000000000000000000000000000000000000000000000000000000000000000000000000000000000000000000000000000000000000000000000000000000000000000000000000000000000000000000000000000C3000000000000000000000000000000000000000000000000000000DC000000000000
310
DC2D2D2D2D2D2D2D2D2DF52D2D2D2D2D2D2D2DDC000000000000DC000000000000000000000000000000000000000000000000000000C3000000000000000000000000000000000000000000000000000000000000000000000000000000000000000000000000000000000000000000000000000000000000000000000000
310
00000000000000000000000000000000000000000000000000000000000000000000000000000000000000000000000000000000000000000000000000000000000000000000000000000000000000000000000000000000000000000000C3000000000000000000000000000000000000000000000000000000DC00000000
310
0000DC2D2D2D2D2D2D2D2D2DF52D2D2D2D2D2D2D2DDC000000000000DC000000000000000000000000000000000000000000000000000000C300000000000000000000000000000000000000000000000000000000000000000000000000000000000000000000000000000000000000000000000000000000000000000000
310
000000000000000000000000000000000000000000000000000000000000000000000000000000000000000000000000000000000000000000000000000000000000000000000000000000000000000000000000000000000000000000000000C3000000000000000000000000000000000000000000000000000000DC0000
310
00000000DC2D2D2D2D2D2D2D2D2D2D2D2D2D2D2D2D2D2DDC000000000000DC000000000000000000000000000000000000000000000000000000C30000000000000000000000000000000000000000000000000000000000000000000000000000000000000000000000000000000000000000000000000000000000000000
310
0000000000000000000000000000000000000000000000000000000000000000000000000000000000000000000000000000000000000000000000000000000000000000000000000000000000000000000000000000000000000000000000000000C3000000000000000000000000000000000000000000000000000000DC
310
000000000000DC2D2D2D2D2D2D2D2D2D2D2D2D2D2D2D2D2D2DDC000000000000DC000000000000000000000000000000000000000000000000000000C3000000000000000000000000000000000000000000000000000000000000000000000000000000000000000000000000000000000000000000000000000000000000
310
00000000000000000000000000000000000000000000000000000000000000000000000000000000000000000000000000000000000000000000000000000000000000000000000000000000000000000000000000000000000000000000000000000000C30000000000000000000000000000000000000000000000000000
310
00DC00000000000000DC2D2D2D2D2D2D2D2D2D2D2D2D2D2D2D2DDC00000000000000DC000000000000000000000000000000000000000000000000000000C300000000000000000000000000000000000000000000000000000000000000000000000000000000000000000000000000000000000000000000000000000000
310
000000000000000000000000000000000000000000000000000000000000000000000000000000000000000000000000000000000000000000000000000000000000000000000000000000000000000000000000000000000000000000000000000000000000C3000000000000000000000000000000000000000000000000
310
000000DC00000000000000DC2D2D2D2D2D2D2D2D2D2D2D2D2D2D2D2DDC00000000000000DC000000000000000000000000000000000000000000000000000000C30000000000000000000000000000000000000000000000000000000000000000000000000000000000000000000000000000000000000000000000000000
310
0000000000000000000000000000000000000000000000000000000000000000000000000000000000000000000000000000000000000000000000000000000000000000000000000000000000000000000000000000000000000000000000000000000000000000C300000000000000000000000000000000000000000000
310
000000000000DC00000000000000DC2D2D2D2D2D2D2D2D2D2D2D2D2D2DDC00000000000000DCDC000000000000000000000000000000000000000000000000000000C3000000000000000000000000000000000000000000000000000000000000000000000000000000000000000000000000000000000000000000000000
310
0000000000000000000000000000000000000000000000000000000000000000000000000000000000000000000000000000000000000000000000000000000000000000000000000000000000000000000000000000000000000000000000000000000000000000000000C300000000000000000000000000000000000000
310
0000000000000000DC0000000000000000DC2D2D2D2D2D2D2D2D2D2D2D2DDC2D00000000000000DC00000000000000000000000000000000000000000000000000000000C300000000000000000000000000000000000000000000000000000000000000000000000000000000000000000000000000000000000000000000
310
00000000000000000000000000000000000000000000000000000000000000000000000000000000000000000000000000000000000000000000000000000000000000000000000000000000000000000000000000000000000000000000000000000000000000000000000000C30000000000000000000000000000000000
310
00000000000000000000DC000000000000000000DC2D2D2D2D2D2D2D2D2D2DDC000000000000000000DC000000000000000000000000000000000000000000000000000000C3000000000000000000000000000000000000000000000000000000000000000000000000000000000000000000000000000000000000000000
310
000000000000000000000000000000000000000000000000000000000000000000000000000000000000000000000000000000000000000000000000000000000000000000000000000000000000000000000000000000000000000000000000000000000000000000000000000000C3000000000000000000000000000000
310
00000000000000000000000000DC000000000000000000DCDCDC2D2D2D2DDCDCDC000000000000000000DC00000000000000000000000000000000000000000000000000000000C300000000000000000000000000000000000000000000000000000000000000000000000000000000000000000000000000000000000000
310
0000000000000000000000000000000000000000000000000000000000000000000000000000000000000000000000000000000000000000000000000000000000000000000000000000000000000000000000000000000000000000000000000000000000000000000000000000000000C300000000000000000000000000
310
000000000000000000000000000000DC00000000000000000000002DDCDCDCDC2D0000000000000000000000DC00000000000000000000000000000000000000000000000000000000C30000000000000000000000000000000000000000000000000000000000000000000000000000000000000000000000000000000000
310
00000000000000000000000000000000000000000000000000000000000000000000000000000000000000000000000000000000000000000000000000000000000000000000000000000000000000000000000000000000000000000000000000000000000000000000000000000000000000C30000000000000000000000
310
000000000000000000000000000000000000DCDC000000000000000000000000000000000000000000000000DCDC0000000000000000000000000000000000000000000000000000000000C3000000000000000000000000000000000000000000000000000000000000000000000000000000000000000000000000000000
310
00000000000000000000000000000000000000000000000000000000000000000000000000000000000000000000000000000000000000000000000000000000000000000000000000000000000000000000000000000000000000000000000000000000000000000000000000000000000000000000C30000000000000000
310
000000000000000000000000000000000000000000DCDC00000000000000000000000000000000000000000000DCDC000000000000000000000000000000000000000000000000000000000000C300000000000000000000000000000000000000000000000000000000000000000000000000000000000000000000000000
310
000000000000000000000000000000000000000000000000000000000000000000000000000000000000000000000000000000000000000000000000000000000000000000000000000000000000000000000000000000000000000000000000000000000000000000000000000000000000000000000000C3000000000000
310
0000000000000000000000000000000000000000000000DCDC00000000000000000000000000000000000000000000DCDC0000000000000000000000000000000000000000000000000000000000C3000000000000000000000000000000000000000000000000000000000000000000000000000000000000000000000000
310
0000000000000000000000000000000000000000000000000000000000000000000000000000000000000000000000000000000000000000000000000000000000000000000000000000000000000000000000000000000000000000000000000000000000000000000000000000000000000000000000000000C300000000
310
000000000000000000000000000000000000000000000000000000DCDC000000000000000000000000000000000000DCDC00000000000000000000000000000000000000000000000000000000000000C300000000000000000000000000000000000000000000000000000000000000000000000000000000000000000000
310
00000000000000000000000000000000000000000000000000000000000000000000000000000000000000000000000000000000000000000000000000000000000000000000000000000000000000000000000000000000000000000000000000000000000000000000000000000000000000000000000000000000C30000
310
000000000000000000000000000000000000000000000000000000000000DC000000000000000000000000000000000000DC00000000000000000000000000000000000000000000000000000000000000C3C30000000000000000000000000000000000000000000000000000000000000000000000000000000000000000
310
00000000000000000000000000000000000000000000000000000000000000000000000000000000000000000000000000000000000000000000000000000000000000000000000000000000000000000000000000000000000000000000000000000000000000000000000000000000000000000000000000000000000000
310
C30000000000000000000000000000000000000000000000000000000000000000DCDCDCDC00000000000000000000DCDCDCDC0000000000000000000000000000000000000000000000000000000000000000C300000000000000000000000000000000000000000000000000000000000000000000000000000000000000
310
00000000000000000000000000000000000000000000000000000000000000000000000000000000000000000000000000000000000000000000000000000000000000000000000000000000000000000000000000000000000000000000000000000000000000000000000000000000000000000000000000000000000000
310
000000C300000000000000000000000000000000000000000000000000000000000000000000DCDCDCDCDCDCDCDCDCDCDCDC0000000000000000000000000000000000000000000000000000000000000000000000C30000000000000000000000000000000000000000000000000000000000000000000000000000000000
310
00000000000000000000000000000000000000000000000000000000000000000000000000000000000000000000000000000000000000000000000000000000000000000000000000000000000000000000000000000000000000000000000000000000000000000000000000000000000000000000000000000000000000
310
0000000000C30000000000000000000000000000000000000000000000000000000000000000000000000000000000000000000000000000000000000000000000000000000000000000000000000000000000000000C300000000000000000000000000000000000000000000000000000000000000000000000000000000
310
00000000000000000000000000000000000000000000000000000000000000000000000000000000000000000000000000000000000000000000000000000000000000000000000000000000000000000000000000000000000000000000000000000000000000000000000000000000000000000000000000000000000000
310
00000000000000C30000000000000000000000000000000000000000000000000000000000000000000000000000000000000000000000000000000000000000000000000000000000000000000000000000000000000000C30000000000000000000000000000000000000000000000000000000000000000000000000000
310
00000000000000000000000000000000000000000000000000000000000000000000000000000000000000000000000000000000000000000000000000000000000000000000000000000000000000000000000000000000000000000000000000000000000000000000000000000000000000000000000000000000000000
310
000000000000000000C3C3000000000000000000000000000000000000000000000000000000000000000000000000000000000000000000000000000000000000000000000000000000000000000000000000000000000000C3C3000000000000000000000000000000000000000000000000000000000000000000000000
310
00000000000000000000000000000000000000000000000000000000000000000000000000000000000000000000000000000000000000000000000000000000000000000000000000000000000000000000000000000000000000000000000000000000000000000000000000000000000000000000000000000000000000
310
000000000000000000000000C3000000000000000000000000000000000000000000000000000000000000000000000000000000000000000000000000000000000000000000000000000000000000000000000000000000000000C30000000000000000000000000000000000000000000000000000000000000000000000
310
00000000000000000000000000000000000000000000000000000000000000000000000000000000000000000000000000000000000000000000000000000000000000000000000000000000000000000000000000000000000000000000000000000000000000000000000000000000000000000000000000000000000000
310
000000000000000000000000000000C30000000000000000000000000000000000000000000000000000000000000000000000000000000000000000000000000000000000000000000000000000000000000000000000000000000000C3000000000000000000000000000000000000000000000000000000000000000000
310
00000000000000000000000000000000000000000000000000000000000000000000000000000000000000000000000000000000000000000000000000000000000000000000000000000000000000000000000000000000000000000000000000000000000000000000000000000000000000000000000000000000000000
310
0000000000000000000000000000000000C300000000000000000000000000000000000000000000000000000000000000000000000000000000000000000000000000000000000000000000000000000000000000000000000000000000C30000000000000000000000000000000000000000000000000000000000000000
310
00000000000000000000000000000000000000000000000000000000000000000000000000000000000000000000000000000000000000000000000000000000000000000000000000000000000000000000000000000000000000000000000000000000000000000000000000000000000000000000000000000000000000
310
0000000000000000000000000000000000000000C30000000000000000000000000000000000000000000000000000000000000000000000000000000000000000000000000000000000000000000000000000000000000000000000000000C300000000000000000000000000000000000000000000000000000000000000
310
00000000000000000000000000000000000000000000000000000000000000000000000000000000000000000000000000000000000000000000000000000000000000000000000000000000000000000000000000000000000000000000000000000000000000000000000000000000000000000000000000000000000000
310
00000000000000000000000000000000000000000000C3C3000000000000000000000000000000000000000000000000000000000000000000000000000000000000000000000000000000000000000000000000000000000000000000000000C3C30000000000000000000000000000000000000000000000000000000000
310
00000000000000000000000000000000000000000000000000000000000000000000000000000000000000000000000000000000000000000000000000000000000000000000000000000000000000000000000000000000000000000000000000000000000000000000000000000000000000000000000000000000000000
310
0000000000000000000000000000000000000000000000000000C30000000000000000000000000000000000000000000000000000000000000000000000000000000000000000000000000000000000000000000000000000000000000000000000C300000000000000000000000000000000000000000000000000000000
310
00000000000000000000000000000000000000000000000000000000000000000000000000000000000000000000000000000000000000000000000000000000000000000000000000000000000000000000000000000000000000000000000000000000000000000000000000000000000000000000000000000000000000
310
00000000000000000000000000000000000000000000000000000000C300000000000000000000000000000000000000000000000000000000000000000000000000000000000000000000000000000000000000000000000000000000000000000000C3000000000000000000000000000000000000000000000000000000
310
00000000000000000000000000000000000000000000000000000000000000000000000000000000000000000000000000000000000000000000000000000000000000000000000000000000000000000000000000000000000000000000000000000000000000000000000000000000000000000000000000000000000000
310
000000000000000000000000000000000000000000000000000000000000C3C30000000000000000000000000000000000000000000000000000000000000000000000000000000000000000000000000000000000000000000000000000000000000000C3C300000000000000000000000000000000000000000000000000
310
00000000000000000000000000000000000000000000000000000000000000000000000000000000000000000000000000000000000000000000000000000000000000000000000000000000000000000000000000000000000000000000000000000000000000000000000000000000000000000000000000000000000000
310
000000000000000000000000000000000000000000000000000000000000000000C3C3000000000000000000000000000000000000000000000000000000000000000000000000000000000000000000000000000000000000000000000000000000000000C3C3000000000000000000000000000000000000000000000000
310
00000000000000000000000000000000000000000000000000000000000000000000000000000000000000000000000000000000000000000000000000000000000000000000000000000000000000000000000000000000000000000000000000000000000000000000000000000000000000000000000000000000000000
310
000000000000000000000000000000000000000000000000000000000000000000000000C3C300000000000000000000000000000000000000000000000000000000000000000000000000000000000000000000000000000000000000000000000000000000C3000000000000000000000000000000000000000000000000
310
00000000000000000000000000000000000000000000000000000000000000000000000000000000000000000000000000000000000000000000000000000000000000000000000000000000000000000000000000000000000000000000000000000000000000000000000000000000000000000000000000000000000000
310
00000000000000000000000000000000000000000000000000000000000000000000000000000000C30000000000000000000000000000000000000000000000000000000000000000000000000000000000000000000000000000000000000000000000000000C3C300000000000000000000000000000000000000000000
310
00000000000000000000000000000000000000000000000000000000000000000000000000000000000000000000000000000000000000000000000000000000000000000000000000000000000000000000000000000000000000000000000000000000000000000000000000000000000000000000000000000000000000
310
000000000000000000000000000000000000000000000000000000000000000000000000000000000000C3C3000000000000000000000000000000000000000000000000000000000000000000000000000000000000000000000000000000000000000000000000C3C3000000000000000000000000000000000000000000
310
00000000000000000000000000000000000000000000000000000000000000000000000000000000000000000000000000000000000000000000000000000000000000000000000000000000000000000000000000000000000000000000000000000000000000000000000000000000000000000000000000000000000000
310
000000000000000000000000000000000000000000000000000000000000000000000000000000000000000000C3C30000000000000000000000000000000000000000000000000000000000000000000000000000000000000000000000000000000000000000000000C30000000000000000000000000000000000000000
310
00000000000000000000000000000000000000000000000000000000000000000000000000000000000000000000000000000000000000000000000000000000000000000000000000000000000000000000000000000000000000000000000000000000000000000000000000000000000000000000000000000000000000
310
00000000000000000000000000000000000000000000000000000000000000000000000000000000000000000000000000C3000000000000000000000000000000000000000000000000000000000000000000000000000000000000000000000000000000000000000000C300000000000000000000000000000000000000
310
00000000000000000000000000000000000000000000000000000000000000000000000000000000000000000000000000000000000000000000000000000000000000000000000000000000000000000000000000000000000000000000000000000000000000000000000000000000000000000000000000000000000000
310
000000000000000000000000000000000000000000000000000000000000000000000000000000000000000000000000000000C3C3000000000000000000000000000000000000000000000000000000000000000000000000000000000000000000000000000000000000C3C3000000000000000000000000000000000000
310
00000000000000000000000000000000000000000000000000000000000000000000000000000000000000000000000000000000000000000000000000000000000000000000000000000000000000000000000000000000000000000000000000000000000000000000000000000000000000000000000000000000000000
310
000000000000000000000000000000000000000000000000000000000000000000000000000000000000000000000000000000000000C3C3000000000000000000000000000000000000000000000000000000000000000000000000000000000000000000000000000000C3C3000000000000000000000000000000000000
310
00000000000000000000000000000000000000000000000000000000000000000000000000000000000000000000000000000000000000000000000000000000000000000000000000000000000000000000000000000000000000000000000000000000000000000000000000000000000000000000000000000000000000
310
00000000000000000000000000000000000000000000000000000000000000000000000000000000000000000000000000000000000000000000C30000000000000000000000000000000000000000000000000000000000000000000000000000000000000000000000000000C30000000000000000000000000000000000
310
00000000000000000000000000000000000000000000000000000000000000000000000000000000000000000000000000000000000000000000000000000000000000000000000000000000000000000000000000000000000000000000000000000000000000000000000000000000000000000000000000000000000000
310
00000000000000000000000000000000000000000000000000000000000000000000000000000000000000000000000000000000000000000000000000C3C3C3000000000000000000000000000000000000000000000000000000000000000000000000000000000000000000C3C300000000000000000000000000000000
310
00000000000000000000000000000000000000000000000000000000000000000000000000000000000000000000000000000000000000000000000000000000000000000000000000000000000000000000000000000000000000000000000000000000000000000000000000000000000000000000000000000000000000
310
0000000000000000000000000000000000000000000000000000000000000000000000000000000000000000000000000000000000000000000000000000000000C3C3000000000000000000000000000000000000000000000000000000000000000000000000000000000000C3C300000000000000000000000000000000
310
00000000000000000000000000000000000000000000000000000000000000000000000000000000000000000000000000000000000000000000000000000000000000000000000000000000000000000000000000000000000000000000000000000000000000000000000000000000000000000000000000000000000000
310
000000000000000000000000000000000000000000000000000000000000000000000000000000000000000000000000000000000000000000000000000000000000000000C3C300000000000000000000000000000000000000000000000000000000000000000000000000C3C3C300000000000000000000000000000000
310
00000000000000000000000000000000000000000000000000000000000000000000000000000000000000000000000000000000000000000000000000000000000000000000000000000000000000000000000000000000000000000000000000000000000000000000000000000000000000000000000000000000000000
310
00000000000000000000000000000000000000000000000000000000000000000000000000000000000000000000000000000000000000000000000000000000000000000000000000C3C3000000000000000000000000000000000000000000000000000000000000000000C3C3C300000000000000000000000000000000
310
00000000000000000000000000000000000000000000000000000000000000000000000000000000000000000000000000000000000000000000000000000000000000000000000000000000000000000000000000000000000000000000000000000000000000000000000000000000000000000000000000000000000000
310
0000000000000000000000000000000000000000000000000000000000000000000000000000000000000000000000000000000000000000000000000000000000000000000000000000000000C3C3C3C3000000000000000000000000000000000000000000000000000000C3C3C300000000000000000000000000000000
310
00000000000000000000000000000000000000000000000000000000000000000000000000000000000000000000000000000000000000000000000000000000000000000000000000000000000000000000000000000000000000000000000000000000000000000000000000000000000000000000000000000000000000
310
00000000000000000000000000000000000000000000000000000000000000000000000000000000000000000000000000000000000000000000000000000000000000000000000000000000000000000000C3C3C300000000000000000000000000000000000000000000C3C3C30000000000000000000000000000000000
310
00000000000000000000000000000000000000000000000000000000000000000000000000000000000000000000000000000000000000000000000000000000000000000000000000000000000000000000000000000000000000000000000000000000000000000000000000000000000000000000000000000000000000
310
000000000000000000000000000000000000000000000000000000000000000000000000000000000000000000000000000000000000000000000000000000000000000000000000000000000000000000000000000000C3C3C3C3C3C3C3C3000000000000C3C3C3C3C3C3C3C3000000000000000000000000000000000000
310
00000000000000000000000000000000000000000000000000000000000000000000000000000000000000000000000000000000000000000000000000000000000000000000000000000000000000000000000000000000000000000000000000000000000000000000000000000000000000000000000000000000000000
310
000000000000000000000000000000000000000000000000000000000000000000000000000000000000000000000000000000000000000000000000000000000000000000000000000000000000000000000000000000000000000000000000C3C3C3C3C3C3C3C30000000000000000000000000000000000000000000000
310
0000000000000000000000000000000000000000000000000000000000000000000000000000000000000000000000000000000000000000000000000000000000000000000000000000000000000000000000000000000000000000000000000000000000
  0
XRECORD
  5
1D2471
102
{ACAD_REACTORS
330
1A
102
}
330
1A
100
AcDbXrecord
280
     1
102
MATERIAL
148
0.0
149
0.0
149
0.0
 93
        0
 94
      127
282
     0
 72
     0
 77
     0
171
     0
175
     0
179
     0
273
     0
  0
XRECORD
  5
1C
102
{ACAD_REACTORS
330
1A
102
}
330
1A
100
AcDbXrecord
280
     1
270
     1
271
     1
  0
XRECORD
  5
1B
102
{ACAD_REACTORS
330
1A
102
}
330
1A
100
AcDbXrecord
280
     1
270
     1
271
     1
  0
XRECORD
  5
1F
102
{ACAD_REACTORS
330
1A
102
}
330
1A
100
AcDbXrecord
280
     1
270
     1
271
     1
  0
XRECORD
  5
1E
102
{ACAD_REACTORS
330
1A
102
}
330
1A
100
AcDbXrecord
280
     1
270
     1
271
     1
  0
XRECORD
  5
20
102
{ACAD_REACTORS
330
1A
102
}
330
1A
100
AcDbXrecord
280
     1
270
     1
271
     1
  0
XRECORD
  5
1D
102
{ACAD_REACTORS
330
1A
102
}
330
1A
100
AcDbXrecord
280
     1
270
     1
271
     1
  0
XRECORD
  5
1D2470
102
{ACAD_REACTORS
330
12
102
}
330
12
100
AcDbXrecord
280
     1
102
MATERIAL
148
0.0
149
0.0
149
0.0
 93
        0
 94
      127
282
     0
 72
     0
 77
     0
171
     0
175
     0
179
     0
273
     0
  0
XRECORD
  5
14
102
{ACAD_REACTORS
330
12
102
}
330
12
100
AcDbXrecord
280
     1
270
     1
271
     1
  0
XRECORD
  5
13
102
{ACAD_REACTORS
330
12
102
}
330
12
100
AcDbXrecord
280
     1
270
     1
271
     1
  0
XRECORD
  5
17
102
{ACAD_REACTORS
330
12
102
}
330
12
100
AcDbXrecord
280
     1
270
     1
271
     1
  0
XRECORD
  5
16
102
{ACAD_REACTORS
330
12
102
}
330
12
100
AcDbXrecord
280
     1
270
     1
271
     1
  0
XRECORD
  5
18
102
{ACAD_REACTORS
330
12
102
}
330
12
100
AcDbXrecord
280
     1
270
     1
271
     1
  0
XRECORD
  5
15
102
{ACAD_REACTORS
330
12
102
}
330
12
100
AcDbXrecord
280
     1
270
     1
271
     1
  0
XRECORD
  5
1D2472
102
{ACAD_REACTORS
330
22
102
}
330
22
100
AcDbXrecord
280
     1
102
MATERIAL
148
0.0
149
0.0
149
0.0
 93
        0
 94
      127
282
     0
 72
     0
 77
     0
171
     0
175
     0
179
     0
273
     0
  0
XRECORD
  5
24
102
{ACAD_REACTORS
330
22
102
}
330
22
100
AcDbXrecord
280
     1
270
     1
271
     1
  0
XRECORD
  5
23
102
{ACAD_REACTORS
330
22
102
}
330
22
100
AcDbXrecord
280
     1
270
     1
271
     1
  0
XRECORD
  5
27
102
{ACAD_REACTORS
330
22
102
}
330
22
100
AcDbXrecord
280
     1
270
     1
271
     1
  0
XRECORD
  5
26
102
{ACAD_REACTORS
330
22
102
}
330
22
100
AcDbXrecord
280
     1
270
     1
271
     1
  0
XRECORD
  5
28
102
{ACAD_REACTORS
330
22
102
}
330
22
100
AcDbXrecord
280
     1
270
     1
271
     1
  0
XRECORD
  5
25
102
{ACAD_REACTORS
330
22
102
}
330
22
100
AcDbXrecord
280
     1
270
     1
271
     1
  0
CELLSTYLEMAP
  5
1D2E9F
102
{ACAD_REACTORS
330
1D246C
102
}
330
1D246C
100
AcDbCellStyleMap
 90
        3
300
CELLSTYLE
  1
TABLEFORMAT_BEGIN
 90
        5
170
     1
 91
        0
 92
    32768
 62
   257
 93
        1
300
CONTENTFORMAT
  1
CONTENTFORMAT_BEGIN
 90
        0
 91
        0
 92
      512
 93
        0
300

 40
0.0
140
1.0
 94
        5
 62
     0
340
55
144
0.25
309
CONTENTFORMAT_END
171
     1
301
MARGIN
  1
CELLMARGIN_BEGIN
 40
0.06
 40
0.06
 40
0.06
 40
0.06
 40
0.18
 40
0.18
309
CELLMARGIN_END
 94
        6
 95
        1
302
GRIDFORMAT
  1
GRIDFORMAT_BEGIN
 90
        0
 91
        1
 62
     0
 92
       -2
340
0
 93
        0
 40
0.045
309
GRIDFORMAT_END
 95
        2
302
GRIDFORMAT
  1
GRIDFORMAT_BEGIN
 90
        0
 91
        1
 62
     0
 92
       -2
340
0
 93
        0
 40
0.045
309
GRIDFORMAT_END
 95
        4
302
GRIDFORMAT
  1
GRIDFORMAT_BEGIN
 90
        0
 91
        1
 62
     0
 92
       -2
340
0
 93
        0
 40
0.045
309
GRIDFORMAT_END
 95
        8
302
GRIDFORMAT
  1
GRIDFORMAT_BEGIN
 90
        0
 91
        1
 62
     0
 92
       -2
340
0
 93
        0
 40
0.045
309
GRIDFORMAT_END
 95
       16
302
GRIDFORMAT
  1
GRIDFORMAT_BEGIN
 90
        0
 91
        1
 62
     0
 92
       -2
340
0
 93
        0
 40
0.045
309
GRIDFORMAT_END
 95
       32
302
GRIDFORMAT
  1
GRIDFORMAT_BEGIN
 90
        0
 91
        1
 62
     0
 92
       -2
340
0
 93
        0
 40
0.045
309
GRIDFORMAT_END
309
TABLEFORMAT_END
  1
CELLSTYLE_BEGIN
 90
        1
 91
        1
300
_TITLE
309
CELLSTYLE_END
300
CELLSTYLE
  1
TABLEFORMAT_BEGIN
 90
        5
170
     1
 91
        0
 92
        0
 62
   257
 93
        1
300
CONTENTFORMAT
  1
CONTENTFORMAT_BEGIN
 90
        0
 91
        0
 92
      512
 93
        0
300

 40
0.0
140
1.0
 94
        5
 62
     0
340
55
144
0.18
309
CONTENTFORMAT_END
171
     1
301
MARGIN
  1
CELLMARGIN_BEGIN
 40
0.06
 40
0.06
 40
0.06
 40
0.06
 40
0.18
 40
0.18
309
CELLMARGIN_END
 94
        6
 95
        1
302
GRIDFORMAT
  1
GRIDFORMAT_BEGIN
 90
        0
 91
        1
 62
     0
 92
       -2
340
0
 93
        0
 40
0.045
309
GRIDFORMAT_END
 95
        2
302
GRIDFORMAT
  1
GRIDFORMAT_BEGIN
 90
        0
 91
        1
 62
     0
 92
       -2
340
0
 93
        0
 40
0.045
309
GRIDFORMAT_END
 95
        4
302
GRIDFORMAT
  1
GRIDFORMAT_BEGIN
 90
        0
 91
        1
 62
     0
 92
       -2
340
0
 93
        0
 40
0.045
309
GRIDFORMAT_END
 95
        8
302
GRIDFORMAT
  1
GRIDFORMAT_BEGIN
 90
        0
 91
        1
 62
     0
 92
       -2
340
0
 93
        0
 40
0.045
309
GRIDFORMAT_END
 95
       16
302
GRIDFORMAT
  1
GRIDFORMAT_BEGIN
 90
        0
 91
        1
 62
     0
 92
       -2
340
0
 93
        0
 40
0.045
309
GRIDFORMAT_END
 95
       32
302
GRIDFORMAT
  1
GRIDFORMAT_BEGIN
 90
        0
 91
        1
 62
     0
 92
       -2
340
0
 93
        0
 40
0.045
309
GRIDFORMAT_END
309
TABLEFORMAT_END
  1
CELLSTYLE_BEGIN
 90
        2
 91
        1
300
_HEADER
309
CELLSTYLE_END
300
CELLSTYLE
  1
TABLEFORMAT_BEGIN
 90
        5
170
     1
 91
        0
 92
        0
 62
   257
 93
        1
300
CONTENTFORMAT
  1
CONTENTFORMAT_BEGIN
 90
        0
 91
        0
 92
      512
 93
        0
300

 40
0.0
140
1.0
 94
        2
 62
     0
340
55
144
0.18
309
CONTENTFORMAT_END
171
     1
301
MARGIN
  1
CELLMARGIN_BEGIN
 40
0.06
 40
0.06
 40
0.06
 40
0.06
 40
0.18
 40
0.18
309
CELLMARGIN_END
 94
        6
 95
        1
302
GRIDFORMAT
  1
GRIDFORMAT_BEGIN
 90
        0
 91
        1
 62
     0
 92
       -2
340
0
 93
        0
 40
0.045
309
GRIDFORMAT_END
 95
        2
302
GRIDFORMAT
  1
GRIDFORMAT_BEGIN
 90
        0
 91
        1
 62
     0
 92
       -2
340
0
 93
        0
 40
0.045
309
GRIDFORMAT_END
 95
        4
302
GRIDFORMAT
  1
GRIDFORMAT_BEGIN
 90
        0
 91
        1
 62
     0
 92
       -2
340
0
 93
        0
 40
0.045
309
GRIDFORMAT_END
 95
        8
302
GRIDFORMAT
  1
GRIDFORMAT_BEGIN
 90
        0
 91
        1
 62
     0
 92
       -2
340
0
 93
        0
 40
0.045
309
GRIDFORMAT_END
 95
       16
302
GRIDFORMAT
  1
GRIDFORMAT_BEGIN
 90
        0
 91
        1
 62
     0
 92
       -2
340
0
 93
        0
 40
0.045
309
GRIDFORMAT_END
 95
       32
302
GRIDFORMAT
  1
GRIDFORMAT_BEGIN
 90
        0
 91
        1
 62
     0
 92
       -2
340
0
 93
        0
 40
0.045
309
GRIDFORMAT_END
309
TABLEFORMAT_END
  1
CELLSTYLE_BEGIN
 90
        3
 91
        2
300
_DATA
309
CELLSTYLE_END
  0
XRECORD
  5
1D2ED7
102
{ACAD_REACTORS
330
1D246C
102
}
330
1D246C
100
AcDbXrecord
280
     1
102
ACAD_ROUNDTRIP_PRE2007_TABLESTYLE
 90
      512
 91
        0
  1

 92
      512
 93
        0
  2

 94
      512
 95
        0
  3

  0
XRECORD
  5
1D2EB2
102
{ACAD_REACTORS
330
1D2EB1
102
}
330
1D2EB1
100
AcDbXrecord
280
     1
102
RTVSPropertyOp0
 70
     1
102
RTVSPropertyOp1
 70
     1
102
RTVSPropertyOp2
 70
     1
102
RTVSPropertyOp3
 70
     1
102
RTVSPropertyOp4
 70
     1
102
RTVSPropertyOp5
 70
     1
102
RTVSPropertyOp6
 70
     1
102
RTVSPropertyOp7
 70
     1
102
RTVSPropertyOp8
 70
     1
102
RTVSPropertyOp9
 70
     1
102
RTVSPropertyOp10
 70
     1
102
RTVSPropertyOp11
 70
     1
102
RTVSPropertyOp12
 70
     1
102
RTVSPropertyOp13
 70
     1
102
RTVSPropertyOp14
 70
     1
102
RTVSPropertyOp15
 70
     1
102
RTVSPropertyOp16
 70
     1
102
RTVSPropertyOp17
 70
     1
102
RTVSPropertyOp18
 70
     1
102
RTVSPropertyOp19
 70
     1
102
RTVSPropertyOp20
 70
     1
102
RTVSPropertyOp21
 70
     1
102
RTVSPropertyOp22
 70
     1
102
RTVSPropertyOp23
 70
     1
102
RTVSPropertyOp24
 70
     1
102
RTVSPropertyOp25
 70
     1
102
RTVSPropertyOp26
 70
     1
102
RTVSPropertyOp27
 70
     1
102
RTVSPropertyOp28
 70
     1
102
RTVSPropertyOp29
 70
     1
102
RTVSPropertyOp30
 70
     1
102
RTVSPropertyOp31
 70
     1
102
RTVSPropertyOp32
 70
     1
  0
XRECORD
  5
1D2EDE
102
{ACAD_REACTORS
330
1D2EDD
102
}
330
1D2EDD
100
AcDbXrecord
280
     1
102
RTVSPropertyOp0
 70
     1
102
RTVSPropertyOp1
 70
     1
102
RTVSPropertyOp2
 70
     1
102
RTVSPropertyOp3
 70
     1
102
RTVSPropertyOp4
 70
     1
102
RTVSPropertyOp5
 70
     1
102
RTVSPropertyOp6
 70
     1
102
RTVSPropertyOp7
 70
     1
102
RTVSPropertyOp8
 70
     1
102
RTVSPropertyOp9
 70
     1
102
RTVSPropertyOp10
 70
     1
102
RTVSPropertyOp11
 70
     1
102
RTVSPropertyOp12
 70
     1
102
RTVSPropertyOp13
 70
     1
102
RTVSPropertyOp14
 70
     1
102
RTVSPropertyOp15
 70
     1
102
RTVSPropertyOp16
 70
     1
102
RTVSPropertyOp17
 70
     1
102
RTVSPropertyOp18
 70
     1
102
RTVSPropertyOp19
 70
     1
102
RTVSPropertyOp20
 70
     1
102
RTVSPropertyOp21
 70
     1
102
RTVSPropertyOp22
 70
     1
102
RTVSPropertyOp23
 70
     1
102
RTVSPropertyOp24
 70
     1
102
RTVSPropertyOp25
 70
     1
102
RTVSPropertyOp26
 70
     1
102
RTVSPropertyOp27
 70
     1
102
RTVSPropertyOp28
 70
     1
102
RTVSPropertyOp29
 70
     1
102
RTVSPropertyOp30
 70
     1
102
RTVSPropertyOp31
 70
     1
102
RTVSPropertyOp32
 70
     1
  0
XRECORD
  5
1D2EB0
102
{ACAD_REACTORS
330
1D2EAF
102
}
330
1D2EAF
100
AcDbXrecord
280
     1
102
RTVSPropertyOp0
 70
     1
102
RTVSPropertyOp1
 70
     1
102
RTVSPropertyOp2
 70
     1
102
RTVSPropertyOp3
 70
     1
102
RTVSPropertyOp4
 70
     1
102
RTVSPropertyOp5
 70
     1
102
RTVSPropertyOp6
 70
     1
102
RTVSPropertyOp7
 70
     1
102
RTVSPropertyOp8
 70
     1
102
RTVSPropertyOp9
 70
     1
102
RTVSPropertyOp10
 70
     1
102
RTVSPropertyOp11
 70
     1
102
RTVSPropertyOp12
 70
     1
102
RTVSPropertyOp13
 70
     1
102
RTVSPropertyOp14
 70
     1
102
RTVSPropertyOp15
 70
     1
102
RTVSPropertyOp16
 70
     1
102
RTVSPropertyOp17
 70
     1
102
RTVSPropertyOp18
 70
     1
102
RTVSPropertyOp19
 70
     1
102
RTVSPropertyOp20
 70
     1
102
RTVSPropertyOp21
 70
     1
102
RTVSPropertyOp22
 70
     1
102
RTVSPropertyOp23
 70
     1
102
RTVSPropertyOp24
 70
     1
102
RTVSPropertyOp25
 70
     1
102
RTVSPropertyOp26
 70
     1
102
RTVSPropertyOp27
 70
     1
102
RTVSPropertyOp28
 70
     1
102
RTVSPropertyOp29
 70
     1
102
RTVSPropertyOp30
 70
     1
102
RTVSPropertyOp31
 70
     1
102
RTVSPropertyOp32
 70
     1
  0
XRECORD
  5
1D2EBE
102
{ACAD_REACTORS
330
1D2EBD
102
}
330
1D2EBD
100
AcDbXrecord
280
     1
102
RTVSPropertyOp0
 70
     1
102
RTVSPropertyOp1
 70
     1
102
RTVSPropertyOp2
 70
     1
102
RTVSPropertyOp3
 70
     1
102
RTVSPropertyOp4
 70
     1
102
RTVSPropertyOp5
 70
     1
102
RTVSPropertyOp6
 70
     1
102
RTVSPropertyOp7
 70
     1
102
RTVSPropertyOp8
 70
     1
102
RTVSPropertyOp9
 70
     1
102
RTVSPropertyOp10
 70
     1
102
RTVSPropertyOp11
 70
     1
102
RTVSPropertyOp12
 70
     1
102
RTVSPropertyOp13
 70
     1
102
RTVSPropertyOp14
 70
     1
102
RTVSPropertyOp15
 70
     1
102
RTVSPropertyOp16
 70
     1
102
RTVSPropertyOp17
 70
     1
102
RTVSPropertyOp18
 70
     1
102
RTVSPropertyOp19
 70
     1
102
RTVSPropertyOp20
 70
     1
102
RTVSPropertyOp21
 70
     1
102
RTVSPropertyOp22
 70
     1
102
RTVSPropertyOp23
 70
     1
102
RTVSPropertyOp24
 70
     1
102
RTVSPropertyOp25
 70
     1
102
RTVSPropertyOp26
 70
     1
102
RTVSPropertyOp27
 70
     1
102
RTVSPropertyOp28
 70
     1
102
RTVSPropertyOp29
 70
     1
102
RTVSPropertyOp30
 70
     1
102
RTVSPropertyOp31
 70
     1
102
RTVSPropertyOp32
 70
     1
  0
XRECORD
  5
1D2EC6
102
{ACAD_REACTORS
330
1D2EC5
102
}
330
1D2EC5
100
AcDbXrecord
280
     1
102
RTVSPropertyOp0
 70
     1
102
RTVSPropertyOp1
 70
     1
102
RTVSPropertyOp2
 70
     1
102
RTVSPropertyOp3
 70
     1
102
RTVSPropertyOp4
 70
     1
102
RTVSPropertyOp5
 70
     1
102
RTVSPropertyOp6
 70
     1
102
RTVSPropertyOp7
 70
     1
102
RTVSPropertyOp8
 70
     1
102
RTVSPropertyOp9
 70
     1
102
RTVSPropertyOp10
 70
     1
102
RTVSPropertyOp11
 70
     1
102
RTVSPropertyOp12
 70
     1
102
RTVSPropertyOp13
 70
     1
102
RTVSPropertyOp14
 70
     1
102
RTVSPropertyOp15
 70
     1
102
RTVSPropertyOp16
 70
     1
102
RTVSPropertyOp17
 70
     1
102
RTVSPropertyOp18
 70
     1
102
RTVSPropertyOp19
 70
     1
102
RTVSPropertyOp20
 70
     1
102
RTVSPropertyOp21
 70
     1
102
RTVSPropertyOp22
 70
     1
102
RTVSPropertyOp23
 70
     1
102
RTVSPropertyOp24
 70
     1
102
RTVSPropertyOp25
 70
     1
102
RTVSPropertyOp26
 70
     1
102
RTVSPropertyOp27
 70
     1
102
RTVSPropertyOp28
 70
     1
102
RTVSPropertyOp29
 70
     1
102
RTVSPropertyOp30
 70
     1
102
RTVSPropertyOp31
 70
     1
102
RTVSPropertyOp32
 70
     1
  0
XRECORD
  5
1D2EB8
102
{ACAD_REACTORS
330
1D2EB7
102
}
330
1D2EB7
100
AcDbXrecord
280
     1
102
RTVSPropertyOp0
 70
     1
102
RTVSPropertyOp1
 70
     1
102
RTVSPropertyOp2
 70
     1
102
RTVSPropertyOp3
 70
     1
102
RTVSPropertyOp4
 70
     1
102
RTVSPropertyOp5
 70
     1
102
RTVSPropertyOp6
 70
     1
102
RTVSPropertyOp7
 70
     1
102
RTVSPropertyOp8
 70
     1
102
RTVSPropertyOp9
 70
     1
102
RTVSPropertyOp10
 70
     1
102
RTVSPropertyOp11
 70
     1
102
RTVSPropertyOp12
 70
     1
102
RTVSPropertyOp13
 70
     1
102
RTVSPropertyOp14
 70
     1
102
RTVSPropertyOp15
 70
     1
102
RTVSPropertyOp16
 70
     1
102
RTVSPropertyOp17
 70
     1
102
RTVSPropertyOp18
 70
     1
102
RTVSPropertyOp19
 70
     1
102
RTVSPropertyOp20
 70
     1
102
RTVSPropertyOp21
 70
     1
102
RTVSPropertyOp22
 70
     1
102
RTVSPropertyOp23
 70
     1
102
RTVSPropertyOp24
 70
     1
102
RTVSPropertyOp25
 70
     1
102
RTVSPropertyOp26
 70
     1
102
RTVSPropertyOp27
 70
     1
102
RTVSPropertyOp28
 70
     1
102
RTVSPropertyOp29
 70
     1
102
RTVSPropertyOp30
 70
     1
102
RTVSPropertyOp31
 70
     1
102
RTVSPropertyOp32
 70
     1
  0
XRECORD
  5
1D2EBC
102
{ACAD_REACTORS
330
1D2EBB
102
}
330
1D2EBB
100
AcDbXrecord
280
     1
102
RTVSPropertyOp0
 70
     1
102
RTVSPropertyOp1
 70
     1
102
RTVSPropertyOp2
 70
     1
102
RTVSPropertyOp3
 70
     1
102
RTVSPropertyOp4
 70
     1
102
RTVSPropertyOp5
 70
     1
102
RTVSPropertyOp6
 70
     1
102
RTVSPropertyOp7
 70
     1
102
RTVSPropertyOp8
 70
     1
102
RTVSPropertyOp9
 70
     1
102
RTVSPropertyOp10
 70
     1
102
RTVSPropertyOp11
 70
     1
102
RTVSPropertyOp12
 70
     1
102
RTVSPropertyOp13
 70
     1
102
RTVSPropertyOp14
 70
     1
102
RTVSPropertyOp15
 70
     1
102
RTVSPropertyOp16
 70
     1
102
RTVSPropertyOp17
 70
     1
102
RTVSPropertyOp18
 70
     1
102
RTVSPropertyOp19
 70
     1
102
RTVSPropertyOp20
 70
     1
102
RTVSPropertyOp21
 70
     1
102
RTVSPropertyOp22
 70
     1
102
RTVSPropertyOp23
 70
     1
102
RTVSPropertyOp24
 70
     1
102
RTVSPropertyOp25
 70
     1
102
RTVSPropertyOp26
 70
     1
102
RTVSPropertyOp27
 70
     1
102
RTVSPropertyOp28
 70
     1
102
RTVSPropertyOp29
 70
     1
102
RTVSPropertyOp30
 70
     1
102
RTVSPropertyOp31
 70
     1
102
RTVSPropertyOp32
 70
     1
  0
XRECORD
  5
1D2ED6
102
{ACAD_REACTORS
330
1D2ED5
102
}
330
1D2ED5
100
AcDbXrecord
280
     1
102
RTVSPropertyOp0
 70
     0
102
RTVSPropertyOp1
 70
     0
102
RTVSPropertyOp2
 70
     0
102
RTVSPropertyOp3
 70
     0
102
RTVSPropertyOp4
 70
     0
102
RTVSPropertyOp5
 70
     0
102
RTVSPropertyOp6
 70
     0
102
RTVSPropertyOp7
 70
     0
102
RTVSPropertyOp8
 70
     0
102
RTVSPropertyOp9
 70
     0
102
RTVSPropertyOp10
 70
     0
102
RTVSPropertyOp11
 70
     0
102
RTVSPropertyOp12
 70
     0
102
RTVSPropertyOp13
 70
     0
102
RTVSPropertyOp14
 70
     2
102
RTVSPropertyOp15
 70
     0
102
RTVSPropertyOp16
 70
     0
102
RTVSPropertyOp17
 70
     0
102
RTVSPropertyOp18
 70
     0
102
RTVSPropertyOp19
 70
     0
102
RTVSPropertyOp20
 70
     0
102
RTVSPropertyOp21
 70
     0
102
RTVSPropertyOp22
 70
     0
102
RTVSPropertyOp23
 70
     0
102
RTVSPropertyOp24
 70
     0
102
RTVSPropertyOp25
 70
     0
102
RTVSPropertyOp26
 70
     0
102
RTVSPropertyOp27
 70
     0
102
RTVSPropertyOp28
 70
     1
102
RTVSPropertyOp29
 70
     1
102
RTVSPropertyOp30
 70
     1
102
RTVSPropertyOp31
 70
     1
102
RTVSPropertyOp32
 70
     1
  0
XRECORD
  5
1D2EC4
102
{ACAD_REACTORS
330
1D2EC3
102
}
330
1D2EC3
100
AcDbXrecord
280
     1
102
RTVSPropertyOp0
 70
     1
102
RTVSPropertyOp1
 70
     1
102
RTVSPropertyOp2
 70
     1
102
RTVSPropertyOp3
 70
     1
102
RTVSPropertyOp4
 70
     1
102
RTVSPropertyOp5
 70
     1
102
RTVSPropertyOp6
 70
     1
102
RTVSPropertyOp7
 70
     1
102
RTVSPropertyOp8
 70
     1
102
RTVSPropertyOp9
 70
     1
102
RTVSPropertyOp10
 70
     1
102
RTVSPropertyOp11
 70
     1
102
RTVSPropertyOp12
 70
     1
102
RTVSPropertyOp13
 70
     1
102
RTVSPropertyOp14
 70
     1
102
RTVSPropertyOp15
 70
     1
102
RTVSPropertyOp16
 70
     1
102
RTVSPropertyOp17
 70
     1
102
RTVSPropertyOp18
 70
     1
102
RTVSPropertyOp19
 70
     1
102
RTVSPropertyOp20
 70
     1
102
RTVSPropertyOp21
 70
     1
102
RTVSPropertyOp22
 70
     1
102
RTVSPropertyOp23
 70
     1
102
RTVSPropertyOp24
 70
     1
102
RTVSPropertyOp25
 70
     1
102
RTVSPropertyOp26
 70
     1
102
RTVSPropertyOp27
 70
     1
102
RTVSPropertyOp28
 70
     1
102
RTVSPropertyOp29
 70
     1
102
RTVSPropertyOp30
 70
     1
102
RTVSPropertyOp31
 70
     1
102
RTVSPropertyOp32
 70
     1
  0
XRECORD
  5
1D2EA8
102
{ACAD_REACTORS
330
1D2EA7
102
}
330
1D2EA7
100
AcDbXrecord
280
     1
102
RTVSPropertyOp0
 70
     1
102
RTVSPropertyOp1
 70
     1
102
RTVSPropertyOp2
 70
     1
102
RTVSPropertyOp3
 70
     1
102
RTVSPropertyOp4
 70
     1
102
RTVSPropertyOp5
 70
     1
102
RTVSPropertyOp6
 70
     1
102
RTVSPropertyOp7
 70
     1
102
RTVSPropertyOp8
 70
     1
102
RTVSPropertyOp9
 70
     1
102
RTVSPropertyOp10
 70
     1
102
RTVSPropertyOp11
 70
     1
102
RTVSPropertyOp12
 70
     1
102
RTVSPropertyOp13
 70
     1
102
RTVSPropertyOp14
 70
     1
102
RTVSPropertyOp15
 70
     1
102
RTVSPropertyOp16
 70
     1
102
RTVSPropertyOp17
 70
     1
102
RTVSPropertyOp18
 70
     1
102
RTVSPropertyOp19
 70
     1
102
RTVSPropertyOp20
 70
     1
102
RTVSPropertyOp21
 70
     1
102
RTVSPropertyOp22
 70
     1
102
RTVSPropertyOp23
 70
     1
102
RTVSPropertyOp24
 70
     1
102
RTVSPropertyOp25
 70
     1
102
RTVSPropertyOp26
 70
     1
102
RTVSPropertyOp27
 70
     1
102
RTVSPropertyOp28
 70
     1
102
RTVSPropertyOp29
 70
     1
102
RTVSPropertyOp30
 70
     1
102
RTVSPropertyOp31
 70
     1
102
RTVSPropertyOp32
 70
     1
  0
XRECORD
  5
1D2EAA
102
{ACAD_REACTORS
330
1D2EA9
102
}
330
1D2EA9
100
AcDbXrecord
280
     1
102
RTVSPropertyOp0
 70
     1
102
RTVSPropertyOp1
 70
     1
102
RTVSPropertyOp2
 70
     1
102
RTVSPropertyOp3
 70
     1
102
RTVSPropertyOp4
 70
     1
102
RTVSPropertyOp5
 70
     1
102
RTVSPropertyOp6
 70
     1
102
RTVSPropertyOp7
 70
     1
102
RTVSPropertyOp8
 70
     1
102
RTVSPropertyOp9
 70
     1
102
RTVSPropertyOp10
 70
     1
102
RTVSPropertyOp11
 70
     1
102
RTVSPropertyOp12
 70
     1
102
RTVSPropertyOp13
 70
     1
102
RTVSPropertyOp14
 70
     1
102
RTVSPropertyOp15
 70
     1
102
RTVSPropertyOp16
 70
     1
102
RTVSPropertyOp17
 70
     1
102
RTVSPropertyOp18
 70
     1
102
RTVSPropertyOp19
 70
     1
102
RTVSPropertyOp20
 70
     1
102
RTVSPropertyOp21
 70
     1
102
RTVSPropertyOp22
 70
     1
102
RTVSPropertyOp23
 70
     1
102
RTVSPropertyOp24
 70
     1
102
RTVSPropertyOp25
 70
     1
102
RTVSPropertyOp26
 70
     1
102
RTVSPropertyOp27
 70
     1
102
RTVSPropertyOp28
 70
     1
102
RTVSPropertyOp29
 70
     1
102
RTVSPropertyOp30
 70
     1
102
RTVSPropertyOp31
 70
     1
102
RTVSPropertyOp32
 70
     1
  0
XRECORD
  5
1D2EAC
102
{ACAD_REACTORS
330
1D2EAB
102
}
330
1D2EAB
100
AcDbXrecord
280
     1
102
RTVSPropertyOp0
 70
     1
102
RTVSPropertyOp1
 70
     1
102
RTVSPropertyOp2
 70
     1
102
RTVSPropertyOp3
 70
     1
102
RTVSPropertyOp4
 70
     1
102
RTVSPropertyOp5
 70
     1
102
RTVSPropertyOp6
 70
     1
102
RTVSPropertyOp7
 70
     1
102
RTVSPropertyOp8
 70
     1
102
RTVSPropertyOp9
 70
     1
102
RTVSPropertyOp10
 70
     1
102
RTVSPropertyOp11
 70
     1
102
RTVSPropertyOp12
 70
     1
102
RTVSPropertyOp13
 70
     1
102
RTVSPropertyOp14
 70
     1
102
RTVSPropertyOp15
 70
     1
102
RTVSPropertyOp16
 70
     1
102
RTVSPropertyOp17
 70
     1
102
RTVSPropertyOp18
 70
     1
102
RTVSPropertyOp19
 70
     1
102
RTVSPropertyOp20
 70
     1
102
RTVSPropertyOp21
 70
     1
102
RTVSPropertyOp22
 70
     1
102
RTVSPropertyOp23
 70
     1
102
RTVSPropertyOp24
 70
     1
102
RTVSPropertyOp25
 70
     1
102
RTVSPropertyOp26
 70
     1
102
RTVSPropertyOp27
 70
     1
102
RTVSPropertyOp28
 70
     1
102
RTVSPropertyOp29
 70
     1
102
RTVSPropertyOp30
 70
     1
102
RTVSPropertyOp31
 70
     1
102
RTVSPropertyOp32
 70
     1
  0
XRECORD
  5
1D2EAE
102
{ACAD_REACTORS
330
1D2EAD
102
}
330
1D2EAD
100
AcDbXrecord
280
     1
102
RTVSPropertyOp0
 70
     1
102
RTVSPropertyOp1
 70
     1
102
RTVSPropertyOp2
 70
     1
102
RTVSPropertyOp3
 70
     1
102
RTVSPropertyOp4
 70
     1
102
RTVSPropertyOp5
 70
     1
102
RTVSPropertyOp6
 70
     1
102
RTVSPropertyOp7
 70
     1
102
RTVSPropertyOp8
 70
     1
102
RTVSPropertyOp9
 70
     1
102
RTVSPropertyOp10
 70
     1
102
RTVSPropertyOp11
 70
     1
102
RTVSPropertyOp12
 70
     1
102
RTVSPropertyOp13
 70
     1
102
RTVSPropertyOp14
 70
     1
102
RTVSPropertyOp15
 70
     1
102
RTVSPropertyOp16
 70
     1
102
RTVSPropertyOp17
 70
     1
102
RTVSPropertyOp18
 70
     1
102
RTVSPropertyOp19
 70
     1
102
RTVSPropertyOp20
 70
     1
102
RTVSPropertyOp21
 70
     1
102
RTVSPropertyOp22
 70
     1
102
RTVSPropertyOp23
 70
     1
102
RTVSPropertyOp24
 70
     1
102
RTVSPropertyOp25
 70
     1
102
RTVSPropertyOp26
 70
     1
102
RTVSPropertyOp27
 70
     1
102
RTVSPropertyOp28
 70
     1
102
RTVSPropertyOp29
 70
     1
102
RTVSPropertyOp30
 70
     1
102
RTVSPropertyOp31
 70
     1
102
RTVSPropertyOp32
 70
     1
  0
XRECORD
  5
1D2EB6
102
{ACAD_REACTORS
330
1D2EB5
102
}
330
1D2EB5
100
AcDbXrecord
280
     1
102
RTVSPropertyOp0
 70
     1
102
RTVSPropertyOp1
 70
     1
102
RTVSPropertyOp2
 70
     1
102
RTVSPropertyOp3
 70
     1
102
RTVSPropertyOp4
 70
     1
102
RTVSPropertyOp5
 70
     1
102
RTVSPropertyOp6
 70
     1
102
RTVSPropertyOp7
 70
     1
102
RTVSPropertyOp8
 70
     1
102
RTVSPropertyOp9
 70
     1
102
RTVSPropertyOp10
 70
     1
102
RTVSPropertyOp11
 70
     1
102
RTVSPropertyOp12
 70
     1
102
RTVSPropertyOp13
 70
     1
102
RTVSPropertyOp14
 70
     1
102
RTVSPropertyOp15
 70
     1
102
RTVSPropertyOp16
 70
     1
102
RTVSPropertyOp17
 70
     1
102
RTVSPropertyOp18
 70
     1
102
RTVSPropertyOp19
 70
     1
102
RTVSPropertyOp20
 70
     1
102
RTVSPropertyOp21
 70
     1
102
RTVSPropertyOp22
 70
     1
102
RTVSPropertyOp23
 70
     1
102
RTVSPropertyOp24
 70
     1
102
RTVSPropertyOp25
 70
     1
102
RTVSPropertyOp26
 70
     1
102
RTVSPropertyOp27
 70
     1
102
RTVSPropertyOp28
 70
     1
102
RTVSPropertyOp29
 70
     1
102
RTVSPropertyOp30
 70
     1
102
RTVSPropertyOp31
 70
     1
102
RTVSPropertyOp32
 70
     1
  0
XRECORD
  5
1D2ED2
102
{ACAD_REACTORS
330
1D2ED1
102
}
330
1D2ED1
100
AcDbXrecord
280
     1
102
RTVSPropertyOp0
 70
     0
102
RTVSPropertyOp1
 70
     0
102
RTVSPropertyOp2
 70
     0
102
RTVSPropertyOp3
 70
     0
102
RTVSPropertyOp4
 70
     0
102
RTVSPropertyOp5
 70
     0
102
RTVSPropertyOp6
 70
     0
102
RTVSPropertyOp7
 70
     0
102
RTVSPropertyOp8
 70
     0
102
RTVSPropertyOp9
 70
     0
102
RTVSPropertyOp10
 70
     0
102
RTVSPropertyOp11
 70
     0
102
RTVSPropertyOp12
 70
     0
102
RTVSPropertyOp13
 70
     0
102
RTVSPropertyOp14
 70
     2
102
RTVSPropertyOp15
 70
     0
102
RTVSPropertyOp16
 70
     0
102
RTVSPropertyOp17
 70
     0
102
RTVSPropertyOp18
 70
     0
102
RTVSPropertyOp19
 70
     0
102
RTVSPropertyOp20
 70
     0
102
RTVSPropertyOp21
 70
     0
102
RTVSPropertyOp22
 70
     0
102
RTVSPropertyOp23
 70
     0
102
RTVSPropertyOp24
 70
     0
102
RTVSPropertyOp25
 70
     0
102
RTVSPropertyOp26
 70
     0
102
RTVSPropertyOp27
 70
     0
102
RTVSPropertyOp28
 70
     1
102
RTVSPropertyOp29
 70
     1
102
RTVSPropertyOp30
 70
     1
102
RTVSPropertyOp31
 70
     1
102
RTVSPropertyOp32
 70
     1
  0
XRECORD
  5
1D2EC2
102
{ACAD_REACTORS
330
1D2EC1
102
}
330
1D2EC1
100
AcDbXrecord
280
     1
102
RTVSPropertyOp0
 70
     1
102
RTVSPropertyOp1
 70
     1
102
RTVSPropertyOp2
 70
     1
102
RTVSPropertyOp3
 70
     1
102
RTVSPropertyOp4
 70
     1
102
RTVSPropertyOp5
 70
     1
102
RTVSPropertyOp6
 70
     1
102
RTVSPropertyOp7
 70
     1
102
RTVSPropertyOp8
 70
     1
102
RTVSPropertyOp9
 70
     1
102
RTVSPropertyOp10
 70
     1
102
RTVSPropertyOp11
 70
     1
102
RTVSPropertyOp12
 70
     1
102
RTVSPropertyOp13
 70
     1
102
RTVSPropertyOp14
 70
     1
102
RTVSPropertyOp15
 70
     1
102
RTVSPropertyOp16
 70
     1
102
RTVSPropertyOp17
 70
     1
102
RTVSPropertyOp18
 70
     1
102
RTVSPropertyOp19
 70
     1
102
RTVSPropertyOp20
 70
     1
102
RTVSPropertyOp21
 70
     1
102
RTVSPropertyOp22
 70
     1
102
RTVSPropertyOp23
 70
     1
102
RTVSPropertyOp24
 70
     1
102
RTVSPropertyOp25
 70
     1
102
RTVSPropertyOp26
 70
     1
102
RTVSPropertyOp27
 70
     1
102
RTVSPropertyOp28
 70
     1
102
RTVSPropertyOp29
 70
     1
102
RTVSPropertyOp30
 70
     1
102
RTVSPropertyOp31
 70
     1
102
RTVSPropertyOp32
 70
     1
  0
XRECORD
  5
1D2ED4
102
{ACAD_REACTORS
330
1D2ED3
102
}
330
1D2ED3
100
AcDbXrecord
280
     1
102
RTVSPropertyOp0
 70
     0
102
RTVSPropertyOp1
 70
     0
102
RTVSPropertyOp2
 70
     0
102
RTVSPropertyOp3
 70
     0
102
RTVSPropertyOp4
 70
     0
102
RTVSPropertyOp5
 70
     0
102
RTVSPropertyOp6
 70
     0
102
RTVSPropertyOp7
 70
     0
102
RTVSPropertyOp8
 70
     0
102
RTVSPropertyOp9
 70
     0
102
RTVSPropertyOp10
 70
     0
102
RTVSPropertyOp11
 70
     0
102
RTVSPropertyOp12
 70
     0
102
RTVSPropertyOp13
 70
     0
102
RTVSPropertyOp14
 70
     2
102
RTVSPropertyOp15
 70
     0
102
RTVSPropertyOp16
 70
     0
102
RTVSPropertyOp17
 70
     0
102
RTVSPropertyOp18
 70
     0
102
RTVSPropertyOp19
 70
     0
102
RTVSPropertyOp20
 70
     0
102
RTVSPropertyOp21
 70
     0
102
RTVSPropertyOp22
 70
     0
102
RTVSPropertyOp23
 70
     0
102
RTVSPropertyOp24
 70
     0
102
RTVSPropertyOp25
 70
     0
102
RTVSPropertyOp26
 70
     0
102
RTVSPropertyOp27
 70
     0
102
RTVSPropertyOp28
 70
     1
102
RTVSPropertyOp29
 70
     1
102
RTVSPropertyOp30
 70
     1
102
RTVSPropertyOp31
 70
     1
102
RTVSPropertyOp32
 70
     1
  0
XRECORD
  5
1D2EBA
102
{ACAD_REACTORS
330
1D2EB9
102
}
330
1D2EB9
100
AcDbXrecord
280
     1
102
RTVSPropertyOp0
 70
     1
102
RTVSPropertyOp1
 70
     1
102
RTVSPropertyOp2
 70
     1
102
RTVSPropertyOp3
 70
     1
102
RTVSPropertyOp4
 70
     1
102
RTVSPropertyOp5
 70
     1
102
RTVSPropertyOp6
 70
     1
102
RTVSPropertyOp7
 70
     1
102
RTVSPropertyOp8
 70
     1
102
RTVSPropertyOp9
 70
     1
102
RTVSPropertyOp10
 70
     1
102
RTVSPropertyOp11
 70
     1
102
RTVSPropertyOp12
 70
     1
102
RTVSPropertyOp13
 70
     1
102
RTVSPropertyOp14
 70
     1
102
RTVSPropertyOp15
 70
     1
102
RTVSPropertyOp16
 70
     1
102
RTVSPropertyOp17
 70
     1
102
RTVSPropertyOp18
 70
     1
102
RTVSPropertyOp19
 70
     1
102
RTVSPropertyOp20
 70
     1
102
RTVSPropertyOp21
 70
     1
102
RTVSPropertyOp22
 70
     1
102
RTVSPropertyOp23
 70
     1
102
RTVSPropertyOp24
 70
     1
102
RTVSPropertyOp25
 70
     1
102
RTVSPropertyOp26
 70
     1
102
RTVSPropertyOp27
 70
     1
102
RTVSPropertyOp28
 70
     1
102
RTVSPropertyOp29
 70
     1
102
RTVSPropertyOp30
 70
     1
102
RTVSPropertyOp31
 70
     1
102
RTVSPropertyOp32
 70
     1
  0
XRECORD
  5
1D2ED0
102
{ACAD_REACTORS
330
1D2ECF
102
}
330
1D2ECF
100
AcDbXrecord
280
     1
102
RTVSPropertyOp0
 70
     1
102
RTVSPropertyOp1
 70
     1
102
RTVSPropertyOp2
 70
     1
102
RTVSPropertyOp3
 70
     1
102
RTVSPropertyOp4
 70
     1
102
RTVSPropertyOp5
 70
     1
102
RTVSPropertyOp6
 70
     1
102
RTVSPropertyOp7
 70
     1
102
RTVSPropertyOp8
 70
     1
102
RTVSPropertyOp9
 70
     1
102
RTVSPropertyOp10
 70
     1
102
RTVSPropertyOp11
 70
     1
102
RTVSPropertyOp12
 70
     1
102
RTVSPropertyOp13
 70
     1
102
RTVSPropertyOp14
 70
     1
102
RTVSPropertyOp15
 70
     1
102
RTVSPropertyOp16
 70
     1
102
RTVSPropertyOp17
 70
     1
102
RTVSPropertyOp18
 70
     1
102
RTVSPropertyOp19
 70
     1
102
RTVSPropertyOp20
 70
     1
102
RTVSPropertyOp21
 70
     1
102
RTVSPropertyOp22
 70
     1
102
RTVSPropertyOp23
 70
     1
102
RTVSPropertyOp24
 70
     1
102
RTVSPropertyOp25
 70
     1
102
RTVSPropertyOp26
 70
     1
102
RTVSPropertyOp27
 70
     1
102
RTVSPropertyOp28
 70
     1
102
RTVSPropertyOp29
 70
     1
102
RTVSPropertyOp30
 70
     1
102
RTVSPropertyOp31
 70
     1
102
RTVSPropertyOp32
 70
     1
  0
XRECORD
  5
1D2ECE
102
{ACAD_REACTORS
330
1D2ECD
102
}
330
1D2ECD
100
AcDbXrecord
280
     1
102
RTVSPropertyOp0
 70
     1
102
RTVSPropertyOp1
 70
     1
102
RTVSPropertyOp2
 70
     1
102
RTVSPropertyOp3
 70
     1
102
RTVSPropertyOp4
 70
     1
102
RTVSPropertyOp5
 70
     1
102
RTVSPropertyOp6
 70
     1
102
RTVSPropertyOp7
 70
     1
102
RTVSPropertyOp8
 70
     1
102
RTVSPropertyOp9
 70
     1
102
RTVSPropertyOp10
 70
     1
102
RTVSPropertyOp11
 70
     1
102
RTVSPropertyOp12
 70
     1
102
RTVSPropertyOp13
 70
     1
102
RTVSPropertyOp14
 70
     1
102
RTVSPropertyOp15
 70
     1
102
RTVSPropertyOp16
 70
     1
102
RTVSPropertyOp17
 70
     1
102
RTVSPropertyOp18
 70
     1
102
RTVSPropertyOp19
 70
     1
102
RTVSPropertyOp20
 70
     1
102
RTVSPropertyOp21
 70
     1
102
RTVSPropertyOp22
 70
     1
102
RTVSPropertyOp23
 70
     1
102
RTVSPropertyOp24
 70
     1
102
RTVSPropertyOp25
 70
     1
102
RTVSPropertyOp26
 70
     1
102
RTVSPropertyOp27
 70
     1
102
RTVSPropertyOp28
 70
     1
102
RTVSPropertyOp29
 70
     1
102
RTVSPropertyOp30
 70
     1
102
RTVSPropertyOp31
 70
     1
102
RTVSPropertyOp32
 70
     1
  0
XRECORD
  5
1D2EC8
102
{ACAD_REACTORS
330
1D2EC7
102
}
330
1D2EC7
100
AcDbXrecord
280
     1
102
RTVSPropertyOp0
 70
     1
102
RTVSPropertyOp1
 70
     1
102
RTVSPropertyOp2
 70
     1
102
RTVSPropertyOp3
 70
     1
102
RTVSPropertyOp4
 70
     1
102
RTVSPropertyOp5
 70
     1
102
RTVSPropertyOp6
 70
     1
102
RTVSPropertyOp7
 70
     1
102
RTVSPropertyOp8
 70
     1
102
RTVSPropertyOp9
 70
     1
102
RTVSPropertyOp10
 70
     1
102
RTVSPropertyOp11
 70
     1
102
RTVSPropertyOp12
 70
     1
102
RTVSPropertyOp13
 70
     1
102
RTVSPropertyOp14
 70
     1
102
RTVSPropertyOp15
 70
     1
102
RTVSPropertyOp16
 70
     1
102
RTVSPropertyOp17
 70
     1
102
RTVSPropertyOp18
 70
     1
102
RTVSPropertyOp19
 70
     1
102
RTVSPropertyOp20
 70
     1
102
RTVSPropertyOp21
 70
     1
102
RTVSPropertyOp22
 70
     1
102
RTVSPropertyOp23
 70
     1
102
RTVSPropertyOp24
 70
     1
102
RTVSPropertyOp25
 70
     1
102
RTVSPropertyOp26
 70
     1
102
RTVSPropertyOp27
 70
     1
102
RTVSPropertyOp28
 70
     1
102
RTVSPropertyOp29
 70
     1
102
RTVSPropertyOp30
 70
     1
102
RTVSPropertyOp31
 70
     1
102
RTVSPropertyOp32
 70
     1
  0
XRECORD
  5
1D2ECA
102
{ACAD_REACTORS
330
1D2EC9
102
}
330
1D2EC9
100
AcDbXrecord
280
     1
102
RTVSPropertyOp0
 70
     1
102
RTVSPropertyOp1
 70
     1
102
RTVSPropertyOp2
 70
     1
102
RTVSPropertyOp3
 70
     1
102
RTVSPropertyOp4
 70
     1
102
RTVSPropertyOp5
 70
     1
102
RTVSPropertyOp6
 70
     1
102
RTVSPropertyOp7
 70
     1
102
RTVSPropertyOp8
 70
     1
102
RTVSPropertyOp9
 70
     1
102
RTVSPropertyOp10
 70
     1
102
RTVSPropertyOp11
 70
     1
102
RTVSPropertyOp12
 70
     1
102
RTVSPropertyOp13
 70
     1
102
RTVSPropertyOp14
 70
     1
102
RTVSPropertyOp15
 70
     1
102
RTVSPropertyOp16
 70
     1
102
RTVSPropertyOp17
 70
     1
102
RTVSPropertyOp18
 70
     1
102
RTVSPropertyOp19
 70
     1
102
RTVSPropertyOp20
 70
     1
102
RTVSPropertyOp21
 70
     1
102
RTVSPropertyOp22
 70
     1
102
RTVSPropertyOp23
 70
     1
102
RTVSPropertyOp24
 70
     1
102
RTVSPropertyOp25
 70
     1
102
RTVSPropertyOp26
 70
     1
102
RTVSPropertyOp27
 70
     1
102
RTVSPropertyOp28
 70
     1
102
RTVSPropertyOp29
 70
     1
102
RTVSPropertyOp30
 70
     1
102
RTVSPropertyOp31
 70
     1
102
RTVSPropertyOp32
 70
     1
  0
XRECORD
  5
1D2EC0
102
{ACAD_REACTORS
330
1D2EBF
102
}
330
1D2EBF
100
AcDbXrecord
280
     1
102
RTVSPropertyOp0
 70
     1
102
RTVSPropertyOp1
 70
     1
102
RTVSPropertyOp2
 70
     1
102
RTVSPropertyOp3
 70
     1
102
RTVSPropertyOp4
 70
     1
102
RTVSPropertyOp5
 70
     1
102
RTVSPropertyOp6
 70
     1
102
RTVSPropertyOp7
 70
     1
102
RTVSPropertyOp8
 70
     1
102
RTVSPropertyOp9
 70
     1
102
RTVSPropertyOp10
 70
     1
102
RTVSPropertyOp11
 70
     1
102
RTVSPropertyOp12
 70
     1
102
RTVSPropertyOp13
 70
     1
102
RTVSPropertyOp14
 70
     1
102
RTVSPropertyOp15
 70
     1
102
RTVSPropertyOp16
 70
     1
102
RTVSPropertyOp17
 70
     1
102
RTVSPropertyOp18
 70
     1
102
RTVSPropertyOp19
 70
     1
102
RTVSPropertyOp20
 70
     1
102
RTVSPropertyOp21
 70
     1
102
RTVSPropertyOp22
 70
     1
102
RTVSPropertyOp23
 70
     1
102
RTVSPropertyOp24
 70
     1
102
RTVSPropertyOp25
 70
     1
102
RTVSPropertyOp26
 70
     1
102
RTVSPropertyOp27
 70
     1
102
RTVSPropertyOp28
 70
     1
102
RTVSPropertyOp29
 70
     1
102
RTVSPropertyOp30
 70
     1
102
RTVSPropertyOp31
 70
     1
102
RTVSPropertyOp32
 70
     1
  0
XRECORD
  5
1D2EB4
102
{ACAD_REACTORS
330
1D2EB3
102
}
330
1D2EB3
100
AcDbXrecord
280
     1
102
RTVSPropertyOp0
 70
     1
102
RTVSPropertyOp1
 70
     1
102
RTVSPropertyOp2
 70
     1
102
RTVSPropertyOp3
 70
     1
102
RTVSPropertyOp4
 70
     1
102
RTVSPropertyOp5
 70
     1
102
RTVSPropertyOp6
 70
     1
102
RTVSPropertyOp7
 70
     1
102
RTVSPropertyOp8
 70
     1
102
RTVSPropertyOp9
 70
     1
102
RTVSPropertyOp10
 70
     1
102
RTVSPropertyOp11
 70
     1
102
RTVSPropertyOp12
 70
     1
102
RTVSPropertyOp13
 70
     1
102
RTVSPropertyOp14
 70
     1
102
RTVSPropertyOp15
 70
     1
102
RTVSPropertyOp16
 70
     1
102
RTVSPropertyOp17
 70
     1
102
RTVSPropertyOp18
 70
     1
102
RTVSPropertyOp19
 70
     1
102
RTVSPropertyOp20
 70
     1
102
RTVSPropertyOp21
 70
     1
102
RTVSPropertyOp22
 70
     1
102
RTVSPropertyOp23
 70
     1
102
RTVSPropertyOp24
 70
     1
102
RTVSPropertyOp25
 70
     1
102
RTVSPropertyOp26
 70
     1
102
RTVSPropertyOp27
 70
     1
102
RTVSPropertyOp28
 70
     1
102
RTVSPropertyOp29
 70
     1
102
RTVSPropertyOp30
 70
     1
102
RTVSPropertyOp31
 70
     1
102
RTVSPropertyOp32
 70
     1
  0
XRECORD
  5
1D2ECC
102
{ACAD_REACTORS
330
1D2ECB
102
}
330
1D2ECB
100
AcDbXrecord
280
     1
102
RTVSPropertyOp0
 70
     1
102
RTVSPropertyOp1
 70
     1
102
RTVSPropertyOp2
 70
     1
102
RTVSPropertyOp3
 70
     1
102
RTVSPropertyOp4
 70
     1
102
RTVSPropertyOp5
 70
     1
102
RTVSPropertyOp6
 70
     1
102
RTVSPropertyOp7
 70
     1
102
RTVSPropertyOp8
 70
     1
102
RTVSPropertyOp9
 70
     1
102
RTVSPropertyOp10
 70
     1
102
RTVSPropertyOp11
 70
     1
102
RTVSPropertyOp12
 70
     1
102
RTVSPropertyOp13
 70
     1
102
RTVSPropertyOp14
 70
     1
102
RTVSPropertyOp15
 70
     1
102
RTVSPropertyOp16
 70
     1
102
RTVSPropertyOp17
 70
     1
102
RTVSPropertyOp18
 70
     1
102
RTVSPropertyOp19
 70
     1
102
RTVSPropertyOp20
 70
     1
102
RTVSPropertyOp21
 70
     1
102
RTVSPropertyOp22
 70
     1
102
RTVSPropertyOp23
 70
     1
102
RTVSPropertyOp24
 70
     1
102
RTVSPropertyOp25
 70
     1
102
RTVSPropertyOp26
 70
     1
102
RTVSPropertyOp27
 70
     1
102
RTVSPropertyOp28
 70
     1
102
RTVSPropertyOp29
 70
     1
102
RTVSPropertyOp30
 70
     1
102
RTVSPropertyOp31
 70
     1
102
RTVSPropertyOp32
 70
     1
  0
ENDSEC
  0
EOF
