  0
SECTION
  2
HEADER
  9
$ACADVER
  1
AC1015
  9
$ACADMAINTVER
 70
    20
  9
$DWGCODEPAGE
  3
ANSI_1250
  9
$INSBASE
 10
0.0
 20
0.0
 30
0.0
  9
$EXTMIN
 10
33312.94663179733
 20
-3735.434633181901
 30
0.0
  9
$EXTMAX
 10
38847.94663179733
 20
1274.565366818071
 30
0.0
  9
$LIMMIN
 10
0.0
 20
0.0
  9
$LIMMAX
 10
420.0
 20
297.0
  9
$ORTHOMODE
 70
     1
  9
$REGENMODE
 70
     1
  9
$FILLMODE
 70
     1
  9
$QTEXTMODE
 70
     0
  9
$MIRRTEXT
 70
     0
  9
$LTSCALE
 40
1.0
  9
$ATTMODE
 70
     1
  9
$TEXTSIZE
 40
0.2
  9
$TRACEWID
 40
0.05
  9
$TEXTSTYLE
  7
Standard
  9
$CLAYER
  8
0
  9
$CELTYPE
  6
ByLayer
  9
$CECOLOR
 62
   256
  9
$CELTSCALE
 40
1.0
  9
$DISPSILH
 70
     0
  9
$DIMSCALE
 40
1.0
  9
$DIMASZ
 40
1.799999999999999
  9
$DIMEXO
 40
0.0625
  9
$DIMDLI
 40
0.38
  9
$DIMRND
 40
0.0
  9
$DIMDLE
 40
0.0
  9
$DIMEXE
 40
0.18
  9
$DIMTP
 40
0.0
  9
$DIMTM
 40
0.0
  9
$DIMTXT
 40
0.3499999940395355
  9
$DIMCEN
 40
0.09
  9
$DIMTSZ
 40
0.0
  9
$DIMTOL
 70
     0
  9
$DIMLIM
 70
     0
  9
$DIMTIH
 70
     1
  9
$DIMTOH
 70
     1
  9
$DIMSE1
 70
     0
  9
$DIMSE2
 70
     0
  9
$DIMTAD
 70
     0
  9
$DIMZIN
 70
     0
  9
$DIMBLK
  1

  9
$DIMASO
 70
     1
  9
$DIMSHO
 70
     1
  9
$DIMPOST
  1

  9
$DIMAPOST
  1

  9
$DIMALT
 70
     0
  9
$DIMALTD
 70
     2
  9
$DIMALTF
 40
25.4
  9
$DIMLFAC
 40
1.0
  9
$DIMTOFL
 70
     0
  9
$DIMTVP
 40
0.0
  9
$DIMTIX
 70
     0
  9
$DIMSOXD
 70
     0
  9
$DIMSAH
 70
     0
  9
$DIMBLK1
  1

  9
$DIMBLK2
  1

  9
$DIMSTYLE
  2
Standard
  9
$DIMCLRD
 70
     0
  9
$DIMCLRE
 70
     0
  9
$DIMCLRT
 70
     0
  9
$DIMTFAC
 40
1.0
  9
$DIMGAP
 40
0.09
  9
$DIMJUST
 70
     0
  9
$DIMSD1
 70
     0
  9
$DIMSD2
 70
     0
  9
$DIMTOLJ
 70
     1
  9
$DIMTZIN
 70
     0
  9
$DIMALTZ
 70
     0
  9
$DIMALTTZ
 70
     0
  9
$DIMUPT
 70
     0
  9
$DIMDEC
 70
     4
  9
$DIMTDEC
 70
     4
  9
$DIMALTU
 70
     2
  9
$DIMALTTD
 70
     2
  9
$DIMTXSTY
  7
Standard
  9
$DIMAUNIT
 70
     0
  9
$DIMADEC
 70
     0
  9
$DIMALTRND
 40
0.0
  9
$DIMAZIN
 70
     0
  9
$DIMDSEP
 70
    46
  9
$DIMATFIT
 70
     3
  9
$DIMFRAC
 70
     0
  9
$DIMLDRBLK
  1

  9
$DIMLUNIT
 70
     2
  9
$DIMLWD
 70
    -2
  9
$DIMLWE
 70
    -2
  9
$DIMTMOVE
 70
     0
  9
$LUNITS
 70
     2
  9
$LUPREC
 70
     2
  9
$SKETCHINC
 40
0.1
  9
$FILLETRAD
 40
2000.0
  9
$AUNITS
 70
     0
  9
$AUPREC
 70
     0
  9
$MENU
  1
.
  9
$ELEVATION
 40
0.0
  9
$PELEVATION
 40
0.0
  9
$THICKNESS
 40
0.0
  9
$LIMCHECK
 70
     0
  9
$CHAMFERA
 40
0.0
  9
$CHAMFERB
 40
0.0
  9
$CHAMFERC
 40
0.0
  9
$CHAMFERD
 40
0.0
  9
$SKPOLY
 70
     0
  9
$TDCREATE
 40
2458022.861501852
  9
$TDUCREATE
 40
2458022.778168519
  9
$TDUPDATE
 40
2458667.565199085
  9
$TDUUPDATE
 40
2458667.481865752
  9
$TDINDWG
 40
1.0851218056
  9
$TDUSRTIMER
 40
1.0851215972
  9
$USRTIMER
 70
     1
  9
$ANGBASE
 50
0.0
  9
$ANGDIR
 70
     0
  9
$PDMODE
 70
     0
  9
$PDSIZE
 40
0.0
  9
$PLINEWID
 40
0.0
  9
$SPLFRAME
 70
     0
  9
$SPLINETYPE
 70
     6
  9
$SPLINESEGS
 70
     8
  9
$HANDSEED
  5
22AFCA
  9
$SURFTAB1
 70
     6
  9
$SURFTAB2
 70
     6
  9
$SURFTYPE
 70
     6
  9
$SURFU
 70
     6
  9
$SURFV
 70
     6
  9
$UCSBASE
  2

  9
$UCSNAME
  2

  9
$UCSORG
 10
0.0
 20
0.0
 30
0.0
  9
$UCSXDIR
 10
1.0
 20
0.0
 30
0.0
  9
$UCSYDIR
 10
0.0
 20
1.0
 30
0.0
  9
$UCSORTHOREF
  2

  9
$UCSORTHOVIEW
 70
     0
  9
$UCSORGTOP
 10
0.0
 20
0.0
 30
0.0
  9
$UCSORGBOTTOM
 10
0.0
 20
0.0
 30
0.0
  9
$UCSORGLEFT
 10
0.0
 20
0.0
 30
0.0
  9
$UCSORGRIGHT
 10
0.0
 20
0.0
 30
0.0
  9
$UCSORGFRONT
 10
0.0
 20
0.0
 30
0.0
  9
$UCSORGBACK
 10
0.0
 20
0.0
 30
0.0
  9
$PUCSBASE
  2

  9
$PUCSNAME
  2

  9
$PUCSORG
 10
0.0
 20
0.0
 30
0.0
  9
$PUCSXDIR
 10
1.0
 20
0.0
 30
0.0
  9
$PUCSYDIR
 10
0.0
 20
1.0
 30
0.0
  9
$PUCSORTHOREF
  2

  9
$PUCSORTHOVIEW
 70
     0
  9
$PUCSORGTOP
 10
0.0
 20
0.0
 30
0.0
  9
$PUCSORGBOTTOM
 10
0.0
 20
0.0
 30
0.0
  9
$PUCSORGLEFT
 10
0.0
 20
0.0
 30
0.0
  9
$PUCSORGRIGHT
 10
0.0
 20
0.0
 30
0.0
  9
$PUCSORGFRONT
 10
0.0
 20
0.0
 30
0.0
  9
$PUCSORGBACK
 10
0.0
 20
0.0
 30
0.0
  9
$USERI1
 70
     0
  9
$USERI2
 70
     0
  9
$USERI3
 70
     0
  9
$USERI4
 70
     0
  9
$USERI5
 70
     0
  9
$USERR1
 40
0.0
  9
$USERR2
 40
0.0
  9
$USERR3
 40
0.0
  9
$USERR4
 40
0.0
  9
$USERR5
 40
0.0
  9
$WORLDVIEW
 70
     1
  9
$SHADEDGE
 70
     3
  9
$SHADEDIF
 70
    70
  9
$TILEMODE
 70
     1
  9
$MAXACTVP
 70
    64
  9
$PINSBASE
 10
0.0
 20
0.0
 30
0.0
  9
$PLIMCHECK
 70
     0
  9
$PEXTMIN
 10
0.0
 20
0.0
 30
0.0
  9
$PEXTMAX
 10
420.0
 20
297.0
 30
0.0
  9
$PLIMMIN
 10
0.0
 20
0.0
  9
$PLIMMAX
 10
420.0
 20
297.0
  9
$UNITMODE
 70
     0
  9
$VISRETAIN
 70
     1
  9
$PLINEGEN
 70
     0
  9
$PSLTSCALE
 70
     1
  9
$TREEDEPTH
 70
  3020
  9
$CMLSTYLE
  2
Standard
  9
$CMLJUST
 70
     0
  9
$CMLSCALE
 40
1.0
  9
$PROXYGRAPHICS
 70
     1
  9
$MEASUREMENT
 70
     1
  9
$CELWEIGHT
370
    -1
  9
$ENDCAPS
280
     0
  9
$JOINSTYLE
280
     0
  9
$LWDISPLAY
290
     0
  9
$INSUNITS
 70
     4
  9
$HYPERLINKBASE
  1

  9
$STYLESHEET
  1
MONOCHROME.CTB
  9
$XEDIT
290
     1
  9
$CEPSNTYPE
380
     0
  9
$PSTYLEMODE
290
     1
  9
$FINGERPRINTGUID
  2
{EE324C07-26EA-43F5-BF4C-34F6154CD393}
  9
$VERSIONGUID
  2
{CF8156A2-E7A9-4007-B0FA-E80D8FD41145}
  9
$EXTNAMES
290
     1
  9
$PSVPSCALE
 40
0.0
  9
$OLESTARTUP
290
     0
  0
ENDSEC
  0
SECTION
  2
CLASSES
  0
CLASS
  1
ACDBDICTIONARYWDFLT
  2
AcDbDictionaryWithDefault
  3
ObjectDBX Classes
 90
        0
280
     0
281
     0
  0
CLASS
  1
MATERIAL
  2
AcDbMaterial
  3
ObjectDBX Classes
 90
     1153
280
     0
281
     0
  0
CLASS
  1
VISUALSTYLE
  2
AcDbVisualStyle
  3
ObjectDBX Classes
 90
     4095
280
     0
281
     0
  0
CLASS
  1
SCALE
  2
AcDbScale
  3
ObjectDBX Classes
 90
     1153
280
     0
281
     0
  0
CLASS
  1
TABLESTYLE
  2
AcDbTableStyle
  3
ObjectDBX Classes
 90
     4095
280
     0
281
     0
  0
CLASS
  1
MLEADERSTYLE
  2
AcDbMLeaderStyle
  3
ACDB_MLEADERSTYLE_CLASS
 90
     4095
280
     0
281
     0
  0
CLASS
  1
DICTIONARYVAR
  2
AcDbDictionaryVar
  3
ObjectDBX Classes
 90
        0
280
     0
281
     0
  0
CLASS
  1
ACME_DOCUMENT
  2
AcMeDbDoc
  3
AcMeServices
 90
     1024
280
     0
281
     0
  0
CLASS
  1
AMGSETTINGSOBJ
  2
AmgSettingsObj
  3
"AcadM|Product Description: AutoCAD Mechanical|Company: Autodesk, Inc."
 90
     1024
280
     0
281
     0
  0
CLASS
  1
ACMESCOPE
  2
AcMeScope
  3
AcMeServices
 90
     1024
280
     0
281
     0
  0
CLASS
  1
ACMECOMMANDHISTORY
  2
AcMeCommandHistory
  3
AcMeServices
 90
     1024
280
     0
281
     0
  0
CLASS
  1
ACIMSYSVARMAN
  2
AcImSysVarManager
  3
AcMeServices
 90
     1024
280
     0
281
     0
  0
CLASS
  1
ACIMINTSYSVAR
  2
AcImIntSysVar
  3
AcMeServices
 90
     1024
280
     0
281
     0
  0
CLASS
  1
ACMESTATEMGR
  2
AcMeStateMgr
  3
AcMeServices
 90
     1024
280
     0
281
     0
  0
CLASS
  1
ACDBENTITYCACHE
  2
AcMeEntityCache
  3
AcMeServices
 90
     1024
280
     0
281
     0
  0
CLASS
  1
ACGREFMASTER
  2
AcGrefMaster
  3
AcAttribServices
 90
     1024
280
     0
281
     0
  0
CLASS
  1
AM_DRAWING_MGR
  2
AcDmDwgMgr
  3
AcMechDwgViewMgmt
 90
     1024
280
     0
281
     0
  0
CLASS
  1
AM_DWG_DOCUMENT
  2
AcDmDwgDocument
  3
AcMechDwgViewMgmt
 90
     1024
280
     0
281
     0
  0
CLASS
  1
AM_DWG_SHEET
  2
AcDmSheet
  3
AcMechDwgViewMgmt
 90
     1024
280
     0
281
     0
  0
CLASS
  1
AM_VIEWDIMPARMAP
  2
AcDmViewDimParMap
  3
AcMechDwgViewMgmt
 90
     1024
280
     0
281
     0
  0
CLASS
  1
AMDTINTERNALREACTOR
  2
AmdtInternalReactor
  3
AcMeServices
 90
     1024
280
     0
281
     0
  0
CLASS
  1
ACIMREALSYSVAR
  2
AcImRealSysVar
  3
AcMeServices
 90
     1024
280
     0
281
     0
  0
CLASS
  1
AM_DWGMGR_NAME
  2
AcDmDwgMgrName
  3
AcMechDwgViewMgmt
 90
     1024
280
     0
281
     0
  0
CLASS
  1
ACME_DATABASE
  2
AcMeDbDatabase
  3
AcMeServices
 90
     1024
280
     0
281
     0
  0
CLASS
  1
ACRFINSADJUSTERMGR
  2
AcRfInsAdjusterMgr
  3
AcMeServices
 90
     1024
280
     0
281
     0
  0
CLASS
  1
ACGREFACADMASTER
  2
AcGrefacadMaster
  3
AcGrefServices
 90
     1024
280
     0
281
     0
  0
CLASS
  1
AMDTMENUSTATEMGR
  2
AmdtMenuStateMgr
  3
McadcomServices
 90
     1024
280
     0
281
     0
  0
CLASS
  1
AMDTMCOMMENUSTATE
  2
AmdtMcomMenuState
  3
McadcomServices
 90
     1024
280
     0
281
     0
  0
CLASS
  1
AMIMASTER
  2
AmiMaster
  3
AmiServices
 90
     1024
280
     0
281
     0
  0
CLASS
  1
MAPIAMMOUDLE
  2
MApiAmModule
  3
MApiAmServices
 90
     1024
280
     0
281
     0
  0
CLASS
  1
ACIMSTRSYSVAR
  2
AcImStrSysVar
  3
AcMeServices
 90
     1024
280
     0
281
     0
  0
CLASS
  1
AMDTDMMENUSTATE
  2
AmdtDmMenuState
  3
AcMechDwgViewMgmt
 90
     1024
280
     0
281
     0
  0
CLASS
  1
AMDTAMMENUSTATE
  2
AmdtAmMenuState
  3
DesignerAssemblies
 90
     1024
280
     0
281
     0
  0
CLASS
  1
ACAMPROJECT
  2
AcAmProject
  3
DesignerAssemblies
 90
     1024
280
     0
281
     0
  0
CLASS
  1
ACAMGRCOMPDEF
  2
AcAmGrCompDef
  3
DesignerAssemblies
 90
     1024
280
     0
281
     0
  0
CLASS
  1
ACAMCOMPDEF
  2
AcAmCompDef
  3
DesignerAssemblies
 90
     1024
280
     0
281
     0
  0
CLASS
  1
ACAMCOMPDEFMGR
  2
AcAmCompDefMgr
  3
DesignerAssemblies
 90
     1024
280
     0
281
     0
  0
CLASS
  1
AMCONTEXTMGR
  2
AcAmContextMgr
  3
DesignerAssemblies
 90
     1024
280
     0
281
     0
  0
CLASS
  1
ACAMCONTEXTMODELER
  2
AcAmContextModeler
  3
DesignerAssemblies
 90
     1024
280
     0
281
     0
  0
CLASS
  1
ACMDATADICTIONARY
  2
AcmDataDictionary
  3
"AcmSymBB|Product Description: AutoCAD Mechanical|Company: Autodesk, Inc."
 90
     1024
280
     0
281
     0
  0
CLASS
  1
ACAMGRCOMPDEFSET
  2
AcAmGrCompDefSet
  3
DesignerAssemblies
 90
     1024
280
     0
281
     0
  0
CLASS
  1
AMDTBROWSERDBTAB
  2
AmdtBrowserDbTab
  3
McadcomServices
 90
     1024
280
     0
281
     0
  0
CLASS
  1
CBROWSERAPPOBJECT
  2
CBrowserAppObject
  3
McadcomServices
 90
     1024
280
     0
281
     0
  0
CLASS
  1
DM_PLACEHOLDER
  2
AcDmSelsetPlaceholder
  3
AcMechDwgViewMgmt
 90
     1024
280
     0
281
     0
  0
CLASS
  1
EXACXREFPANELOBJECT
  2
ExAcXREFPanelObject
  3
EXAC_ESW
 90
     1025
280
     0
281
     0
  0
CLASS
  1
NPOCOLLECTION
  2
AcDbImpNonPersistentObjectsCollection
  3
ObjectDBX Classes
 90
     1153
280
     0
281
     0
  0
CLASS
  1
ACMSTANDARDISO
  2
AcmStandardISO
  3
"Amdt_StdImp|Product Description: AutoCAD Mechanical|Company: Autodesk, Inc."
 90
     1024
280
     0
281
     0
  0
CLASS
  1
AMDTEDGESTANDARDISO13715
  2
AmdtEdgeStdISO13715
  3
"Amdt_StdImp|Product Description: AutoCAD Mechanical|Company: Autodesk, Inc."
 90
     1024
280
     0
281
     0
  0
CLASS
  1
ACMSURFSTANDARDISO2002
  2
AcmSurfTextStdISO2002
  3
"Amdt_StdImp|Product Description: AutoCAD Mechanical|Company: Autodesk, Inc."
 90
     1024
280
     0
281
     0
  0
CLASS
  1
ACMFCFSTANDARDISO
  2
AcmFCFStdISO
  3
"Amdt_StdImp|Product Description: AutoCAD Mechanical|Company: Autodesk, Inc."
 90
     1024
280
     0
281
     0
  0
CLASS
  1
ACMWELDSTANDARDISO
  2
AcmWeldingStdISO
  3
"Amdt_StdImp|Product Description: AutoCAD Mechanical|Company: Autodesk, Inc."
 90
     1024
280
     0
281
     0
  0
CLASS
  1
ACMIDSTANDARDISO
  2
AcmIdStdISO
  3
"Amdt_StdImp|Product Description: AutoCAD Mechanical|Company: Autodesk, Inc."
 90
     1024
280
     0
281
     0
  0
CLASS
  1
ACMDATUMSTANDARDISO
  2
AcmDatumStdISO
  3
"Amdt_StdImp|Product Description: AutoCAD Mechanical|Company: Autodesk, Inc."
 90
     1024
280
     0
281
     0
  0
CLASS
  1
ACMBOMSTANDARDISO
  2
AcmBOMStdISO
  3
"Amdt_StdImp|Product Description: AutoCAD Mechanical|Company: Autodesk, Inc."
 90
     1024
280
     0
281
     0
  0
CLASS
  1
ACMDETAILSTANDARDISO
  2
AmdtDetailSymStdISO
  3
"Amdt_StdImp|Product Description: AutoCAD Mechanical|Company: Autodesk, Inc."
 90
     1024
280
     0
281
     0
  0
CLASS
  1
ACMSECTIONSTANDARDISO2001
  2
AmdtSectionSymStdISO2001
  3
"Amdt_StdImp|Product Description: AutoCAD Mechanical|Company: Autodesk, Inc."
 90
     1024
280
     0
281
     0
  0
CLASS
  1
ACMCENTERLINESTANDARDISO
  2
AmdtCenterLineStdISO
  3
"Amdt_StdImp|Product Description: AutoCAD Mechanical|Company: Autodesk, Inc."
 90
     1024
280
     0
281
     0
  0
CLASS
  1
ACMTHREADLINESTANDARDISO
  2
AmdtThreadLineStdISO
  3
"Amdt_StdImp|Product Description: AutoCAD Mechanical|Company: Autodesk, Inc."
 90
     1024
280
     0
281
     0
  0
CLASS
  1
ACMNOTESTANDARDISO
  2
AmdtNoteStdISO
  3
"Amdt_StdImp|Product Description: AutoCAD Mechanical|Company: Autodesk, Inc."
 90
     1024
280
     0
281
     0
  0
CLASS
  1
ACMTAPERSTANDARDISO
  2
AcmTaperStdISO
  3
"Amdt_StdImp|Product Description: AutoCAD Mechanical|Company: Autodesk, Inc."
 90
     1024
280
     0
281
     0
  0
CLASS
  1
ACMANOOTATIONVIEWSTANDARDISO
  2
AmdtAnViewStdISO
  3
"Amdt_StdImp|Product Description: AutoCAD Mechanical|Company: Autodesk, Inc."
 90
     1024
280
     0
281
     0
  0
CLASS
  1
ACAMGLAYSTD
  2
AcAmgLayStd
  3
"AmgLay|Product Description: AutoCAD Mechanical|Company: Autodesk, Inc."
 90
     1024
280
     0
281
     0
  0
CLASS
  1
ACAMGDIMSTD
  2
AcAmgDimStd
  3
"AmgDim|Product Description: AutoCAD Mechanical|Company: Autodesk, Inc."
 90
     1024
280
     0
281
     0
  0
CLASS
  1
AMGOBJPROPCFG
  2
AmgObjPropCfg
  3
"AmgLay|Product Description: AutoCAD Mechanical|Company: Autodesk, Inc."
 90
     1025
280
     0
281
     0
  0
CLASS
  1
ACAMGHOLECHARTSTDISO
  2
AcAmgHoleChartStdISO
  3
AmgDim|Product Description: AutoCAD Mechanical|Company: Autodesk, Inc.
 90
     1024
280
     0
281
     0
  0
CLASS
  1
ACAMGTITLESTD
  2
AcAmgTitleStd
  3
"AmgTitle|Product Description: AutoCAD Mechanical|Company: Autodesk, Inc."
 90
     4095
280
     0
281
     0
  0
CLASS
  1
AMDTNOTETEMPLATEDB
  2
AmdtNoteTemplateDB
  3
AcmSymBB|Product Description: AutoCAD Mechanical|Company: Autodesk, Inc.
 90
     1024
280
     0
281
     0
  0
CLASS
  1
ACAMGFILTERDAT
  2
AcAmgFilterDat
  3
"AcadM|Product Description: AutoCAD Mechanical|Company: Autodesk, Inc."
 90
    33792
280
     0
281
     0
  0
CLASS
  1
CAMSSTRUCTBTNSTATE
  2
StructBtnState
  3
DesignerAssemblies
 90
     1024
280
     0
281
     0
  0
CLASS
  1
SORTENTSTABLE
  2
AcDbSortentsTable
  3
ObjectDBX Classes
 90
        0
280
     0
281
     0
  0
CLASS
  1
CELLSTYLEMAP
  2
AcDbCellStyleMap
  3
ObjectDBX Classes
 90
     1152
280
     0
281
     0
  0
CLASS
  1
ACDBPLACEHOLDER
  2
AcDbPlaceHolder
  3
ObjectDBX Classes
 90
        0
280
     0
281
     0
  0
CLASS
  1
LAYOUT
  2
AcDbLayout
  3
ObjectDBX Classes
 90
        0
280
     0
281
     0
  0
ENDSEC
  0
SECTION
  2
TABLES
  0
TABLE
  2
VPORT
  5
8
330
0
100
AcDbSymbolTable
 70
     1
  0
VPORT
  5
57
330
8
100
AcDbSymbolTableRecord
100
AcDbViewportTableRecord
  2
*Active
 70
     0
 10
0.0
 20
0.0
 11
1.0
 21
1.0
 12
36080.42607777877
 22
-1230.434602539649
 13
0.0
 23
0.0
 14
1.0
 24
1.0
 15
0.0
 25
0.0
 16
0.0
 26
0.0
 36
1.0
 17
0.0
 27
0.0
 37
0.0
 40
5048.437819517367
 41
2.837064676616915
 42
50.0
 43
0.0
 44
0.0
 50
0.0
 51
0.0
 71
     0
 72
   100
 73
     1
 74
     1
 75
     0
 76
     0
 77
     0
 78
     0
281
     0
 65
     0
110
0.0
120
0.0
130
0.0
111
1.0
121
0.0
131
0.0
112
0.0
122
1.0
132
0.0
 79
     0
146
0.0
  0
ENDTAB
  0
TABLE
  2
LTYPE
  5
5
330
0
100
AcDbSymbolTable
 70
    14
  0
LTYPE
  5
5B
330
5
100
AcDbSymbolTableRecord
100
AcDbLinetypeTableRecord
  2
ByBlock
 70
     0
  3

 72
    65
 73
     0
 40
0.0
  0
LTYPE
  5
5C
330
5
100
AcDbSymbolTableRecord
100
AcDbLinetypeTableRecord
  2
ByLayer
 70
     0
  3

 72
    65
 73
     0
 40
0.0
  0
LTYPE
  5
5D
330
5
100
AcDbSymbolTableRecord
100
AcDbLinetypeTableRecord
  2
Continuous
 70
     0
  3
Solid line
 72
    65
 73
     0
 40
0.0
  0
LTYPE
  5
86
330
5
100
AcDbSymbolTableRecord
100
AcDbLinetypeTableRecord
  2
CENTER
 70
     0
  3
Center ____ _ ____ _ ____ _ ____ _ ____ _ ____
 72
    65
 73
     4
 40
50.8
 49
31.75
 74
     0
 49
-6.349999999999997
 74
     0
 49
6.349999999999997
 74
     0
 49
-6.349999999999997
 74
     0
  0
LTYPE
  5
93
330
5
100
AcDbSymbolTableRecord
100
AcDbLinetypeTableRecord
  2
HIDDEN
 70
     0
  3
Hidden __ __ __ __ __ __ __ __ __ __ __ __ __ _
 72
    65
 73
     2
 40
9.524999999999996
 49
6.349999999999997
 74
     0
 49
-3.174999999999998
 74
     0
  0
LTYPE
  5
97
330
5
100
AcDbSymbolTableRecord
100
AcDbLinetypeTableRecord
  2
PHANTOM2
 70
     0
  3
Phantom (.5x) ___ _ _ ___ _ _ ___ _ _ ___ _ _
 72
    65
 73
     6
 40
31.75
 49
15.875
 74
     0
 49
-3.174999999999998
 74
     0
 49
3.174999999999998
 74
     0
 49
-3.174999999999998
 74
     0
 49
3.174999999999998
 74
     0
 49
-3.174999999999998
 74
     0
  0
LTYPE
  5
22E32
330
5
100
AcDbSymbolTableRecord
100
AcDbLinetypeTableRecord
  2
AM_ISO02W050
 70
     0
  3
__ __ __ __ __ __ __ __ __ __ __ __ __ __ __
 72
    65
 73
     2
 40
7.5
 49
6.0
 74
     0
 49
-1.5
 74
     0
  0
LTYPE
  5
22E33
330
5
100
AcDbSymbolTableRecord
100
AcDbLinetypeTableRecord
  2
AM_ISO08W050
 70
     0
  3
____ . ____ . ____ . ____ . ____ . ____ . ____
 72
    65
 73
     4
 40
18.0
 49
12.0
 74
     0
 49
-1.5
 74
     0
 49
3.0
 74
     0
 49
-1.5
 74
     0
  0
LTYPE
  5
22E34
330
5
100
AcDbSymbolTableRecord
100
AcDbLinetypeTableRecord
  2
AM_ISO09W050
 70
     0
  3
_____ . . _____ . . _____ . . ____ .. ____
 72
    65
 73
     6
 40
22.5
 49
12.0
 74
     0
 49
-1.5
 74
     0
 49
3.0
 74
     0
 49
-1.5
 74
     0
 49
3.0
 74
     0
 49
-1.5
 74
     0
  0
LTYPE
  5
22E35
330
5
100
AcDbSymbolTableRecord
100
AcDbLinetypeTableRecord
  2
Amconstr
 70
     0
  3
_______________________
 72
    65
 73
     2
 40
9999.0
 49
9999.0
 74
     0
 49
0.0
 74
     0
  0
LTYPE
  5
22E36
330
5
100
AcDbSymbolTableRecord
100
AcDbLinetypeTableRecord
  2
AM_ISO08W050x2
 70
     0
  3
__ . __ . __ . __ . __ . __
 72
    65
 73
     4
 40
9.0
 49
6.0
 74
     0
 49
-0.75
 74
     0
 49
1.5
 74
     0
 49
-0.75
 74
     0
  0
LTYPE
  5
22E37
330
5
100
AcDbSymbolTableRecord
100
AcDbLinetypeTableRecord
  2
AM_ISO02W050x2
 70
     0
  3
 _ _ _ _ _ _ _ _ _ _ _ _
 72
    65
 73
     2
 40
3.75
 49
3.0
 74
     0
 49
-0.75
 74
     0
  0
LTYPE
  5
22E3A
330
5
100
AcDbSymbolTableRecord
100
AcDbLinetypeTableRecord
  2
Amzigzag
 70
     0
  3
/\/-/\/-/\/-/\/-/\/-/\/
 72
    65
 73
     2
 40
11.0001
 49
0.0001
 74
     4
 75
   136
340
22E39
 46
0.04
 50
0.0
 44
0.0
 45
0.0
 49
-11.0
 74
     0
  0
LTYPE
  5
22E49
330
5
100
AcDbSymbolTableRecord
100
AcDbLinetypeTableRecord
  2
ACISOWELD
 70
     0
  3
_ _ _ _ _
 72
    65
 73
     2
 40
2.0
 49
2.0
 74
     0
 49
-1.0
 74
     0
  0
LTYPE
  5
22E4A
330
5
100
AcDbSymbolTableRecord
100
AcDbLinetypeTableRecord
  2
ACISOTGB
 70
     0
  3
__ . . __ . .
 72
    65
 73
     6
 40
9.0
 49
4.0
 74
     0
 49
-1.0
 74
     0
 49
1.0
 74
     0
 49
-1.0
 74
     0
 49
1.0
 74
     0
 49
-1.0
 74
     0
  0
LTYPE
  5
22E4B
330
5
100
AcDbSymbolTableRecord
100
AcDbLinetypeTableRecord
  2
ACISOTGL
 70
     0
  3
_ _ _ _ _
 72
    65
 73
     2
 40
3.0
 49
2.0
 74
     0
 49
-1.0
 74
     0
  0
ENDTAB
  0
TABLE
  2
LAYER
  5
2
102
{ACAD_XDICTIONARY
360
22E5D
102
}
330
0
100
AcDbSymbolTable
 70
     3
  0
LAYER
  5
54
330
2
100
AcDbSymbolTableRecord
100
AcDbLayerTableRecord
  2
0
 70
     0
 62
     7
  6
Continuous
370
    -3
390
F
  0
LAYER
  5
C4
330
2
100
AcDbSymbolTableRecord
100
AcDbLayerTableRecord
  2
Widoczne (ISO)
 70
     0
 62
     7
  6
Continuous
370
    50
390
F
  0
LAYER
  5
22CA6
330
2
100
AcDbSymbolTableRecord
100
AcDbLayerTableRecord
  2
Defpoints
 70
     0
 62
     7
  6
Continuous
290
     0
370
    -3
390
F
  0
ENDTAB
  0
TABLE
  2
STYLE
  5
3
330
0
100
AcDbSymbolTable
 70
     3
  0
STYLE
  5
55
330
3
100
AcDbSymbolTableRecord
100
AcDbTextStyleTableRecord
  2
Standard
 70
     0
 40
0.0
 41
1.0
 50
0.0
 71
     0
 42
0.2
  3
tahoma.ttf
  4

1001
ACAD
1000
Tahoma
1071
      256
  0
STYLE
  5
22E39
330
3
100
AcDbSymbolTableRecord
100
AcDbTextStyleTableRecord
  2

 70
     1
 40
0.0
 41
1.0
 50
0.0
 71
     0
 42
0.2
  3
genltshp.shx
  4

  0
STYLE
  5
22E48
330
3
100
AcDbSymbolTableRecord
100
AcDbTextStyleTableRecord
  2
ACISOGDT
 70
     0
 40
0.0
 41
1.0
 50
0.0
 71
     0
 42
0.2
  3
amgdt.shx
  4

  0
ENDTAB
  0
TABLE
  2
VIEW
  5
6
330
0
100
AcDbSymbolTable
 70
     0
  0
ENDTAB
  0
TABLE
  2
UCS
  5
7
330
0
100
AcDbSymbolTable
 70
     0
  0
ENDTAB
  0
TABLE
  2
APPID
  5
9
330
0
100
AcDbSymbolTable
 70
    31
  0
APPID
  5
56
330
9
100
AcDbSymbolTableRecord
100
AcDbRegAppTableRecord
  2
ACAD
 70
     0
  0
APPID
  5
5E
330
9
100
AcDbSymbolTableRecord
100
AcDbRegAppTableRecord
  2
AcadAnnotative
 70
     0
  0
APPID
  5
15C
330
9
100
AcDbSymbolTableRecord
100
AcDbRegAppTableRecord
  2
AcadAnnoPO
 70
     0
  0
APPID
  5
22DC8
330
9
100
AcDbSymbolTableRecord
100
AcDbRegAppTableRecord
  2
MCAD_NO_VIS
 70
     0
  0
APPID
  5
22DC9
330
9
100
AcDbSymbolTableRecord
100
AcDbRegAppTableRecord
  2
ACAD_TEMP_GRAPHIC
 70
     0
  0
APPID
  5
22DF4
330
9
100
AcDbSymbolTableRecord
100
AcDbRegAppTableRecord
  2
AD_DRAW
 70
     0
  0
APPID
  5
22DF7
330
9
100
AcDbSymbolTableRecord
100
AcDbRegAppTableRecord
  2
ACATTRIBSERVICES
 70
     0
  0
APPID
  5
22E10
330
9
100
AcDbSymbolTableRecord
100
AcDbRegAppTableRecord
  2
DESIGNERASSEMBLIES
 70
     0
  0
APPID
  5
22E15
330
9
100
AcDbSymbolTableRecord
100
AcDbRegAppTableRecord
  2
ACADM_DIM_EDIT
 70
     0
  0
APPID
  5
22E16
330
9
100
AcDbSymbolTableRecord
100
AcDbRegAppTableRecord
  2
AMDT_DM_ADJ
 70
     0
  0
APPID
  5
22E2F
330
9
100
AcDbSymbolTableRecord
100
AcDbRegAppTableRecord
  2
ACAD_DSTYLE_DIMJAG
 70
     0
  0
APPID
  5
22E30
330
9
100
AcDbSymbolTableRecord
100
AcDbRegAppTableRecord
  2
ACAD_DSTYLE_DIMBREAK
 70
     0
  0
APPID
  5
22E7B
330
9
100
AcDbSymbolTableRecord
100
AcDbRegAppTableRecord
  2
AcAecLayerStandard
 70
     0
  0
APPID
  5
22E98
330
9
100
AcDbSymbolTableRecord
100
AcDbRegAppTableRecord
  2
ACAD_DSTYLE_DIMINSPECT
 70
     0
  0
APPID
  5
22EAE
330
9
100
AcDbSymbolTableRecord
100
AcDbRegAppTableRecord
  2
GENIUS_GENDTOL_13
 70
     0
  0
APPID
  5
22EAF
330
9
100
AcDbSymbolTableRecord
100
AcDbRegAppTableRecord
  2
ACAD_EXEMPT_FROM_CAD_STANDARDS
 70
     0
  0
APPID
  5
22EE2
330
9
100
AcDbSymbolTableRecord
100
AcDbRegAppTableRecord
  2
ACAD_PSEXT
 70
     0
  0
APPID
  5
22EE3
330
9
100
AcDbSymbolTableRecord
100
AcDbRegAppTableRecord
  2
ACAD_NAV_VCDISPLAY
 70
     0
  0
APPID
  5
2D66B
330
9
100
AcDbSymbolTableRecord
100
AcDbRegAppTableRecord
  2
GENIUS_GENODEF_13
 70
     0
  0
APPID
  5
2D66C
330
9
100
AcDbSymbolTableRecord
100
AcDbRegAppTableRecord
  2
GENIUS_GENOBJ-N-FIL_13
 70
     0
  0
APPID
  5
7909A
330
9
100
AcDbSymbolTableRecord
100
AcDbRegAppTableRecord
  2
GENIUS_GENOBJ-N-HTC_13
 70
     0
  0
APPID
  5
7909B
330
9
100
AcDbSymbolTableRecord
100
AcDbRegAppTableRecord
  2
GENIUS_GENHATCH_13
 70
     0
  0
APPID
  5
79290
330
9
100
AcDbSymbolTableRecord
100
AcDbRegAppTableRecord
  2
GRADIENTCOLOR1ACI
 70
     0
  0
APPID
  5
79291
330
9
100
AcDbSymbolTableRecord
100
AcDbRegAppTableRecord
  2
GRADIENTCOLOR2ACI
 70
     0
  0
APPID
  5
CEBC3
330
9
100
AcDbSymbolTableRecord
100
AcDbRegAppTableRecord
  2
GENIUS_GENREC_14
 70
     0
  0
APPID
  5
CEBC4
330
9
100
AcDbSymbolTableRecord
100
AcDbRegAppTableRecord
  2
GENIUS_GENOBJ-N-REC_13
 70
     0
  0
APPID
  5
229DAB
330
9
100
AcDbSymbolTableRecord
100
AcDbRegAppTableRecord
  2
ACAD_MLEADERVER
 70
     0
  0
APPID
  5
229DB1
330
9
100
AcDbSymbolTableRecord
100
AcDbRegAppTableRecord
  2
ACAD_DSTYLE_DIMARC_LENGTH_SYMBOL
 70
     0
  0
APPID
  5
229DB2
330
9
100
AcDbSymbolTableRecord
100
AcDbRegAppTableRecord
  2
ACAD_DSTYLE_DIM_LINETYPE
 70
     0
  0
APPID
  5
229DB3
330
9
100
AcDbSymbolTableRecord
100
AcDbRegAppTableRecord
  2
ACAD_DSTYLE_DIM_EXT1_LINETYPE
 70
     0
  0
APPID
  5
229DB4
330
9
100
AcDbSymbolTableRecord
100
AcDbRegAppTableRecord
  2
ACAD_DSTYLE_DIM_EXT2_LINETYPE
 70
     0
  0
ENDTAB
  0
TABLE
  2
DIMSTYLE
  5
A
330
0
100
AcDbSymbolTable
 70
     8
100
AcDbDimStyleTable
 71
     1
340
58
  0
DIMSTYLE
105
58
330
A
100
AcDbSymbolTableRecord
100
AcDbDimStyleTableRecord
  2
Standard
 70
     0
340
55
  0
DIMSTYLE
105
22E2E
102
{ACAD_REACTORS
330
229F50
102
}
330
A
100
AcDbSymbolTableRecord
100
AcDbDimStyleTableRecord
  2
AM_ISO
 70
     0
  4
"
 41
3.5
 42
1.0
 43
10.0
 44
1.0
 47
0.1
 48
0.1
 73
     0
 74
     0
 77
     1
 78
     8
 79
     2
140
3.5
141
0.0
143
0.0393701
146
0.71
147
1.5
172
     1
176
   256
177
   256
178
     2
271
     2
272
     3
274
     4
283
     0
284
     8
340
55
371
    -1
372
    -1
1001
ACAD_DSTYLE_DIMJAG
1070
   388
1040
1.5
1001
ACAD_DSTYLE_DIMBREAK
1070
   391
1040
3.75
1001
ACAD_DSTYLE_DIMARC_LENGTH_SYMBOL
1070
   379
1070
     1
1001
ACAD_DSTYLE_DIM_LINETYPE
1070
   380
1005
5B
1001
ACAD_DSTYLE_DIM_EXT1_LINETYPE
1070
   381
1005
5B
1001
ACAD_DSTYLE_DIM_EXT2_LINETYPE
1070
   382
1005
5B
  0
DIMSTYLE
105
22E3B
330
A
100
AcDbSymbolTableRecord
100
AcDbDimStyleTableRecord
  2
AM_ISO$3
 70
     0
  4
"
 41
3.5
 42
1.0
 43
10.0
 44
1.0
 47
0.1
 48
0.1
 73
     0
 77
     1
 78
     8
 79
     2
140
3.5
141
0.0
143
0.0393701
146
0.71
147
1.5
176
   256
177
   256
178
     2
271
     2
272
     3
274
     4
283
     0
284
     8
288
     1
289
     0
340
55
371
    -1
372
    -1
1001
ACAD_DSTYLE_DIMBREAK
1070
   391
1040
3.75
1001
ACAD_DSTYLE_DIMJAG
1070
   388
1040
1.5
1001
ACAD_DSTYLE_DIMARC_LENGTH_SYMBOL
1070
   379
1070
     1
1001
ACAD_DSTYLE_DIM_LINETYPE
1070
   380
1005
5B
1001
ACAD_DSTYLE_DIM_EXT1_LINETYPE
1070
   381
1005
5B
1001
ACAD_DSTYLE_DIM_EXT2_LINETYPE
1070
   382
1005
5B
  0
DIMSTYLE
105
22E3C
330
A
100
AcDbSymbolTableRecord
100
AcDbDimStyleTableRecord
  2
AM_ISO$4
 70
     0
  4
"
 41
3.5
 42
1.0
 43
10.0
 44
1.0
 47
0.1
 48
0.1
 73
     0
 77
     1
 78
     8
 79
     2
140
3.5
141
0.0
143
0.0393701
146
0.71
147
1.5
176
   256
177
   256
178
     2
271
     2
272
     3
274
     4
283
     0
284
     8
288
     1
289
     0
340
55
371
    -1
372
    -1
1001
ACAD_DSTYLE_DIMBREAK
1070
   391
1040
3.75
1001
ACAD_DSTYLE_DIMJAG
1070
   388
1040
1.5
1001
ACAD_DSTYLE_DIMARC_LENGTH_SYMBOL
1070
   379
1070
     1
1001
ACAD_DSTYLE_DIM_LINETYPE
1070
   380
1005
5B
1001
ACAD_DSTYLE_DIM_EXT1_LINETYPE
1070
   381
1005
5B
1001
ACAD_DSTYLE_DIM_EXT2_LINETYPE
1070
   382
1005
5B
  0
DIMSTYLE
105
22E3D
330
A
100
AcDbSymbolTableRecord
100
AcDbDimStyleTableRecord
  2
AM_ISO$6
 70
     0
  4
"
 41
3.5
 42
1.0
 43
10.0
 44
1.0
 47
0.1
 48
0.1
 73
     0
 74
     0
 78
     8
 79
     2
140
3.5
141
0.0
143
0.0393701
146
0.71
147
1.5
172
     1
176
   256
177
   256
178
     2
271
     2
272
     3
274
     4
283
     0
284
     8
340
55
371
    -1
372
    -1
1001
ACAD_DSTYLE_DIMBREAK
1070
   391
1040
3.75
1001
ACAD_DSTYLE_DIMJAG
1070
   388
1040
1.5
1001
ACAD_DSTYLE_DIMARC_LENGTH_SYMBOL
1070
   379
1070
     1
1001
ACAD_DSTYLE_DIM_LINETYPE
1070
   380
1005
5B
1001
ACAD_DSTYLE_DIM_EXT1_LINETYPE
1070
   381
1005
5B
1001
ACAD_DSTYLE_DIM_EXT2_LINETYPE
1070
   382
1005
5B
  0
DIMSTYLE
105
22E3E
330
A
100
AcDbSymbolTableRecord
100
AcDbDimStyleTableRecord
  2
AM_ISO$7
 70
     0
  4
"
 41
3.5
 42
1.0
 43
10.0
 44
1.0
 47
0.1
 48
0.1
 73
     0
 74
     0
 77
     1
 78
     8
 79
     2
140
3.5
141
0.0
143
0.0393701
146
0.71
147
1.5
172
     1
176
   256
177
   256
178
     2
271
     2
272
     3
274
     4
283
     0
284
     8
340
55
371
    -1
372
    -1
1001
ACAD_DSTYLE_DIMBREAK
1070
   391
1040
3.75
1001
ACAD_DSTYLE_DIMJAG
1070
   388
1040
1.5
1001
ACAD_DSTYLE_DIMARC_LENGTH_SYMBOL
1070
   379
1070
     1
1001
ACAD_DSTYLE_DIM_LINETYPE
1070
   380
1005
5B
1001
ACAD_DSTYLE_DIM_EXT1_LINETYPE
1070
   381
1005
5B
1001
ACAD_DSTYLE_DIM_EXT2_LINETYPE
1070
   382
1005
5B
  0
DIMSTYLE
105
22E3F
330
A
100
AcDbSymbolTableRecord
100
AcDbDimStyleTableRecord
  2
AM_ISO$SF
 70
     0
  4
"
 41
3.5
 42
1.0
 43
10.0
 44
1.0
 47
0.1
 48
0.1
 73
     0
 74
     0
 75
     1
 76
     1
 77
     1
 78
     8
 79
     2
140
3.5
141
0.0
143
0.0393701
146
0.71
147
1.5
172
     1
176
   256
177
   256
178
     2
271
     2
272
     3
274
     4
283
     0
284
     8
340
55
371
    -1
372
    -1
1001
ACAD_DSTYLE_DIMBREAK
1070
   391
1040
3.75
1001
ACAD_DSTYLE_DIMJAG
1070
   388
1040
1.5
1001
ACAD_DSTYLE_DIMARC_LENGTH_SYMBOL
1070
   379
1070
     1
1001
ACAD_DSTYLE_DIM_LINETYPE
1070
   380
1005
5B
1001
ACAD_DSTYLE_DIM_EXT1_LINETYPE
1070
   381
1005
5B
1001
ACAD_DSTYLE_DIM_EXT2_LINETYPE
1070
   382
1005
5B
  0
DIMSTYLE
105
22E44
330
A
100
AcDbSymbolTableRecord
100
AcDbDimStyleTableRecord
  2
AM_ISO$SH
 70
     0
  4
"
 41
3.5
 42
1.0
 43
10.0
 44
1.0
 47
0.1
 48
0.1
 73
     0
 74
     0
 75
     1
 76
     1
 77
     1
 78
     8
 79
     2
140
3.5
141
0.0
143
0.0393701
144
2.0
146
0.71
147
1.5
172
     1
173
     1
176
   256
177
   256
178
     2
271
     2
272
     3
274
     4
283
     0
284
     8
340
55
343
22E40
371
    -1
372
    -1
1001
ACAD_DSTYLE_DIMBREAK
1070
   391
1040
3.75
1001
ACAD_DSTYLE_DIMJAG
1070
   388
1040
1.5
1001
ACAD_DSTYLE_DIMARC_LENGTH_SYMBOL
1070
   379
1070
     1
1001
ACAD_DSTYLE_DIM_LINETYPE
1070
   380
1005
5B
1001
ACAD_DSTYLE_DIM_EXT1_LINETYPE
1070
   381
1005
5B
1001
ACAD_DSTYLE_DIM_EXT2_LINETYPE
1070
   382
1005
5B
  0
ENDTAB
  0
TABLE
  2
BLOCK_RECORD
  5
1
330
0
100
AcDbSymbolTable
 70
     6
  0
BLOCK_RECORD
  5
6C
102
{ACAD_XDICTIONARY
360
2D669
102
}
330
1
100
AcDbSymbolTableRecord
100
AcDbBlockTableRecord
  2
*Model_Space
340
6F
  0
BLOCK_RECORD
  5
68
330
1
100
AcDbSymbolTableRecord
100
AcDbBlockTableRecord
  2
*Paper_Space
340
6B
  0
BLOCK_RECORD
  5
70
330
1
100
AcDbSymbolTableRecord
100
AcDbBlockTableRecord
  2
*Paper_Space0
340
73
  0
BLOCK_RECORD
  5
22E40
330
1
100
AcDbSymbolTableRecord
100
AcDbBlockTableRecord
  2
GENAXEH
340
0
  0
BLOCK_RECORD
  5
22A028
102
{ACAD_XDICTIONARY
360
22A029
102
}
330
1
100
AcDbSymbolTableRecord
100
AcDbBlockTableRecord
  2
gggr
340
0
310
2800000020000000200000000100080000000000000400000000000000000000000000000000000000000000000080000080000000808000800000008000800080800000C0C0C000C0DCC000F0CAA6000020400000206000002080000020A0000020C0000020E00000400000004020000040400000406000004080000040A0
310
000040C0000040E00000600000006020000060400000606000006080000060A0000060C0000060E00000800000008020000080400000806000008080000080A0000080C0000080E00000A0000000A0200000A0400000A0600000A0800000A0A00000A0C00000A0E00000C0000000C0200000C0400000C0600000C0800000C0
310
A00000C0C00000C0E00000E0000000E0200000E0400000E0600000E0800000E0A00000E0C00000E0E00040000000400020004000400040006000400080004000A0004000C0004000E00040200000402020004020400040206000402080004020A0004020C0004020E000404000004040200040404000404060004040800040
310
40A0004040C0004040E00040600000406020004060400040606000406080004060A0004060C0004060E00040800000408020004080400040806000408080004080A0004080C0004080E00040A0000040A0200040A0400040A0600040A0800040A0A00040A0C00040A0E00040C0000040C0200040C0400040C0600040C08000
310
40C0A00040C0C00040C0E00040E0000040E0200040E0400040E0600040E0800040E0A00040E0C00040E0E00080000000800020008000400080006000800080008000A0008000C0008000E00080200000802020008020400080206000802080008020A0008020C0008020E00080400000804020008040400080406000804080
310
008040A0008040C0008040E00080600000806020008060400080606000806080008060A0008060C0008060E00080800000808020008080400080806000808080008080A0008080C0008080E00080A0000080A0200080A0400080A0600080A0800080A0A00080A0C00080A0E00080C0000080C0200080C0400080C0600080C0
310
800080C0A00080C0C00080C0E00080E0000080E0200080E0400080E0600080E0800080E0A00080E0C00080E0E000C0000000C0002000C0004000C0006000C0008000C000A000C000C000C000E000C0200000C0202000C0204000C0206000C0208000C020A000C020C000C020E000C0400000C0402000C0404000C0406000C0
310
408000C040A000C040C000C040E000C0600000C0602000C0604000C0606000C0608000C060A000C060C000C060E000C0800000C0802000C0804000C0806000C0808000C080A000C080C000C080E000C0A00000C0A02000C0A04000C0A06000C0A08000C0A0A000C0A0C000C0A0E000C0C00000C0C02000C0C04000C0C06000
310
C0C08000C0C0A000F0FBFF00A4A0A000808080000000FF0000FF000000FFFF00FF000000FF00FF00FFFF0000FFFFFF0049494949494949494949494949494949494949494949494949494949494949494949494949494949494949494949494949494949494949494949494949494949494949494949494949494949494949
310
49494949494949494949494949494949494949494949494949494949494949494949494949494949494949494949494949494949494949494949494949494949494949494949494949494949494949494949494949494949494949494949494949494949494949494949494949494949494949494949494949494949494949
310
49494949494949494949494949494949494949494949494949494949494949494949494949494949494949494949494949494949494949494949494949494949494949494949494949494949494949494949494949494949494949494949494949494949494949494949494949494949494949494949494949494949494949
310
49494949494949494949494949494949494949494949494949494949494949494949494949494949494949494949494949494949FEFEFEFEF9FEFEFEFEFEFEFEFEFEFEFEFEFEFEFEFEFEFEFEFEF9FEFEFEFE4949FE494949F94949494949494949494949494949494949494949F9494949FE4949FE494949F9494949494949
310
4949494949494949494949494949F9494949FE4949FE494949F94949494949494949494949494949494949494949F9494949FE4949FE494949F94949494949494949494949494949494949494949F9494949FE4949FE494949F94949494949494949494949494949494949494949F9494949FE4949FE494949F94949494949
310
494949494949494949494949494949F9494949FE4949FEFEFEFEF9FEFEFEFEFEFEFEFEFEFEFEFEFEFEFEFEFEFEFEFEF9FEFEFEFE494949494949494949494949494949494949494949494949494949494949494949494949494949494949494949494949494949494949494949494949494949494949494949494949494949
310
49494949494949494949494949494949494949494949494949494949494949494949494949494949494949494949494949494949494949494949494949494949494949494949494949494949494949494949494949494949494949494949494949494949494949494949494949494949494949494949494949494949494949
310
49494949494949494949494949494949494949494949494949494949494949494949494949494949494949494949494949494949494949494949494949494949494949494949494949494949494949494949494949494949494949494949494949494949494949494949494949494949494949494949494949494949494949
310
4949494949494949494949494949494949494949494949494949494949494949494949494949494949494949494949494949494949494949
102
{BLKREFS
331
22ADB8
331
22ADB9
331
22ADBA
331
22ADBB
331
22ADBC
331
22ADBD
331
22ADBE
331
22ADBF
331
22ADC0
331
22ADC1
331
22ADC2
331
22ADC3
331
22ADC4
331
22ADC5
331
22ADC6
331
22ADC7
331
22ADC8
331
22ADC9
331
22ADCA
331
22ADCB
331
22ADCC
331
22ADCD
331
22ADCE
331
22ADCF
331
22ADD0
331
22ADD1
331
22ADD2
331
22ADD3
331
22ADD4
331
22ADD5
331
22ADD6
331
22ADD7
331
22ADD8
331
22ADD9
331
22ADDA
331
22ADDB
331
22ADDC
331
22ADDD
331
22ADDE
331
22ADDF
331
22ADE0
331
22ADE1
331
22ADE2
331
22ADE3
331
22ADE4
331
22ADE5
331
22ADE6
331
22ADE7
331
22ADE8
331
22ADE9
331
22ADEA
331
22ADEB
331
22ADEC
331
22ADED
331
22ADEE
331
22ADEF
331
22ADF0
331
22ADF1
331
22ADF2
331
22ADF3
331
22ADF4
331
22ADF5
331
22ADF6
331
22ADF7
331
22ADF8
331
22ADF9
331
22ADFA
331
22ADFB
331
22ADFC
331
22ADFD
331
22ADFE
331
22ADFF
331
22AE00
331
22AE01
331
22AE02
331
22AE03
331
22AE04
331
22AE05
331
22AE06
331
22AE07
331
22AE08
331
22AE09
331
22AE0A
331
22AE0B
331
22AE0C
331
22AE0D
331
22AE0E
331
22AE0F
331
22AE10
331
22AE11
331
22AE12
331
22AE13
331
22AE14
331
22AE15
331
22AE16
331
22AE17
331
22AE18
331
22AE19
331
22AE1A
331
22AE1B
331
22AE1C
331
22AE1D
331
22AE1E
331
22AE1F
331
22AE20
331
22AE21
331
22AE22
331
22AE23
331
22AE24
331
22AE25
331
22AE26
331
22AE27
331
22AE28
331
22AE29
331
22AE2A
331
22AE2B
331
22AE2C
331
22AE2D
331
22AE2E
331
22AE2F
331
22AE30
331
22AE31
331
22AE32
331
22AE33
331
22AE34
331
22AE35
331
22AE36
331
22AE37
331
22AE38
331
22AE39
331
22AE3A
331
22AE3B
331
22AE3C
331
22AE3D
331
22AE3E
331
22AE3F
331
22AE40
331
22AE41
331
22AE42
331
22AE43
331
22AE44
331
22AE45
331
22AE46
331
22AE47
331
22AE48
331
22AE49
331
22AE4A
331
22AE4B
331
22AE4C
331
22AE4D
331
22AE4E
331
22AE4F
331
22AE50
331
22AE51
331
22AE52
331
22AE53
331
22AE54
331
22AE55
331
22AE56
331
22AE57
331
22AE58
331
22AE59
331
22AE5A
331
22AE5B
331
22AE5C
331
22AE5D
331
22AE5E
331
22AE5F
331
22AE60
331
22AE61
331
22AE62
331
22AE63
331
22AE64
331
22AE65
331
22AE66
331
22AE67
331
22AE68
331
22AE69
331
22AE6A
331
22AE6B
331
22AE6C
331
22AE6D
331
22AE6E
331
22AE6F
331
22AE70
331
22AE71
331
22AE72
331
22AE73
331
22AE74
331
22AE75
331
22AE76
331
22AE77
331
22AE78
331
22AE79
331
22AE7A
331
22AE7B
331
22AE7C
331
22AE7D
331
22AE7E
331
22AE7F
331
22AE80
331
22AE81
331
22AE82
331
22AE83
331
22AE84
331
22AEB4
331
22AEB5
331
22AEB6
331
22AEB7
331
22AEB8
331
22AEB9
331
22AEBA
331
22AEBB
331
22AEBC
331
22AEBD
331
22AEBE
331
22AEBF
331
22AEC0
331
22AEC1
331
22AEC2
331
22AEC3
331
22AEC4
331
22AEC5
331
22AEC6
331
22AEC7
331
22AEC8
331
22AEC9
331
22AD1A
331
22AD1B
331
22AD1C
331
22AD1D
331
22AD1E
331
22AD1F
331
22AD20
331
22AD21
331
22AD22
331
22AD23
331
22AD24
331
22AD25
331
22AD26
331
22AD27
331
22AD28
331
22AD29
331
22AD2A
331
22AD2B
331
22AD2C
331
22AD2D
331
22AD2E
331
22AD2F
331
22AD30
331
22AD31
331
22AD32
331
22AD33
331
22AD34
331
22AD35
331
22AD36
331
22AD37
331
22AD38
331
22AD39
331
22AD3A
331
22AD3B
331
22AD3C
331
22AD3D
331
22AD3E
331
22AD3F
331
22AD40
331
22AD41
331
22AD42
331
22AD43
331
22AD44
331
22AD45
331
22AD46
331
22AD47
331
22AD48
331
22AD49
331
22AD4A
331
22AD4B
331
22AD4C
331
22AD4D
331
22AD4E
331
22AD4F
331
22AD50
331
22AD51
331
22AD52
331
22AD53
331
22AD54
331
22AD55
331
22AD56
331
22AD57
331
22AD58
331
22AD59
331
22AD5A
331
22AD5B
331
22AD5C
331
22AD5D
331
22AD5E
331
22AD5F
331
22AD60
331
22AD61
331
22AD62
331
22AD63
331
22AD64
331
22AD65
331
22AD66
331
22AD67
331
22AD68
331
22AD69
331
22AD6A
331
22AD6B
331
22AD6C
331
22AD6D
331
22AD6E
331
22AD6F
331
22AD70
331
22AD71
331
22AD72
331
22AD73
331
22AD74
331
22AD75
331
22AD76
331
22AD77
331
22AD78
331
22AD79
331
22AD7A
331
22AD7B
331
22AD7C
331
22AD7D
331
22AD7E
331
22AD7F
331
22AD80
331
22AD81
331
22AD82
331
22AD83
331
22AD84
331
22AD85
331
22AD86
331
22AD87
331
22AD88
331
22AD89
331
22AD8A
331
22AD8B
331
22AD8C
331
22AD8D
331
22AD8E
331
22AD8F
331
22AD90
331
22AD91
331
22AD92
331
22AD93
331
22AD94
331
22AD95
331
22AD96
331
22AD97
331
22AD98
331
22AD99
331
22AD9A
331
22AD9B
331
22AD9C
331
22AD9D
331
22AD9E
331
22AD9F
331
22ADA0
331
22ADA1
331
22ADA2
331
22ADA3
331
22ADA4
331
22ADA5
331
22ADA6
331
22ADA7
331
22ADA8
331
22ADA9
331
22ADAA
331
22ADAB
331
22ADAC
331
22ADAD
331
22ADAE
331
22ADAF
331
22ADB0
331
22ADB1
331
22ADB2
331
22ADB3
331
22ADB4
331
22ADB5
331
22ADB6
331
22ADB7
331
22AE88
331
22AE89
331
22AE8A
331
22AE8B
331
22AE8C
331
22AE8D
331
22AE8E
331
22AE8F
331
22AE90
331
22AE91
331
22AE92
331
22AE93
331
22AE94
331
22AE95
331
22AE96
331
22AE97
331
22AE98
331
22AE99
331
22AE9A
331
22AE9B
331
22AE9C
331
22AE9D
331
22AE9E
331
22AE9F
331
22AEA0
331
22AEA1
331
22AEA2
331
22AEA3
331
22AEA4
331
22AEA5
331
22AEA6
331
22AEA7
331
22AEA8
331
22AEA9
331
22AEAA
331
22AEAB
331
22AEAC
331
22AEAD
331
22AEAE
331
22AEAF
331
22AEB0
331
22AEB1
331
22AEB2
331
22AEB3
102
}
1001
ACAD
1000
DesignCenter Data
1002
{
1070
     1
1070
     4
1002
}
  0
BLOCK_RECORD
  5
22AA95
330
1
100
AcDbSymbolTableRecord
100
AcDbBlockTableRecord
  2
rrrrttd
340
0
310
2800000020000000200000000100080000000000000400000000000000000000000000000000000000000000000080000080000000808000800000008000800080800000C0C0C000C0DCC000F0CAA6000020400000206000002080000020A0000020C0000020E00000400000004020000040400000406000004080000040A0
310
000040C0000040E00000600000006020000060400000606000006080000060A0000060C0000060E00000800000008020000080400000806000008080000080A0000080C0000080E00000A0000000A0200000A0400000A0600000A0800000A0A00000A0C00000A0E00000C0000000C0200000C0400000C0600000C0800000C0
310
A00000C0C00000C0E00000E0000000E0200000E0400000E0600000E0800000E0A00000E0C00000E0E00040000000400020004000400040006000400080004000A0004000C0004000E00040200000402020004020400040206000402080004020A0004020C0004020E000404000004040200040404000404060004040800040
310
40A0004040C0004040E00040600000406020004060400040606000406080004060A0004060C0004060E00040800000408020004080400040806000408080004080A0004080C0004080E00040A0000040A0200040A0400040A0600040A0800040A0A00040A0C00040A0E00040C0000040C0200040C0400040C0600040C08000
310
40C0A00040C0C00040C0E00040E0000040E0200040E0400040E0600040E0800040E0A00040E0C00040E0E00080000000800020008000400080006000800080008000A0008000C0008000E00080200000802020008020400080206000802080008020A0008020C0008020E00080400000804020008040400080406000804080
310
008040A0008040C0008040E00080600000806020008060400080606000806080008060A0008060C0008060E00080800000808020008080400080806000808080008080A0008080C0008080E00080A0000080A0200080A0400080A0600080A0800080A0A00080A0C00080A0E00080C0000080C0200080C0400080C0600080C0
310
800080C0A00080C0C00080C0E00080E0000080E0200080E0400080E0600080E0800080E0A00080E0C00080E0E000C0000000C0002000C0004000C0006000C0008000C000A000C000C000C000E000C0200000C0202000C0204000C0206000C0208000C020A000C020C000C020E000C0400000C0402000C0404000C0406000C0
310
408000C040A000C040C000C040E000C0600000C0602000C0604000C0606000C0608000C060A000C060C000C060E000C0800000C0802000C0804000C0806000C0808000C080A000C080C000C080E000C0A00000C0A02000C0A04000C0A06000C0A08000C0A0A000C0A0C000C0A0E000C0C00000C0C02000C0C04000C0C06000
310
C0C08000C0C0A000F0FBFF00A4A0A000808080000000FF0000FF000000FFFF00FF000000FF00FF00FFFF0000FFFFFF0049494949494949494949494949494949494949494949494949494949494949494949494949494949494949494949494949494949494949494949494949494949494949494949494949494949494949
310
49494949494949494949494949494949494949494949494949494949494949494949494949494949494949494949494949494949494949494949494949494949494949494949494949494949494949494949494949494949494949494949494949494949494949494949494949494949494949494949494949494949494949
310
49494949494949494949494949494949494949494949494949494949494949494949494949494949494949494949494949494949494949494949494949494949494949494949494949494949494949494949494949494949494949494949494949494949494949494949494949494949494949FEFEFEFEFEFEFEFEFEFEFEFE
310
FEFEFEFEFEFEFEFEFEFEFEFEFEFEFEFEFEFE4949FE49494949494949494949494949494949494949494949494949494949494949FE49494949494949494949494949494949494949494949494949494949494949FE49494949494949494949494949494949494949494949494949494949494949FE49494949494949494949
310
494949494949494949494949494949494949494949FE49494949494949494949494949494949494949494949494949494949494949FE49494949494949494949494949494949494949494949494949494949494949FE49494949494949494949494949494949494949494949494949494949494949FE494949494949494949
310
49494949494949494949494949494949494949494949FE49494949494949494949494949494949494949494949494949494949494949FE49494949494949494949494949494949494949494949494949494949494949FEFEFEFEFEFEFEFEFEFEFEFEFEFEFEFEFEFEFEFEFEFEFEFEFEFEFEFEFEFE4949494949494949494949
310
49494949494949494949494949494949494949494949494949494949494949494949494949494949494949494949494949494949494949494949494949494949494949494949494949494949494949494949494949494949494949494949494949494949494949494949494949494949494949494949494949494949494949
310
49494949494949494949494949494949494949494949494949494949494949494949494949494949494949494949494949494949494949494949494949494949494949494949494949494949494949494949494949494949494949494949494949494949494949494949494949494949494949494949494949494949494949
310
4949494949494949494949494949494949494949494949494949494949494949494949494949494949494949494949494949494949494949
102
{BLKREFS
331
22AEE5
331
22AEE6
331
22AEE7
331
22AEE8
331
22AEE9
331
22AEEA
331
22AEEE
331
22AEEF
331
22AEF0
331
22AEF1
331
22AEF2
331
22AEF3
331
22AEF4
331
22AEF8
331
22AEF9
331
22AEFA
331
22AEE4
102
}
1001
ACAD
1000
DesignCenter Data
1002
{
1070
     1
1070
     4
1002
}
  0
BLOCK_RECORD
  5
22AD17
330
1
100
AcDbSymbolTableRecord
100
AcDbBlockTableRecord
  2
werwerrr
340
0
310
2800000020000000200000000100080000000000000400000000000000000000000000000000000000000000000080000080000000808000800000008000800080800000C0C0C000C0DCC000F0CAA6000020400000206000002080000020A0000020C0000020E00000400000004020000040400000406000004080000040A0
310
000040C0000040E00000600000006020000060400000606000006080000060A0000060C0000060E00000800000008020000080400000806000008080000080A0000080C0000080E00000A0000000A0200000A0400000A0600000A0800000A0A00000A0C00000A0E00000C0000000C0200000C0400000C0600000C0800000C0
310
A00000C0C00000C0E00000E0000000E0200000E0400000E0600000E0800000E0A00000E0C00000E0E00040000000400020004000400040006000400080004000A0004000C0004000E00040200000402020004020400040206000402080004020A0004020C0004020E000404000004040200040404000404060004040800040
310
40A0004040C0004040E00040600000406020004060400040606000406080004060A0004060C0004060E00040800000408020004080400040806000408080004080A0004080C0004080E00040A0000040A0200040A0400040A0600040A0800040A0A00040A0C00040A0E00040C0000040C0200040C0400040C0600040C08000
310
40C0A00040C0C00040C0E00040E0000040E0200040E0400040E0600040E0800040E0A00040E0C00040E0E00080000000800020008000400080006000800080008000A0008000C0008000E00080200000802020008020400080206000802080008020A0008020C0008020E00080400000804020008040400080406000804080
310
008040A0008040C0008040E00080600000806020008060400080606000806080008060A0008060C0008060E00080800000808020008080400080806000808080008080A0008080C0008080E00080A0000080A0200080A0400080A0600080A0800080A0A00080A0C00080A0E00080C0000080C0200080C0400080C0600080C0
310
800080C0A00080C0C00080C0E00080E0000080E0200080E0400080E0600080E0800080E0A00080E0C00080E0E000C0000000C0002000C0004000C0006000C0008000C000A000C000C000C000E000C0200000C0202000C0204000C0206000C0208000C020A000C020C000C020E000C0400000C0402000C0404000C0406000C0
310
408000C040A000C040C000C040E000C0600000C0602000C0604000C0606000C0608000C060A000C060C000C060E000C0800000C0802000C0804000C0806000C0808000C080A000C080C000C080E000C0A00000C0A02000C0A04000C0A06000C0A08000C0A0A000C0A0C000C0A0E000C0C00000C0C02000C0C04000C0C06000
310
C0C08000C0C0A000F0FBFF00A4A0A000808080000000FF0000FF000000FFFF00FF000000FF00FF00FFFF0000FFFFFF0049494949494949494949494949494949494949494949494949494949494949494949494949494949494949494949494949494949494949494949494949494949494949494949494949494949494949
310
494949494949494949494949494949494949494949494949494949494949494949494949494949494949494949494949494949494949494949494949494949494949494949494949494949494949494949494949494949494949494949494949494949494949494949494949494949494949FBFBFEFBFEFEFEFEFBFEFEFEFE
310
FBFEFBFEFEFEFEFBFEFBFEFEFEFBFBFBFB4949FEFEFEFEFEFEFEFEFEFEFEFEFEFEFEFEFEFEFEFEFEFEFEFEFEFEFEFEFEFE4949FEFEFEFEFEFEFEFEFEFEFEFEFEFEFEFEFEFEFEFEFEFEFEFEFEFEFEFEFEFE4949FEFEFEFEFEFEFEFEFEFEFEFEFEFEFEFEFEFEFEFEFEFEFEFEFEFEFEFEFEFE4949FEFEFEFEFEFEFEFEFEFEFEFE
310
FEFEFEFEFEFEFEFEFEFEFEFEFEFEFEFEFEFE4949FEFEFEFEFEFEFEFEFEFEFEFEFEFEFEFEFEFEFEFEFEFEFEFEFEFEFEFEFEFE4949FEFEFEFEFEFEFEFEFEFEFEFEFEFEFEFEFEFEFEFEFEFEFEFEFEFEFEFEFEFE4949FEFEFEFEFEFEFEFEFEFEFEFEFEFEFEFEFEFEFEFEFEFEFEFEFEFEFEFEFEFE4949FEFEFEFEFEFEFEFEFEFEFE
310
FEFEFEFEFEFEFEFEFEFEFEFEFEFEFEFEFEFEFE4949FEFEFEFEFEFEFEFEFEFEFEFEFEFEFEFEFEFEFEFEFEFEFEFEFEFEFEFEFEFE4949FEFEFEFEFEFEFEFEFEFEFEFEFEFEFEFEFEFEFEFEFEFEFEFEFEFEFEFEFEFE4949FEFEFEFEFEFEFEFEFEFEFEFEFEFEFEFEFEFEFEFEFEFEFEFEFEFEFEFEFEFE4949FEFEFEFEFEFEFEFEFEFE
310
FEFEFEFEFEFEFEFEFEFEFEFEFEFEFEFEFEFEFEFE4949FEFEFEFEFEFEFEFEFEFEFEFEFEFEFEFEFEFEFEFEFEFEFEFEFEFEFEFEFEFE4949FEFEFEFEFEFEFEFEFEFEFEFEFEFEFEFEFEFEFEFEFEFEFEFEFEFEFEFEFEFE4949FEFEFEFEFEFEFEFEFEFEFEFEFEFEFEFEFEFEFEFEFEFEFEFEFEFEFEFEFEFE4949FBFEFEFEFEFEFEFEFE
310
FEFEFEFEFEFEFEFEFEFEFEFEFEFEFEFEFEFEFEFEFE4949FBFEFEFEFEFEFEFEFEFEFEFEFEFEFEFEFEFEFEFEFEFEFEFEFEFEFEFEFEFE4949FBFEFEFEFEFEFEFEFEFEFEFEFEFEFEFEFEFEFEFEFEFEFEFEFEFEFEFEFEFE4949FBFBFBFBFBFEFEFEFBFEFBFEFEFBFEFBFEFEFEFEFBFEFBFEFEFEFEFBFEFB49494949494949494949
310
49494949494949494949494949494949494949494949494949494949494949494949494949494949494949494949494949494949494949494949494949494949494949494949494949494949494949494949494949494949494949494949494949494949494949494949494949494949494949494949494949494949494949
310
4949494949494949494949494949494949494949494949494949494949494949494949494949494949494949494949494949494949494949
102
{BLKREFS
331
22AF64
102
}
1001
ACAD
1000
DesignCenter Data
1002
{
1070
     1
1070
     4
1002
}
  0
ENDTAB
  0
ENDSEC
  0
SECTION
  2
BLOCKS
  0
BLOCK
  5
6D
330
6C
100
AcDbEntity
  8
0
100
AcDbBlockBegin
  2
*Model_Space
 70
     0
 10
0.0
 20
0.0
 30
0.0
  3
*Model_Space
  1

  0
ENDBLK
  5
6E
330
6C
100
AcDbEntity
  8
0
100
AcDbBlockEnd
  0
BLOCK
  5
69
330
68
100
AcDbEntity
 67
     1
  8
0
100
AcDbBlockBegin
  2
*Paper_Space
 70
     0
 10
0.0
 20
0.0
 30
0.0
  3
*Paper_Space
  1

  0
ENDBLK
  5
6A
330
68
100
AcDbEntity
 67
     1
  8
0
100
AcDbBlockEnd
  0
BLOCK
  5
71
330
70
100
AcDbEntity
 67
     1
  8
0
100
AcDbBlockBegin
  2
*Paper_Space0
 70
     0
 10
0.0
 20
0.0
 30
0.0
  3
*Paper_Space0
  1

  0
ENDBLK
  5
72
330
70
100
AcDbEntity
 67
     1
  8
0
100
AcDbBlockEnd
  0
BLOCK
  5
22E42
330
22E40
100
AcDbEntity
  8
0
100
AcDbBlockBegin
  2
GENAXEH
 70
     0
 10
0.0
 20
0.0
 30
0.0
  3
GENAXEH
  1

  0
LINE
  5
22E41
330
22E40
100
AcDbEntity
  8
0
100
AcDbLine
 10
-1.0
 20
0.0
 30
0.0
 11
1.0
 21
0.0
 31
0.0
  0
ENDBLK
  5
22E43
330
22E40
100
AcDbEntity
  8
0
100
AcDbBlockEnd
  0
BLOCK
  5
22A02B
330
22A028
100
AcDbEntity
  8
0
 62
     4
100
AcDbBlockBegin
  2
gggr
 70
     0
 10
0.0
 20
0.0
 30
0.0
  3
gggr
  1

  0
LINE
  5
22A02C
330
22A028
100
AcDbEntity
  8
0
 62
     4
100
AcDbLine
 10
17916.25157304843
 20
957.0037572179572
 30
0.0
 11
18007.25157304843
 21
957.0037572179572
 31
0.0
  0
LINE
  5
22A02D
330
22A028
100
AcDbEntity
  8
0
 62
     4
100
AcDbLine
 10
18007.25157304843
 20
957.0037572179572
 30
0.0
 11
18007.25157304843
 21
932.0037572179572
 31
0.0
  0
LINE
  5
22A02E
330
22A028
100
AcDbEntity
  8
0
 62
     4
100
AcDbLine
 10
18007.25157304843
 20
932.0037572179572
 30
0.0
 11
17916.25157304843
 21
932.0037572179572
 31
0.0
  0
LINE
  5
22A02F
330
22A028
100
AcDbEntity
  8
0
 62
     4
100
AcDbLine
 10
17916.25157304843
 20
932.0037572179572
 30
0.0
 11
17916.25157304843
 21
957.0037572179572
 31
0.0
  0
ENDBLK
  5
22A030
330
22A028
100
AcDbEntity
  8
0
 62
     4
100
AcDbBlockEnd
  0
BLOCK
  5
22AA96
330
22AA95
100
AcDbEntity
  8
0
100
AcDbBlockBegin
  2
rrrrttd
 70
     0
 10
0.0
 20
0.0
 30
0.0
  3
rrrrttd
  1

  0
LINE
  5
22AA98
330
22AA95
100
AcDbEntity
  8
0
 62
     4
100
AcDbLine
 10
40818.32729611468
 20
-744.6161928849415
 30
0.0
 11
40883.22332817352
 21
-744.6161928849415
 31
0.0
  0
LINE
  5
22AA99
330
22AA95
100
AcDbEntity
  8
0
 62
     4
100
AcDbLine
 10
40883.22332817352
 20
-769.6161928849416
 30
0.0
 11
40818.32729611468
 21
-769.6161928849415
 31
0.0
  0
LINE
  5
22AA9A
330
22AA95
100
AcDbEntity
  8
0
 62
     4
100
AcDbLine
 10
40818.32729611468
 20
-769.6161928849415
 30
0.0
 11
40818.32729611468
 21
-744.6161928849415
 31
0.0
  0
ENDBLK
  5
22AA97
330
22AA95
100
AcDbEntity
  8
0
100
AcDbBlockEnd
  0
BLOCK
  5
22AD18
330
22AD17
100
AcDbEntity
  8
0
100
AcDbBlockBegin
  2
werwerrr
 70
     0
 10
0.0
 20
0.0
 30
0.0
  3
werwerrr
  1

  0
INSERT
  5
22AD1A
330
22AD17
100
AcDbEntity
  8
0
 62
     7
100
AcDbBlockReference
  2
gggr
 10
21472.07572306625
 20
-1801.619950102898
 30
0.0
  0
INSERT
  5
22AD1B
330
22AD17
100
AcDbEntity
  8
0
 62
     7
100
AcDbBlockReference
  2
gggr
 10
21537.07572306625
 20
-1826.619950102898
 30
0.0
  0
INSERT
  5
22AD1C
330
22AD17
100
AcDbEntity
  8
0
 62
     7
100
AcDbBlockReference
  2
gggr
 10
21472.07572306625
 20
-1851.619950102898
 30
0.0
  0
INSERT
  5
22AD1D
330
22AD17
100
AcDbEntity
  8
0
 62
     7
100
AcDbBlockReference
  2
gggr
 10
21537.07572306625
 20
-1876.619950102898
 30
0.0
  0
INSERT
  5
22AD1E
330
22AD17
100
AcDbEntity
  8
0
 62
     7
100
AcDbBlockReference
  2
gggr
 10
21472.07572306625
 20
-1901.619950102898
 30
0.0
  0
INSERT
  5
22AD1F
330
22AD17
100
AcDbEntity
  8
0
 62
     7
100
AcDbBlockReference
  2
gggr
 10
21537.07572306625
 20
-1926.619950102898
 30
0.0
  0
INSERT
  5
22AD20
330
22AD17
100
AcDbEntity
  8
0
 62
     7
100
AcDbBlockReference
  2
gggr
 10
21472.07572306625
 20
-1951.619950102898
 30
0.0
  0
INSERT
  5
22AD21
330
22AD17
100
AcDbEntity
  8
0
 62
     7
100
AcDbBlockReference
  2
gggr
 10
21537.07572306625
 20
-1976.619950102898
 30
0.0
  0
INSERT
  5
22AD22
330
22AD17
100
AcDbEntity
  8
0
 62
     7
100
AcDbBlockReference
  2
gggr
 10
21472.07572306625
 20
-2001.619950102899
 30
0.0
  0
INSERT
  5
22AD23
330
22AD17
100
AcDbEntity
  8
0
 62
     7
100
AcDbBlockReference
  2
gggr
 10
21537.07572306625
 20
-2026.619950102899
 30
0.0
  0
INSERT
  5
22AD24
330
22AD17
100
AcDbEntity
  8
0
 62
     7
100
AcDbBlockReference
  2
gggr
 10
21472.07572306625
 20
-2051.619950102899
 30
0.0
  0
INSERT
  5
22AD25
330
22AD17
100
AcDbEntity
  8
0
 62
     7
100
AcDbBlockReference
  2
gggr
 10
21537.07572306625
 20
-2076.619950102899
 30
0.0
  0
INSERT
  5
22AD26
330
22AD17
100
AcDbEntity
  8
0
 62
     7
100
AcDbBlockReference
  2
gggr
 10
21472.07572306625
 20
-2101.619950102898
 30
0.0
  0
INSERT
  5
22AD27
330
22AD17
100
AcDbEntity
  8
0
 62
     7
100
AcDbBlockReference
  2
gggr
 10
21537.07572306625
 20
-2126.619950102899
 30
0.0
  0
INSERT
  5
22AD28
330
22AD17
100
AcDbEntity
  8
0
 62
     7
100
AcDbBlockReference
  2
gggr
 10
21472.07572306625
 20
-2151.619950102899
 30
0.0
  0
INSERT
  5
22AD29
330
22AD17
100
AcDbEntity
  8
0
 62
     7
100
AcDbBlockReference
  2
gggr
 10
21537.07572306625
 20
-2176.619950102899
 30
0.0
  0
INSERT
  5
22AD2A
330
22AD17
100
AcDbEntity
  8
0
 62
     7
100
AcDbBlockReference
  2
gggr
 10
21472.07572306625
 20
-2201.619950102899
 30
0.0
  0
INSERT
  5
22AD2B
330
22AD17
100
AcDbEntity
  8
0
 62
     7
100
AcDbBlockReference
  2
gggr
 10
21537.07572306625
 20
-2226.619950102898
 30
0.0
  0
INSERT
  5
22AD2C
330
22AD17
100
AcDbEntity
  8
0
 62
     7
100
AcDbBlockReference
  2
gggr
 10
21472.07572306625
 20
-2251.619950102899
 30
0.0
  0
INSERT
  5
22AD2D
330
22AD17
100
AcDbEntity
  8
0
 62
     7
100
AcDbBlockReference
  2
gggr
 10
21537.07572306625
 20
-2276.619950102899
 30
0.0
  0
INSERT
  5
22AD2E
330
22AD17
100
AcDbEntity
  8
0
 62
     7
100
AcDbBlockReference
  2
gggr
 10
21472.07572306625
 20
-2301.619950102899
 30
0.0
  0
INSERT
  5
22AD2F
330
22AD17
100
AcDbEntity
  8
0
 62
     7
100
AcDbBlockReference
  2
gggr
 10
21537.07572306625
 20
-2326.619950102899
 30
0.0
  0
INSERT
  5
22AD30
330
22AD17
100
AcDbEntity
  8
0
 62
     7
100
AcDbBlockReference
  2
gggr
 10
21472.07572306625
 20
-2351.619950102898
 30
0.0
  0
INSERT
  5
22AD31
330
22AD17
100
AcDbEntity
  8
0
 62
     7
100
AcDbBlockReference
  2
gggr
 10
21537.07572306625
 20
-2376.619950102899
 30
0.0
  0
INSERT
  5
22AD32
330
22AD17
100
AcDbEntity
  8
0
 62
     7
100
AcDbBlockReference
  2
gggr
 10
21472.07572306625
 20
-2401.619950102899
 30
0.0
  0
INSERT
  5
22AD33
330
22AD17
100
AcDbEntity
  8
0
 62
     7
100
AcDbBlockReference
  2
gggr
 10
21537.07572306625
 20
-2426.619950102899
 30
0.0
  0
INSERT
  5
22AD34
330
22AD17
100
AcDbEntity
  8
0
 62
     7
100
AcDbBlockReference
  2
gggr
 10
21472.07572306625
 20
-2451.619950102899
 30
0.0
  0
INSERT
  5
22AD35
330
22AD17
100
AcDbEntity
  8
0
 62
     7
100
AcDbBlockReference
  2
gggr
 10
21537.07572306625
 20
-2476.619950102899
 30
0.0
  0
INSERT
  5
22AD36
330
22AD17
100
AcDbEntity
  8
0
 62
     7
100
AcDbBlockReference
  2
gggr
 10
21602.07572306625
 20
-1801.619950102898
 30
0.0
  0
INSERT
  5
22AD37
330
22AD17
100
AcDbEntity
  8
0
 62
     7
100
AcDbBlockReference
  2
gggr
 10
21667.07572306625
 20
-1826.619950102898
 30
0.0
  0
INSERT
  5
22AD38
330
22AD17
100
AcDbEntity
  8
0
 62
     7
100
AcDbBlockReference
  2
gggr
 10
21602.07572306625
 20
-1851.619950102898
 30
0.0
  0
INSERT
  5
22AD39
330
22AD17
100
AcDbEntity
  8
0
 62
     7
100
AcDbBlockReference
  2
gggr
 10
21667.07572306625
 20
-1876.619950102898
 30
0.0
  0
INSERT
  5
22AD3A
330
22AD17
100
AcDbEntity
  8
0
 62
     7
100
AcDbBlockReference
  2
gggr
 10
21602.07572306625
 20
-1901.619950102898
 30
0.0
  0
INSERT
  5
22AD3B
330
22AD17
100
AcDbEntity
  8
0
 62
     7
100
AcDbBlockReference
  2
gggr
 10
21667.07572306625
 20
-1926.619950102898
 30
0.0
  0
INSERT
  5
22AD3C
330
22AD17
100
AcDbEntity
  8
0
 62
     7
100
AcDbBlockReference
  2
gggr
 10
21602.07572306625
 20
-1951.619950102898
 30
0.0
  0
INSERT
  5
22AD3D
330
22AD17
100
AcDbEntity
  8
0
 62
     7
100
AcDbBlockReference
  2
gggr
 10
21667.07572306625
 20
-1976.619950102898
 30
0.0
  0
INSERT
  5
22AD3E
330
22AD17
100
AcDbEntity
  8
0
 62
     7
100
AcDbBlockReference
  2
gggr
 10
21602.07572306625
 20
-2001.619950102899
 30
0.0
  0
INSERT
  5
22AD3F
330
22AD17
100
AcDbEntity
  8
0
 62
     7
100
AcDbBlockReference
  2
gggr
 10
21667.07572306625
 20
-2026.619950102899
 30
0.0
  0
INSERT
  5
22AD40
330
22AD17
100
AcDbEntity
  8
0
 62
     7
100
AcDbBlockReference
  2
gggr
 10
21602.07572306625
 20
-2051.619950102899
 30
0.0
  0
INSERT
  5
22AD41
330
22AD17
100
AcDbEntity
  8
0
 62
     7
100
AcDbBlockReference
  2
gggr
 10
21667.07572306625
 20
-2076.619950102899
 30
0.0
  0
INSERT
  5
22AD42
330
22AD17
100
AcDbEntity
  8
0
 62
     7
100
AcDbBlockReference
  2
gggr
 10
21602.07572306625
 20
-2101.619950102898
 30
0.0
  0
INSERT
  5
22AD43
330
22AD17
100
AcDbEntity
  8
0
 62
     7
100
AcDbBlockReference
  2
gggr
 10
21667.07572306625
 20
-2126.619950102899
 30
0.0
  0
INSERT
  5
22AD44
330
22AD17
100
AcDbEntity
  8
0
 62
     7
100
AcDbBlockReference
  2
gggr
 10
21602.07572306625
 20
-2151.619950102899
 30
0.0
  0
INSERT
  5
22AD45
330
22AD17
100
AcDbEntity
  8
0
 62
     7
100
AcDbBlockReference
  2
gggr
 10
21667.07572306625
 20
-2176.619950102899
 30
0.0
  0
INSERT
  5
22AD46
330
22AD17
100
AcDbEntity
  8
0
 62
     7
100
AcDbBlockReference
  2
gggr
 10
21602.07572306625
 20
-2201.619950102899
 30
0.0
  0
INSERT
  5
22AD47
330
22AD17
100
AcDbEntity
  8
0
 62
     7
100
AcDbBlockReference
  2
gggr
 10
21667.07572306625
 20
-2226.619950102898
 30
0.0
  0
INSERT
  5
22AD48
330
22AD17
100
AcDbEntity
  8
0
 62
     7
100
AcDbBlockReference
  2
gggr
 10
21602.07572306625
 20
-2251.619950102899
 30
0.0
  0
INSERT
  5
22AD49
330
22AD17
100
AcDbEntity
  8
0
 62
     7
100
AcDbBlockReference
  2
gggr
 10
21667.07572306625
 20
-2276.619950102899
 30
0.0
  0
INSERT
  5
22AD4A
330
22AD17
100
AcDbEntity
  8
0
 62
     7
100
AcDbBlockReference
  2
gggr
 10
21602.07572306625
 20
-2301.619950102899
 30
0.0
  0
INSERT
  5
22AD4B
330
22AD17
100
AcDbEntity
  8
0
 62
     7
100
AcDbBlockReference
  2
gggr
 10
21667.07572306625
 20
-2326.619950102899
 30
0.0
  0
INSERT
  5
22AD4C
330
22AD17
100
AcDbEntity
  8
0
 62
     7
100
AcDbBlockReference
  2
gggr
 10
21602.07572306625
 20
-2351.619950102898
 30
0.0
  0
INSERT
  5
22AD4D
330
22AD17
100
AcDbEntity
  8
0
 62
     7
100
AcDbBlockReference
  2
gggr
 10
21667.07572306625
 20
-2376.619950102899
 30
0.0
  0
INSERT
  5
22AD4E
330
22AD17
100
AcDbEntity
  8
0
 62
     7
100
AcDbBlockReference
  2
gggr
 10
21602.07572306625
 20
-2401.619950102899
 30
0.0
  0
INSERT
  5
22AD4F
330
22AD17
100
AcDbEntity
  8
0
 62
     7
100
AcDbBlockReference
  2
gggr
 10
21667.07572306625
 20
-2426.619950102899
 30
0.0
  0
INSERT
  5
22AD50
330
22AD17
100
AcDbEntity
  8
0
 62
     7
100
AcDbBlockReference
  2
gggr
 10
21602.07572306625
 20
-2451.619950102899
 30
0.0
  0
INSERT
  5
22AD51
330
22AD17
100
AcDbEntity
  8
0
 62
     7
100
AcDbBlockReference
  2
gggr
 10
21667.07572306625
 20
-2476.619950102899
 30
0.0
  0
INSERT
  5
22AD52
330
22AD17
100
AcDbEntity
  8
0
 62
     7
100
AcDbBlockReference
  2
gggr
 10
21732.07572306625
 20
-1801.619950102898
 30
0.0
  0
INSERT
  5
22AD53
330
22AD17
100
AcDbEntity
  8
0
 62
     7
100
AcDbBlockReference
  2
gggr
 10
21797.07572306625
 20
-1826.619950102898
 30
0.0
  0
INSERT
  5
22AD54
330
22AD17
100
AcDbEntity
  8
0
 62
     7
100
AcDbBlockReference
  2
gggr
 10
21732.07572306625
 20
-1851.619950102898
 30
0.0
  0
INSERT
  5
22AD55
330
22AD17
100
AcDbEntity
  8
0
 62
     7
100
AcDbBlockReference
  2
gggr
 10
21797.07572306625
 20
-1876.619950102898
 30
0.0
  0
INSERT
  5
22AD56
330
22AD17
100
AcDbEntity
  8
0
 62
     7
100
AcDbBlockReference
  2
gggr
 10
21732.07572306625
 20
-1901.619950102898
 30
0.0
  0
INSERT
  5
22AD57
330
22AD17
100
AcDbEntity
  8
0
 62
     7
100
AcDbBlockReference
  2
gggr
 10
21797.07572306625
 20
-1926.619950102898
 30
0.0
  0
INSERT
  5
22AD58
330
22AD17
100
AcDbEntity
  8
0
 62
     7
100
AcDbBlockReference
  2
gggr
 10
21732.07572306625
 20
-1951.619950102898
 30
0.0
  0
INSERT
  5
22AD59
330
22AD17
100
AcDbEntity
  8
0
 62
     7
100
AcDbBlockReference
  2
gggr
 10
21797.07572306625
 20
-1976.619950102898
 30
0.0
  0
INSERT
  5
22AD5A
330
22AD17
100
AcDbEntity
  8
0
 62
     7
100
AcDbBlockReference
  2
gggr
 10
21732.07572306625
 20
-2001.619950102899
 30
0.0
  0
INSERT
  5
22AD5B
330
22AD17
100
AcDbEntity
  8
0
 62
     7
100
AcDbBlockReference
  2
gggr
 10
21797.07572306625
 20
-2026.619950102899
 30
0.0
  0
INSERT
  5
22AD5C
330
22AD17
100
AcDbEntity
  8
0
 62
     7
100
AcDbBlockReference
  2
gggr
 10
21732.07572306625
 20
-2051.619950102899
 30
0.0
  0
INSERT
  5
22AD5D
330
22AD17
100
AcDbEntity
  8
0
 62
     7
100
AcDbBlockReference
  2
gggr
 10
21797.07572306625
 20
-2076.619950102899
 30
0.0
  0
INSERT
  5
22AD5E
330
22AD17
100
AcDbEntity
  8
0
 62
     7
100
AcDbBlockReference
  2
gggr
 10
21732.07572306625
 20
-2101.619950102898
 30
0.0
  0
INSERT
  5
22AD5F
330
22AD17
100
AcDbEntity
  8
0
 62
     7
100
AcDbBlockReference
  2
gggr
 10
21797.07572306625
 20
-2126.619950102899
 30
0.0
  0
INSERT
  5
22AD60
330
22AD17
100
AcDbEntity
  8
0
 62
     7
100
AcDbBlockReference
  2
gggr
 10
21732.07572306625
 20
-2151.619950102899
 30
0.0
  0
INSERT
  5
22AD61
330
22AD17
100
AcDbEntity
  8
0
 62
     7
100
AcDbBlockReference
  2
gggr
 10
21797.07572306625
 20
-2176.619950102899
 30
0.0
  0
INSERT
  5
22AD62
330
22AD17
100
AcDbEntity
  8
0
 62
     7
100
AcDbBlockReference
  2
gggr
 10
21732.07572306625
 20
-2201.619950102899
 30
0.0
  0
INSERT
  5
22AD63
330
22AD17
100
AcDbEntity
  8
0
 62
     7
100
AcDbBlockReference
  2
gggr
 10
21797.07572306625
 20
-2226.619950102898
 30
0.0
  0
INSERT
  5
22AD64
330
22AD17
100
AcDbEntity
  8
0
 62
     7
100
AcDbBlockReference
  2
gggr
 10
21732.07572306625
 20
-2251.619950102899
 30
0.0
  0
INSERT
  5
22AD65
330
22AD17
100
AcDbEntity
  8
0
 62
     7
100
AcDbBlockReference
  2
gggr
 10
21797.07572306625
 20
-2276.619950102899
 30
0.0
  0
INSERT
  5
22AD66
330
22AD17
100
AcDbEntity
  8
0
 62
     7
100
AcDbBlockReference
  2
gggr
 10
21732.07572306625
 20
-2301.619950102899
 30
0.0
  0
INSERT
  5
22AD67
330
22AD17
100
AcDbEntity
  8
0
 62
     7
100
AcDbBlockReference
  2
gggr
 10
21797.07572306625
 20
-2326.619950102899
 30
0.0
  0
INSERT
  5
22AD68
330
22AD17
100
AcDbEntity
  8
0
 62
     7
100
AcDbBlockReference
  2
gggr
 10
21732.07572306625
 20
-2351.619950102898
 30
0.0
  0
INSERT
  5
22AD69
330
22AD17
100
AcDbEntity
  8
0
 62
     7
100
AcDbBlockReference
  2
gggr
 10
21797.07572306625
 20
-2376.619950102899
 30
0.0
  0
INSERT
  5
22AD6A
330
22AD17
100
AcDbEntity
  8
0
 62
     7
100
AcDbBlockReference
  2
gggr
 10
21732.07572306625
 20
-2401.619950102899
 30
0.0
  0
INSERT
  5
22AD6B
330
22AD17
100
AcDbEntity
  8
0
 62
     7
100
AcDbBlockReference
  2
gggr
 10
21797.07572306625
 20
-2426.619950102899
 30
0.0
  0
INSERT
  5
22AD6C
330
22AD17
100
AcDbEntity
  8
0
 62
     7
100
AcDbBlockReference
  2
gggr
 10
21732.07572306625
 20
-2451.619950102899
 30
0.0
  0
INSERT
  5
22AD6D
330
22AD17
100
AcDbEntity
  8
0
 62
     7
100
AcDbBlockReference
  2
gggr
 10
21797.07572306625
 20
-2476.619950102899
 30
0.0
  0
INSERT
  5
22AD6E
330
22AD17
100
AcDbEntity
  8
0
 62
     7
100
AcDbBlockReference
  2
gggr
 10
21862.07572306625
 20
-1801.619950102898
 30
0.0
  0
INSERT
  5
22AD6F
330
22AD17
100
AcDbEntity
  8
0
 62
     7
100
AcDbBlockReference
  2
gggr
 10
21927.07572306625
 20
-1826.619950102898
 30
0.0
  0
INSERT
  5
22AD70
330
22AD17
100
AcDbEntity
  8
0
 62
     7
100
AcDbBlockReference
  2
gggr
 10
21862.07572306625
 20
-1851.619950102898
 30
0.0
  0
INSERT
  5
22AD71
330
22AD17
100
AcDbEntity
  8
0
 62
     7
100
AcDbBlockReference
  2
gggr
 10
21927.07572306625
 20
-1876.619950102898
 30
0.0
  0
INSERT
  5
22AD72
330
22AD17
100
AcDbEntity
  8
0
 62
     7
100
AcDbBlockReference
  2
gggr
 10
21862.07572306625
 20
-1901.619950102898
 30
0.0
  0
INSERT
  5
22AD73
330
22AD17
100
AcDbEntity
  8
0
 62
     7
100
AcDbBlockReference
  2
gggr
 10
21927.07572306625
 20
-1926.619950102898
 30
0.0
  0
INSERT
  5
22AD74
330
22AD17
100
AcDbEntity
  8
0
 62
     7
100
AcDbBlockReference
  2
gggr
 10
21862.07572306625
 20
-1951.619950102898
 30
0.0
  0
INSERT
  5
22AD75
330
22AD17
100
AcDbEntity
  8
0
 62
     7
100
AcDbBlockReference
  2
gggr
 10
21927.07572306625
 20
-1976.619950102898
 30
0.0
  0
INSERT
  5
22AD76
330
22AD17
100
AcDbEntity
  8
0
 62
     7
100
AcDbBlockReference
  2
gggr
 10
21862.07572306625
 20
-2001.619950102899
 30
0.0
  0
INSERT
  5
22AD77
330
22AD17
100
AcDbEntity
  8
0
 62
     7
100
AcDbBlockReference
  2
gggr
 10
21927.07572306625
 20
-2026.619950102899
 30
0.0
  0
INSERT
  5
22AD78
330
22AD17
100
AcDbEntity
  8
0
 62
     7
100
AcDbBlockReference
  2
gggr
 10
21862.07572306625
 20
-2051.619950102899
 30
0.0
  0
INSERT
  5
22AD79
330
22AD17
100
AcDbEntity
  8
0
 62
     7
100
AcDbBlockReference
  2
gggr
 10
21927.07572306625
 20
-2076.619950102899
 30
0.0
  0
INSERT
  5
22AD7A
330
22AD17
100
AcDbEntity
  8
0
 62
     7
100
AcDbBlockReference
  2
gggr
 10
21862.07572306625
 20
-2101.619950102898
 30
0.0
  0
INSERT
  5
22AD7B
330
22AD17
100
AcDbEntity
  8
0
 62
     7
100
AcDbBlockReference
  2
gggr
 10
21927.07572306625
 20
-2126.619950102899
 30
0.0
  0
INSERT
  5
22AD7C
330
22AD17
100
AcDbEntity
  8
0
 62
     7
100
AcDbBlockReference
  2
gggr
 10
21862.07572306625
 20
-2151.619950102899
 30
0.0
  0
INSERT
  5
22AD7D
330
22AD17
100
AcDbEntity
  8
0
 62
     7
100
AcDbBlockReference
  2
gggr
 10
21927.07572306625
 20
-2176.619950102899
 30
0.0
  0
INSERT
  5
22AD7E
330
22AD17
100
AcDbEntity
  8
0
 62
     7
100
AcDbBlockReference
  2
gggr
 10
21862.07572306625
 20
-2201.619950102899
 30
0.0
  0
INSERT
  5
22AD7F
330
22AD17
100
AcDbEntity
  8
0
 62
     7
100
AcDbBlockReference
  2
gggr
 10
21927.07572306625
 20
-2226.619950102898
 30
0.0
  0
INSERT
  5
22AD80
330
22AD17
100
AcDbEntity
  8
0
 62
     7
100
AcDbBlockReference
  2
gggr
 10
21862.07572306625
 20
-2251.619950102899
 30
0.0
  0
INSERT
  5
22AD81
330
22AD17
100
AcDbEntity
  8
0
 62
     7
100
AcDbBlockReference
  2
gggr
 10
21927.07572306625
 20
-2276.619950102899
 30
0.0
  0
INSERT
  5
22AD82
330
22AD17
100
AcDbEntity
  8
0
 62
     7
100
AcDbBlockReference
  2
gggr
 10
21862.07572306625
 20
-2301.619950102899
 30
0.0
  0
INSERT
  5
22AD83
330
22AD17
100
AcDbEntity
  8
0
 62
     7
100
AcDbBlockReference
  2
gggr
 10
21927.07572306625
 20
-2326.619950102899
 30
0.0
  0
INSERT
  5
22AD84
330
22AD17
100
AcDbEntity
  8
0
 62
     7
100
AcDbBlockReference
  2
gggr
 10
21862.07572306625
 20
-2351.619950102898
 30
0.0
  0
INSERT
  5
22AD85
330
22AD17
100
AcDbEntity
  8
0
 62
     7
100
AcDbBlockReference
  2
gggr
 10
21927.07572306625
 20
-2376.619950102899
 30
0.0
  0
INSERT
  5
22AD86
330
22AD17
100
AcDbEntity
  8
0
 62
     7
100
AcDbBlockReference
  2
gggr
 10
21862.07572306625
 20
-2401.619950102899
 30
0.0
  0
INSERT
  5
22AD87
330
22AD17
100
AcDbEntity
  8
0
 62
     7
100
AcDbBlockReference
  2
gggr
 10
21927.07572306625
 20
-2426.619950102899
 30
0.0
  0
INSERT
  5
22AD88
330
22AD17
100
AcDbEntity
  8
0
 62
     7
100
AcDbBlockReference
  2
gggr
 10
21862.07572306625
 20
-2451.619950102899
 30
0.0
  0
INSERT
  5
22AD89
330
22AD17
100
AcDbEntity
  8
0
 62
     7
100
AcDbBlockReference
  2
gggr
 10
21927.07572306625
 20
-2476.619950102899
 30
0.0
  0
INSERT
  5
22AD8A
330
22AD17
100
AcDbEntity
  8
0
 62
     7
100
AcDbBlockReference
  2
gggr
 10
21992.07572306625
 20
-1801.619950102898
 30
0.0
  0
INSERT
  5
22AD8B
330
22AD17
100
AcDbEntity
  8
0
 62
     7
100
AcDbBlockReference
  2
gggr
 10
22057.07572306625
 20
-1826.619950102898
 30
0.0
  0
INSERT
  5
22AD8C
330
22AD17
100
AcDbEntity
  8
0
 62
     7
100
AcDbBlockReference
  2
gggr
 10
21992.07572306625
 20
-1851.619950102898
 30
0.0
  0
INSERT
  5
22AD8D
330
22AD17
100
AcDbEntity
  8
0
 62
     7
100
AcDbBlockReference
  2
gggr
 10
22057.07572306625
 20
-1876.619950102898
 30
0.0
  0
INSERT
  5
22AD8E
330
22AD17
100
AcDbEntity
  8
0
 62
     7
100
AcDbBlockReference
  2
gggr
 10
21992.07572306625
 20
-1901.619950102898
 30
0.0
  0
INSERT
  5
22AD8F
330
22AD17
100
AcDbEntity
  8
0
 62
     7
100
AcDbBlockReference
  2
gggr
 10
22057.07572306625
 20
-1926.619950102898
 30
0.0
  0
INSERT
  5
22AD90
330
22AD17
100
AcDbEntity
  8
0
 62
     7
100
AcDbBlockReference
  2
gggr
 10
21992.07572306625
 20
-1951.619950102898
 30
0.0
  0
INSERT
  5
22AD91
330
22AD17
100
AcDbEntity
  8
0
 62
     7
100
AcDbBlockReference
  2
gggr
 10
22057.07572306625
 20
-1976.619950102898
 30
0.0
  0
INSERT
  5
22AD92
330
22AD17
100
AcDbEntity
  8
0
 62
     7
100
AcDbBlockReference
  2
gggr
 10
21992.07572306625
 20
-2001.619950102899
 30
0.0
  0
INSERT
  5
22AD93
330
22AD17
100
AcDbEntity
  8
0
 62
     7
100
AcDbBlockReference
  2
gggr
 10
22057.07572306625
 20
-2026.619950102899
 30
0.0
  0
INSERT
  5
22AD94
330
22AD17
100
AcDbEntity
  8
0
 62
     7
100
AcDbBlockReference
  2
gggr
 10
21992.07572306625
 20
-2051.619950102899
 30
0.0
  0
INSERT
  5
22AD95
330
22AD17
100
AcDbEntity
  8
0
 62
     7
100
AcDbBlockReference
  2
gggr
 10
22057.07572306625
 20
-2076.619950102899
 30
0.0
  0
INSERT
  5
22AD96
330
22AD17
100
AcDbEntity
  8
0
 62
     7
100
AcDbBlockReference
  2
gggr
 10
21992.07572306625
 20
-2101.619950102898
 30
0.0
  0
INSERT
  5
22AD97
330
22AD17
100
AcDbEntity
  8
0
 62
     7
100
AcDbBlockReference
  2
gggr
 10
22057.07572306625
 20
-2126.619950102899
 30
0.0
  0
INSERT
  5
22AD98
330
22AD17
100
AcDbEntity
  8
0
 62
     7
100
AcDbBlockReference
  2
gggr
 10
21992.07572306625
 20
-2151.619950102899
 30
0.0
  0
INSERT
  5
22AD99
330
22AD17
100
AcDbEntity
  8
0
 62
     7
100
AcDbBlockReference
  2
gggr
 10
22057.07572306625
 20
-2176.619950102899
 30
0.0
  0
INSERT
  5
22AD9A
330
22AD17
100
AcDbEntity
  8
0
 62
     7
100
AcDbBlockReference
  2
gggr
 10
21992.07572306625
 20
-2201.619950102899
 30
0.0
  0
INSERT
  5
22AD9B
330
22AD17
100
AcDbEntity
  8
0
 62
     7
100
AcDbBlockReference
  2
gggr
 10
22057.07572306625
 20
-2226.619950102898
 30
0.0
  0
INSERT
  5
22AD9C
330
22AD17
100
AcDbEntity
  8
0
 62
     7
100
AcDbBlockReference
  2
gggr
 10
21992.07572306625
 20
-2251.619950102899
 30
0.0
  0
INSERT
  5
22AD9D
330
22AD17
100
AcDbEntity
  8
0
 62
     7
100
AcDbBlockReference
  2
gggr
 10
22057.07572306625
 20
-2276.619950102899
 30
0.0
  0
INSERT
  5
22AD9E
330
22AD17
100
AcDbEntity
  8
0
 62
     7
100
AcDbBlockReference
  2
gggr
 10
21992.07572306625
 20
-2301.619950102899
 30
0.0
  0
INSERT
  5
22AD9F
330
22AD17
100
AcDbEntity
  8
0
 62
     7
100
AcDbBlockReference
  2
gggr
 10
22057.07572306625
 20
-2326.619950102899
 30
0.0
  0
INSERT
  5
22ADA0
330
22AD17
100
AcDbEntity
  8
0
 62
     7
100
AcDbBlockReference
  2
gggr
 10
21992.07572306625
 20
-2351.619950102898
 30
0.0
  0
INSERT
  5
22ADA1
330
22AD17
100
AcDbEntity
  8
0
 62
     7
100
AcDbBlockReference
  2
gggr
 10
22057.07572306625
 20
-2376.619950102899
 30
0.0
  0
INSERT
  5
22ADA2
330
22AD17
100
AcDbEntity
  8
0
 62
     7
100
AcDbBlockReference
  2
gggr
 10
21992.07572306625
 20
-2401.619950102899
 30
0.0
  0
INSERT
  5
22ADA3
330
22AD17
100
AcDbEntity
  8
0
 62
     7
100
AcDbBlockReference
  2
gggr
 10
22057.07572306625
 20
-2426.619950102899
 30
0.0
  0
INSERT
  5
22ADA4
330
22AD17
100
AcDbEntity
  8
0
 62
     7
100
AcDbBlockReference
  2
gggr
 10
21992.07572306625
 20
-2451.619950102899
 30
0.0
  0
INSERT
  5
22ADA5
330
22AD17
100
AcDbEntity
  8
0
 62
     7
100
AcDbBlockReference
  2
gggr
 10
22057.07572306625
 20
-2476.619950102899
 30
0.0
  0
INSERT
  5
22ADA6
330
22AD17
100
AcDbEntity
  8
0
 62
     7
100
AcDbBlockReference
  2
gggr
 10
22122.07572306625
 20
-1801.619950102898
 30
0.0
  0
INSERT
  5
22ADA7
330
22AD17
100
AcDbEntity
  8
0
 62
     7
100
AcDbBlockReference
  2
gggr
 10
22187.07572306625
 20
-1826.619950102898
 30
0.0
  0
INSERT
  5
22ADA8
330
22AD17
100
AcDbEntity
  8
0
 62
     7
100
AcDbBlockReference
  2
gggr
 10
22122.07572306625
 20
-1851.619950102898
 30
0.0
  0
INSERT
  5
22ADA9
330
22AD17
100
AcDbEntity
  8
0
 62
     7
100
AcDbBlockReference
  2
gggr
 10
22187.07572306625
 20
-1876.619950102898
 30
0.0
  0
INSERT
  5
22ADAA
330
22AD17
100
AcDbEntity
  8
0
 62
     7
100
AcDbBlockReference
  2
gggr
 10
22122.07572306625
 20
-1901.619950102898
 30
0.0
  0
INSERT
  5
22ADAB
330
22AD17
100
AcDbEntity
  8
0
 62
     7
100
AcDbBlockReference
  2
gggr
 10
22187.07572306625
 20
-1926.619950102898
 30
0.0
  0
INSERT
  5
22ADAC
330
22AD17
100
AcDbEntity
  8
0
 62
     7
100
AcDbBlockReference
  2
gggr
 10
22122.07572306625
 20
-1951.619950102898
 30
0.0
  0
INSERT
  5
22ADAD
330
22AD17
100
AcDbEntity
  8
0
 62
     7
100
AcDbBlockReference
  2
gggr
 10
22187.07572306625
 20
-1976.619950102898
 30
0.0
  0
INSERT
  5
22ADAE
330
22AD17
100
AcDbEntity
  8
0
 62
     7
100
AcDbBlockReference
  2
gggr
 10
22122.07572306625
 20
-2001.619950102899
 30
0.0
  0
INSERT
  5
22ADAF
330
22AD17
100
AcDbEntity
  8
0
 62
     7
100
AcDbBlockReference
  2
gggr
 10
22187.07572306625
 20
-2026.619950102899
 30
0.0
  0
INSERT
  5
22ADB0
330
22AD17
100
AcDbEntity
  8
0
 62
     7
100
AcDbBlockReference
  2
gggr
 10
22122.07572306625
 20
-2051.619950102899
 30
0.0
  0
INSERT
  5
22ADB1
330
22AD17
100
AcDbEntity
  8
0
 62
     7
100
AcDbBlockReference
  2
gggr
 10
22187.07572306625
 20
-2076.619950102899
 30
0.0
  0
INSERT
  5
22ADB2
330
22AD17
100
AcDbEntity
  8
0
 62
     7
100
AcDbBlockReference
  2
gggr
 10
22122.07572306625
 20
-2101.619950102898
 30
0.0
  0
INSERT
  5
22ADB3
330
22AD17
100
AcDbEntity
  8
0
 62
     7
100
AcDbBlockReference
  2
gggr
 10
22187.07572306625
 20
-2126.619950102899
 30
0.0
  0
INSERT
  5
22ADB4
330
22AD17
100
AcDbEntity
  8
0
 62
     7
100
AcDbBlockReference
  2
gggr
 10
22122.07572306625
 20
-2151.619950102899
 30
0.0
  0
INSERT
  5
22ADB5
330
22AD17
100
AcDbEntity
  8
0
 62
     7
100
AcDbBlockReference
  2
gggr
 10
22187.07572306625
 20
-2176.619950102899
 30
0.0
  0
INSERT
  5
22ADB6
330
22AD17
100
AcDbEntity
  8
0
 62
     7
100
AcDbBlockReference
  2
gggr
 10
22122.07572306625
 20
-2201.619950102899
 30
0.0
  0
INSERT
  5
22ADB7
330
22AD17
100
AcDbEntity
  8
0
 62
     7
100
AcDbBlockReference
  2
gggr
 10
22187.07572306625
 20
-2226.619950102898
 30
0.0
  0
INSERT
  5
22ADB8
330
22AD17
100
AcDbEntity
  8
0
 62
     7
100
AcDbBlockReference
  2
gggr
 10
22122.07572306625
 20
-2251.619950102899
 30
0.0
  0
INSERT
  5
22ADB9
330
22AD17
100
AcDbEntity
  8
0
 62
     7
100
AcDbBlockReference
  2
gggr
 10
22187.07572306625
 20
-2276.619950102899
 30
0.0
  0
INSERT
  5
22ADBA
330
22AD17
100
AcDbEntity
  8
0
 62
     7
100
AcDbBlockReference
  2
gggr
 10
22122.07572306625
 20
-2301.619950102899
 30
0.0
  0
INSERT
  5
22ADBB
330
22AD17
100
AcDbEntity
  8
0
 62
     7
100
AcDbBlockReference
  2
gggr
 10
22187.07572306625
 20
-2326.619950102899
 30
0.0
  0
INSERT
  5
22ADBC
330
22AD17
100
AcDbEntity
  8
0
 62
     7
100
AcDbBlockReference
  2
gggr
 10
22122.07572306625
 20
-2351.619950102898
 30
0.0
  0
INSERT
  5
22ADBD
330
22AD17
100
AcDbEntity
  8
0
 62
     7
100
AcDbBlockReference
  2
gggr
 10
22187.07572306625
 20
-2376.619950102899
 30
0.0
  0
INSERT
  5
22ADBE
330
22AD17
100
AcDbEntity
  8
0
 62
     7
100
AcDbBlockReference
  2
gggr
 10
22122.07572306625
 20
-2401.619950102899
 30
0.0
  0
INSERT
  5
22ADBF
330
22AD17
100
AcDbEntity
  8
0
 62
     7
100
AcDbBlockReference
  2
gggr
 10
22187.07572306625
 20
-2426.619950102899
 30
0.0
  0
INSERT
  5
22ADC0
330
22AD17
100
AcDbEntity
  8
0
 62
     7
100
AcDbBlockReference
  2
gggr
 10
22122.07572306625
 20
-2451.619950102899
 30
0.0
  0
INSERT
  5
22ADC1
330
22AD17
100
AcDbEntity
  8
0
 62
     7
100
AcDbBlockReference
  2
gggr
 10
22187.07572306625
 20
-2476.619950102899
 30
0.0
  0
INSERT
  5
22ADC2
330
22AD17
100
AcDbEntity
  8
0
 62
     7
100
AcDbBlockReference
  2
gggr
 10
22252.07572306625
 20
-1801.619950102898
 30
0.0
  0
INSERT
  5
22ADC3
330
22AD17
100
AcDbEntity
  8
0
 62
     7
100
AcDbBlockReference
  2
gggr
 10
22252.07572306625
 20
-1851.619950102898
 30
0.0
  0
INSERT
  5
22ADC4
330
22AD17
100
AcDbEntity
  8
0
 62
     7
100
AcDbBlockReference
  2
gggr
 10
22252.07572306625
 20
-1901.619950102898
 30
0.0
  0
INSERT
  5
22ADC5
330
22AD17
100
AcDbEntity
  8
0
 62
     7
100
AcDbBlockReference
  2
gggr
 10
22252.07572306625
 20
-1951.619950102898
 30
0.0
  0
INSERT
  5
22ADC6
330
22AD17
100
AcDbEntity
  8
0
 62
     7
100
AcDbBlockReference
  2
gggr
 10
22252.07572306625
 20
-2001.619950102899
 30
0.0
  0
INSERT
  5
22ADC7
330
22AD17
100
AcDbEntity
  8
0
 62
     7
100
AcDbBlockReference
  2
gggr
 10
22252.07572306625
 20
-2051.619950102899
 30
0.0
  0
INSERT
  5
22ADC8
330
22AD17
100
AcDbEntity
  8
0
 62
     7
100
AcDbBlockReference
  2
gggr
 10
22252.07572306625
 20
-2101.619950102898
 30
0.0
  0
INSERT
  5
22ADC9
330
22AD17
100
AcDbEntity
  8
0
 62
     7
100
AcDbBlockReference
  2
gggr
 10
22252.07572306625
 20
-2151.619950102899
 30
0.0
  0
INSERT
  5
22ADCA
330
22AD17
100
AcDbEntity
  8
0
 62
     7
100
AcDbBlockReference
  2
gggr
 10
22252.07572306625
 20
-2201.619950102899
 30
0.0
  0
INSERT
  5
22ADCB
330
22AD17
100
AcDbEntity
  8
0
 62
     7
100
AcDbBlockReference
  2
gggr
 10
22252.07572306625
 20
-2251.619950102899
 30
0.0
  0
INSERT
  5
22ADCC
330
22AD17
100
AcDbEntity
  8
0
 62
     7
100
AcDbBlockReference
  2
gggr
 10
22252.07572306625
 20
-2301.619950102899
 30
0.0
  0
INSERT
  5
22ADCD
330
22AD17
100
AcDbEntity
  8
0
 62
     7
100
AcDbBlockReference
  2
gggr
 10
22252.07572306625
 20
-2351.619950102898
 30
0.0
  0
INSERT
  5
22ADCE
330
22AD17
100
AcDbEntity
  8
0
 62
     7
100
AcDbBlockReference
  2
gggr
 10
22252.07572306625
 20
-2401.619950102899
 30
0.0
  0
INSERT
  5
22ADCF
330
22AD17
100
AcDbEntity
  8
0
 62
     7
100
AcDbBlockReference
  2
gggr
 10
22252.07572306625
 20
-2451.619950102899
 30
0.0
  0
INSERT
  5
22ADD0
330
22AD17
100
AcDbEntity
  8
0
 62
     7
100
AcDbBlockReference
  2
gggr
 10
21472.07572306625
 20
-2501.619950102899
 30
0.0
  0
INSERT
  5
22ADD1
330
22AD17
100
AcDbEntity
  8
0
 62
     7
100
AcDbBlockReference
  2
gggr
 10
21602.07572306625
 20
-2501.619950102899
 30
0.0
  0
INSERT
  5
22ADD2
330
22AD17
100
AcDbEntity
  8
0
 62
     7
100
AcDbBlockReference
  2
gggr
 10
21732.07572306625
 20
-2501.619950102899
 30
0.0
  0
INSERT
  5
22ADD3
330
22AD17
100
AcDbEntity
  8
0
 62
     7
100
AcDbBlockReference
  2
gggr
 10
21862.07572306625
 20
-2501.619950102899
 30
0.0
  0
INSERT
  5
22ADD4
330
22AD17
100
AcDbEntity
  8
0
 62
     7
100
AcDbBlockReference
  2
gggr
 10
21992.07572306625
 20
-2501.619950102899
 30
0.0
  0
INSERT
  5
22ADD5
330
22AD17
100
AcDbEntity
  8
0
 62
     7
100
AcDbBlockReference
  2
gggr
 10
22122.07572306625
 20
-2501.619950102899
 30
0.0
  0
INSERT
  5
22ADD6
330
22AD17
100
AcDbEntity
  8
0
 62
     7
100
AcDbBlockReference
  2
gggr
 10
22252.07572306625
 20
-2501.619950102899
 30
0.0
  0
INSERT
  5
22ADD7
330
22AD17
100
AcDbEntity
  8
0
 62
     7
100
AcDbBlockReference
  2
gggr
 10
21537.07572306625
 20
-2526.619950102899
 30
0.0
  0
INSERT
  5
22ADD8
330
22AD17
100
AcDbEntity
  8
0
 62
     7
100
AcDbBlockReference
  2
gggr
 10
21667.07572306625
 20
-2526.619950102899
 30
0.0
  0
INSERT
  5
22ADD9
330
22AD17
100
AcDbEntity
  8
0
 62
     7
100
AcDbBlockReference
  2
gggr
 10
21797.07572306625
 20
-2526.619950102899
 30
0.0
  0
INSERT
  5
22ADDA
330
22AD17
100
AcDbEntity
  8
0
 62
     7
100
AcDbBlockReference
  2
gggr
 10
21927.07572306625
 20
-2526.619950102899
 30
0.0
  0
INSERT
  5
22ADDB
330
22AD17
100
AcDbEntity
  8
0
 62
     7
100
AcDbBlockReference
  2
gggr
 10
22057.07572306625
 20
-2526.619950102899
 30
0.0
  0
INSERT
  5
22ADDC
330
22AD17
100
AcDbEntity
  8
0
 62
     7
100
AcDbBlockReference
  2
gggr
 10
22187.07572306625
 20
-2526.619950102899
 30
0.0
  0
INSERT
  5
22ADDD
330
22AD17
100
AcDbEntity
  8
0
 62
     7
100
AcDbBlockReference
  2
gggr
 10
21472.07572306625
 20
-2551.619950102899
 30
0.0
  0
INSERT
  5
22ADDE
330
22AD17
100
AcDbEntity
  8
0
 62
     7
100
AcDbBlockReference
  2
gggr
 10
21602.07572306625
 20
-2551.619950102899
 30
0.0
  0
INSERT
  5
22ADDF
330
22AD17
100
AcDbEntity
  8
0
 62
     7
100
AcDbBlockReference
  2
gggr
 10
21732.07572306625
 20
-2551.619950102899
 30
0.0
  0
INSERT
  5
22ADE0
330
22AD17
100
AcDbEntity
  8
0
 62
     7
100
AcDbBlockReference
  2
gggr
 10
21862.07572306625
 20
-2551.619950102899
 30
0.0
  0
INSERT
  5
22ADE1
330
22AD17
100
AcDbEntity
  8
0
 62
     7
100
AcDbBlockReference
  2
gggr
 10
21992.07572306625
 20
-2551.619950102899
 30
0.0
  0
INSERT
  5
22ADE2
330
22AD17
100
AcDbEntity
  8
0
 62
     7
100
AcDbBlockReference
  2
gggr
 10
22122.07572306625
 20
-2551.619950102899
 30
0.0
  0
INSERT
  5
22ADE3
330
22AD17
100
AcDbEntity
  8
0
 62
     7
100
AcDbBlockReference
  2
gggr
 10
22252.07572306625
 20
-2551.619950102899
 30
0.0
  0
INSERT
  5
22ADE4
330
22AD17
100
AcDbEntity
  8
0
 62
     7
100
AcDbBlockReference
  2
gggr
 10
21537.07572306625
 20
-2576.619950102899
 30
0.0
  0
INSERT
  5
22ADE5
330
22AD17
100
AcDbEntity
  8
0
 62
     7
100
AcDbBlockReference
  2
gggr
 10
21667.07572306625
 20
-2576.619950102899
 30
0.0
  0
INSERT
  5
22ADE6
330
22AD17
100
AcDbEntity
  8
0
 62
     7
100
AcDbBlockReference
  2
gggr
 10
21797.07572306625
 20
-2576.619950102899
 30
0.0
  0
INSERT
  5
22ADE7
330
22AD17
100
AcDbEntity
  8
0
 62
     7
100
AcDbBlockReference
  2
gggr
 10
21927.07572306625
 20
-2576.619950102899
 30
0.0
  0
INSERT
  5
22ADE8
330
22AD17
100
AcDbEntity
  8
0
 62
     7
100
AcDbBlockReference
  2
gggr
 10
22057.07572306625
 20
-2576.619950102899
 30
0.0
  0
INSERT
  5
22ADE9
330
22AD17
100
AcDbEntity
  8
0
 62
     7
100
AcDbBlockReference
  2
gggr
 10
22187.07572306625
 20
-2576.619950102899
 30
0.0
  0
INSERT
  5
22ADEA
330
22AD17
100
AcDbEntity
  8
0
 62
     7
100
AcDbBlockReference
  2
gggr
 10
21472.07572306625
 20
-2601.619950102899
 30
0.0
  0
INSERT
  5
22ADEB
330
22AD17
100
AcDbEntity
  8
0
 62
     7
100
AcDbBlockReference
  2
gggr
 10
21602.07572306625
 20
-2601.619950102899
 30
0.0
  0
INSERT
  5
22ADEC
330
22AD17
100
AcDbEntity
  8
0
 62
     7
100
AcDbBlockReference
  2
gggr
 10
21732.07572306625
 20
-2601.619950102899
 30
0.0
  0
INSERT
  5
22ADED
330
22AD17
100
AcDbEntity
  8
0
 62
     7
100
AcDbBlockReference
  2
gggr
 10
21862.07572306625
 20
-2601.619950102899
 30
0.0
  0
INSERT
  5
22ADEE
330
22AD17
100
AcDbEntity
  8
0
 62
     7
100
AcDbBlockReference
  2
gggr
 10
21992.07572306625
 20
-2601.619950102899
 30
0.0
  0
INSERT
  5
22ADEF
330
22AD17
100
AcDbEntity
  8
0
 62
     7
100
AcDbBlockReference
  2
gggr
 10
22122.07572306625
 20
-2601.619950102899
 30
0.0
  0
INSERT
  5
22ADF0
330
22AD17
100
AcDbEntity
  8
0
 62
     7
100
AcDbBlockReference
  2
gggr
 10
22252.07572306625
 20
-2601.619950102899
 30
0.0
  0
INSERT
  5
22ADF1
330
22AD17
100
AcDbEntity
  8
0
 62
     7
100
AcDbBlockReference
  2
gggr
 10
22317.07572306625
 20
-1826.619950102898
 30
0.0
  0
INSERT
  5
22ADF2
330
22AD17
100
AcDbEntity
  8
0
 62
     7
100
AcDbBlockReference
  2
gggr
 10
22317.07572306625
 20
-1876.619950102898
 30
0.0
  0
INSERT
  5
22ADF3
330
22AD17
100
AcDbEntity
  8
0
 62
     7
100
AcDbBlockReference
  2
gggr
 10
22317.07572306625
 20
-1926.619950102898
 30
0.0
  0
INSERT
  5
22ADF4
330
22AD17
100
AcDbEntity
  8
0
 62
     7
100
AcDbBlockReference
  2
gggr
 10
22317.07572306625
 20
-1976.619950102898
 30
0.0
  0
INSERT
  5
22ADF5
330
22AD17
100
AcDbEntity
  8
0
 62
     7
100
AcDbBlockReference
  2
gggr
 10
22317.07572306625
 20
-2026.619950102899
 30
0.0
  0
INSERT
  5
22ADF6
330
22AD17
100
AcDbEntity
  8
0
 62
     7
100
AcDbBlockReference
  2
gggr
 10
22317.07572306625
 20
-2076.619950102899
 30
0.0
  0
INSERT
  5
22ADF7
330
22AD17
100
AcDbEntity
  8
0
 62
     7
100
AcDbBlockReference
  2
gggr
 10
22317.07572306625
 20
-2126.619950102899
 30
0.0
  0
INSERT
  5
22ADF8
330
22AD17
100
AcDbEntity
  8
0
 62
     7
100
AcDbBlockReference
  2
gggr
 10
22317.07572306625
 20
-2176.619950102899
 30
0.0
  0
INSERT
  5
22ADF9
330
22AD17
100
AcDbEntity
  8
0
 62
     7
100
AcDbBlockReference
  2
gggr
 10
22317.07572306625
 20
-2226.619950102898
 30
0.0
  0
INSERT
  5
22ADFA
330
22AD17
100
AcDbEntity
  8
0
 62
     7
100
AcDbBlockReference
  2
gggr
 10
22317.07572306625
 20
-2276.619950102899
 30
0.0
  0
INSERT
  5
22ADFB
330
22AD17
100
AcDbEntity
  8
0
 62
     7
100
AcDbBlockReference
  2
gggr
 10
22317.07572306625
 20
-2326.619950102899
 30
0.0
  0
INSERT
  5
22ADFC
330
22AD17
100
AcDbEntity
  8
0
 62
     7
100
AcDbBlockReference
  2
gggr
 10
22317.07572306625
 20
-2376.619950102899
 30
0.0
  0
INSERT
  5
22ADFD
330
22AD17
100
AcDbEntity
  8
0
 62
     7
100
AcDbBlockReference
  2
gggr
 10
22317.07572306625
 20
-2426.619950102899
 30
0.0
  0
INSERT
  5
22ADFE
330
22AD17
100
AcDbEntity
  8
0
 62
     7
100
AcDbBlockReference
  2
gggr
 10
22317.07572306625
 20
-2476.619950102899
 30
0.0
  0
INSERT
  5
22ADFF
330
22AD17
100
AcDbEntity
  8
0
 62
     7
100
AcDbBlockReference
  2
gggr
 10
22317.07572306625
 20
-2526.619950102899
 30
0.0
  0
INSERT
  5
22AE00
330
22AD17
100
AcDbEntity
  8
0
 62
     7
100
AcDbBlockReference
  2
gggr
 10
22317.07572306625
 20
-2576.619950102899
 30
0.0
  0
INSERT
  5
22AE01
330
22AD17
100
AcDbEntity
  8
0
 62
     7
100
AcDbBlockReference
  2
gggr
 10
22382.07572306625
 20
-1801.619950102898
 30
0.0
  0
INSERT
  5
22AE02
330
22AD17
100
AcDbEntity
  8
0
 62
     7
100
AcDbBlockReference
  2
gggr
 10
22382.07572306625
 20
-1851.619950102898
 30
0.0
  0
INSERT
  5
22AE03
330
22AD17
100
AcDbEntity
  8
0
 62
     7
100
AcDbBlockReference
  2
gggr
 10
22382.07572306625
 20
-1901.619950102898
 30
0.0
  0
INSERT
  5
22AE04
330
22AD17
100
AcDbEntity
  8
0
 62
     7
100
AcDbBlockReference
  2
gggr
 10
22382.07572306625
 20
-1951.619950102898
 30
0.0
  0
INSERT
  5
22AE05
330
22AD17
100
AcDbEntity
  8
0
 62
     7
100
AcDbBlockReference
  2
gggr
 10
22382.07572306625
 20
-2001.619950102899
 30
0.0
  0
INSERT
  5
22AE06
330
22AD17
100
AcDbEntity
  8
0
 62
     7
100
AcDbBlockReference
  2
gggr
 10
22382.07572306625
 20
-2051.619950102899
 30
0.0
  0
INSERT
  5
22AE07
330
22AD17
100
AcDbEntity
  8
0
 62
     7
100
AcDbBlockReference
  2
gggr
 10
22382.07572306625
 20
-2101.619950102898
 30
0.0
  0
INSERT
  5
22AE08
330
22AD17
100
AcDbEntity
  8
0
 62
     7
100
AcDbBlockReference
  2
gggr
 10
22382.07572306625
 20
-2151.619950102899
 30
0.0
  0
INSERT
  5
22AE09
330
22AD17
100
AcDbEntity
  8
0
 62
     7
100
AcDbBlockReference
  2
gggr
 10
22382.07572306625
 20
-2201.619950102899
 30
0.0
  0
INSERT
  5
22AE0A
330
22AD17
100
AcDbEntity
  8
0
 62
     7
100
AcDbBlockReference
  2
gggr
 10
22382.07572306625
 20
-2251.619950102899
 30
0.0
  0
INSERT
  5
22AE0B
330
22AD17
100
AcDbEntity
  8
0
 62
     7
100
AcDbBlockReference
  2
gggr
 10
22382.07572306625
 20
-2301.619950102899
 30
0.0
  0
INSERT
  5
22AE0C
330
22AD17
100
AcDbEntity
  8
0
 62
     7
100
AcDbBlockReference
  2
gggr
 10
22382.07572306625
 20
-2351.619950102898
 30
0.0
  0
INSERT
  5
22AE0D
330
22AD17
100
AcDbEntity
  8
0
 62
     7
100
AcDbBlockReference
  2
gggr
 10
22382.07572306625
 20
-2401.619950102899
 30
0.0
  0
INSERT
  5
22AE0E
330
22AD17
100
AcDbEntity
  8
0
 62
     7
100
AcDbBlockReference
  2
gggr
 10
22382.07572306625
 20
-2451.619950102899
 30
0.0
  0
INSERT
  5
22AE0F
330
22AD17
100
AcDbEntity
  8
0
 62
     7
100
AcDbBlockReference
  2
gggr
 10
22382.07572306625
 20
-2501.619950102899
 30
0.0
  0
INSERT
  5
22AE10
330
22AD17
100
AcDbEntity
  8
0
 62
     7
100
AcDbBlockReference
  2
gggr
 10
22382.07572306625
 20
-2551.619950102899
 30
0.0
  0
INSERT
  5
22AE11
330
22AD17
100
AcDbEntity
  8
0
 62
     7
100
AcDbBlockReference
  2
gggr
 10
22382.07572306625
 20
-2601.619950102899
 30
0.0
  0
INSERT
  5
22AE12
330
22AD17
100
AcDbEntity
  8
0
 62
     7
100
AcDbBlockReference
  2
gggr
 10
22447.07572306625
 20
-1826.619950102898
 30
0.0
  0
INSERT
  5
22AE13
330
22AD17
100
AcDbEntity
  8
0
 62
     7
100
AcDbBlockReference
  2
gggr
 10
22447.07572306625
 20
-1876.619950102898
 30
0.0
  0
INSERT
  5
22AE14
330
22AD17
100
AcDbEntity
  8
0
 62
     7
100
AcDbBlockReference
  2
gggr
 10
22447.07572306625
 20
-1926.619950102898
 30
0.0
  0
INSERT
  5
22AE15
330
22AD17
100
AcDbEntity
  8
0
 62
     7
100
AcDbBlockReference
  2
gggr
 10
22447.07572306625
 20
-1976.619950102898
 30
0.0
  0
INSERT
  5
22AE16
330
22AD17
100
AcDbEntity
  8
0
 62
     7
100
AcDbBlockReference
  2
gggr
 10
22447.07572306625
 20
-2026.619950102899
 30
0.0
  0
INSERT
  5
22AE17
330
22AD17
100
AcDbEntity
  8
0
 62
     7
100
AcDbBlockReference
  2
gggr
 10
22447.07572306625
 20
-2076.619950102899
 30
0.0
  0
INSERT
  5
22AE18
330
22AD17
100
AcDbEntity
  8
0
 62
     7
100
AcDbBlockReference
  2
gggr
 10
22447.07572306625
 20
-2126.619950102899
 30
0.0
  0
INSERT
  5
22AE19
330
22AD17
100
AcDbEntity
  8
0
 62
     7
100
AcDbBlockReference
  2
gggr
 10
22447.07572306625
 20
-2176.619950102899
 30
0.0
  0
INSERT
  5
22AE1A
330
22AD17
100
AcDbEntity
  8
0
 62
     7
100
AcDbBlockReference
  2
gggr
 10
22447.07572306625
 20
-2226.619950102898
 30
0.0
  0
INSERT
  5
22AE1B
330
22AD17
100
AcDbEntity
  8
0
 62
     7
100
AcDbBlockReference
  2
gggr
 10
22447.07572306625
 20
-2276.619950102899
 30
0.0
  0
INSERT
  5
22AE1C
330
22AD17
100
AcDbEntity
  8
0
 62
     7
100
AcDbBlockReference
  2
gggr
 10
22447.07572306625
 20
-2326.619950102899
 30
0.0
  0
INSERT
  5
22AE1D
330
22AD17
100
AcDbEntity
  8
0
 62
     7
100
AcDbBlockReference
  2
gggr
 10
22447.07572306625
 20
-2376.619950102899
 30
0.0
  0
INSERT
  5
22AE1E
330
22AD17
100
AcDbEntity
  8
0
 62
     7
100
AcDbBlockReference
  2
gggr
 10
22447.07572306625
 20
-2426.619950102899
 30
0.0
  0
INSERT
  5
22AE1F
330
22AD17
100
AcDbEntity
  8
0
 62
     7
100
AcDbBlockReference
  2
gggr
 10
22447.07572306625
 20
-2476.619950102899
 30
0.0
  0
INSERT
  5
22AE20
330
22AD17
100
AcDbEntity
  8
0
 62
     7
100
AcDbBlockReference
  2
gggr
 10
22447.07572306625
 20
-2526.619950102899
 30
0.0
  0
INSERT
  5
22AE21
330
22AD17
100
AcDbEntity
  8
0
 62
     7
100
AcDbBlockReference
  2
gggr
 10
22447.07572306625
 20
-2576.619950102899
 30
0.0
  0
INSERT
  5
22AE22
330
22AD17
100
AcDbEntity
  8
0
 62
     7
100
AcDbBlockReference
  2
gggr
 10
22512.07572306625
 20
-1801.619950102898
 30
0.0
  0
INSERT
  5
22AE23
330
22AD17
100
AcDbEntity
  8
0
 62
     7
100
AcDbBlockReference
  2
gggr
 10
22512.07572306625
 20
-1851.619950102898
 30
0.0
  0
INSERT
  5
22AE24
330
22AD17
100
AcDbEntity
  8
0
 62
     7
100
AcDbBlockReference
  2
gggr
 10
22512.07572306625
 20
-1901.619950102898
 30
0.0
  0
INSERT
  5
22AE25
330
22AD17
100
AcDbEntity
  8
0
 62
     7
100
AcDbBlockReference
  2
gggr
 10
22512.07572306625
 20
-1951.619950102898
 30
0.0
  0
INSERT
  5
22AE26
330
22AD17
100
AcDbEntity
  8
0
 62
     7
100
AcDbBlockReference
  2
gggr
 10
22512.07572306625
 20
-2001.619950102899
 30
0.0
  0
INSERT
  5
22AE27
330
22AD17
100
AcDbEntity
  8
0
 62
     7
100
AcDbBlockReference
  2
gggr
 10
22512.07572306625
 20
-2051.619950102899
 30
0.0
  0
INSERT
  5
22AE28
330
22AD17
100
AcDbEntity
  8
0
 62
     7
100
AcDbBlockReference
  2
gggr
 10
22512.07572306625
 20
-2101.619950102898
 30
0.0
  0
INSERT
  5
22AE29
330
22AD17
100
AcDbEntity
  8
0
 62
     7
100
AcDbBlockReference
  2
gggr
 10
22512.07572306625
 20
-2151.619950102899
 30
0.0
  0
INSERT
  5
22AE2A
330
22AD17
100
AcDbEntity
  8
0
 62
     7
100
AcDbBlockReference
  2
gggr
 10
22512.07572306625
 20
-2201.619950102899
 30
0.0
  0
INSERT
  5
22AE2B
330
22AD17
100
AcDbEntity
  8
0
 62
     7
100
AcDbBlockReference
  2
gggr
 10
22512.07572306625
 20
-2251.619950102899
 30
0.0
  0
INSERT
  5
22AE2C
330
22AD17
100
AcDbEntity
  8
0
 62
     7
100
AcDbBlockReference
  2
gggr
 10
22512.07572306625
 20
-2301.619950102899
 30
0.0
  0
INSERT
  5
22AE2D
330
22AD17
100
AcDbEntity
  8
0
 62
     7
100
AcDbBlockReference
  2
gggr
 10
22512.07572306625
 20
-2351.619950102898
 30
0.0
  0
INSERT
  5
22AE2E
330
22AD17
100
AcDbEntity
  8
0
 62
     7
100
AcDbBlockReference
  2
gggr
 10
22512.07572306625
 20
-2401.619950102899
 30
0.0
  0
INSERT
  5
22AE2F
330
22AD17
100
AcDbEntity
  8
0
 62
     7
100
AcDbBlockReference
  2
gggr
 10
22512.07572306625
 20
-2451.619950102899
 30
0.0
  0
INSERT
  5
22AE30
330
22AD17
100
AcDbEntity
  8
0
 62
     7
100
AcDbBlockReference
  2
gggr
 10
22512.07572306625
 20
-2501.619950102899
 30
0.0
  0
INSERT
  5
22AE31
330
22AD17
100
AcDbEntity
  8
0
 62
     7
100
AcDbBlockReference
  2
gggr
 10
22512.07572306625
 20
-2551.619950102899
 30
0.0
  0
INSERT
  5
22AE32
330
22AD17
100
AcDbEntity
  8
0
 62
     7
100
AcDbBlockReference
  2
gggr
 10
22512.07572306625
 20
-2601.619950102899
 30
0.0
  0
INSERT
  5
22AE33
330
22AD17
100
AcDbEntity
  8
0
 62
     7
100
AcDbBlockReference
  2
gggr
 10
22577.07572306625
 20
-1826.619950102898
 30
0.0
  0
INSERT
  5
22AE34
330
22AD17
100
AcDbEntity
  8
0
 62
     7
100
AcDbBlockReference
  2
gggr
 10
22577.07572306625
 20
-1876.619950102898
 30
0.0
  0
INSERT
  5
22AE35
330
22AD17
100
AcDbEntity
  8
0
 62
     7
100
AcDbBlockReference
  2
gggr
 10
22577.07572306625
 20
-1926.619950102898
 30
0.0
  0
INSERT
  5
22AE36
330
22AD17
100
AcDbEntity
  8
0
 62
     7
100
AcDbBlockReference
  2
gggr
 10
22577.07572306625
 20
-1976.619950102898
 30
0.0
  0
INSERT
  5
22AE37
330
22AD17
100
AcDbEntity
  8
0
 62
     7
100
AcDbBlockReference
  2
gggr
 10
22577.07572306625
 20
-2026.619950102899
 30
0.0
  0
INSERT
  5
22AE38
330
22AD17
100
AcDbEntity
  8
0
 62
     7
100
AcDbBlockReference
  2
gggr
 10
22577.07572306625
 20
-2076.619950102899
 30
0.0
  0
INSERT
  5
22AE39
330
22AD17
100
AcDbEntity
  8
0
 62
     7
100
AcDbBlockReference
  2
gggr
 10
22577.07572306625
 20
-2126.619950102899
 30
0.0
  0
INSERT
  5
22AE3A
330
22AD17
100
AcDbEntity
  8
0
 62
     7
100
AcDbBlockReference
  2
gggr
 10
22577.07572306625
 20
-2176.619950102899
 30
0.0
  0
INSERT
  5
22AE3B
330
22AD17
100
AcDbEntity
  8
0
 62
     7
100
AcDbBlockReference
  2
gggr
 10
22577.07572306625
 20
-2226.619950102898
 30
0.0
  0
INSERT
  5
22AE3C
330
22AD17
100
AcDbEntity
  8
0
 62
     7
100
AcDbBlockReference
  2
gggr
 10
22577.07572306625
 20
-2276.619950102899
 30
0.0
  0
INSERT
  5
22AE3D
330
22AD17
100
AcDbEntity
  8
0
 62
     7
100
AcDbBlockReference
  2
gggr
 10
22577.07572306625
 20
-2326.619950102899
 30
0.0
  0
INSERT
  5
22AE3E
330
22AD17
100
AcDbEntity
  8
0
 62
     7
100
AcDbBlockReference
  2
gggr
 10
22577.07572306625
 20
-2376.619950102899
 30
0.0
  0
INSERT
  5
22AE3F
330
22AD17
100
AcDbEntity
  8
0
 62
     7
100
AcDbBlockReference
  2
gggr
 10
22577.07572306625
 20
-2426.619950102899
 30
0.0
  0
INSERT
  5
22AE40
330
22AD17
100
AcDbEntity
  8
0
 62
     7
100
AcDbBlockReference
  2
gggr
 10
22577.07572306625
 20
-2476.619950102899
 30
0.0
  0
INSERT
  5
22AE41
330
22AD17
100
AcDbEntity
  8
0
 62
     7
100
AcDbBlockReference
  2
gggr
 10
22577.07572306625
 20
-2526.619950102899
 30
0.0
  0
INSERT
  5
22AE42
330
22AD17
100
AcDbEntity
  8
0
 62
     7
100
AcDbBlockReference
  2
gggr
 10
22577.07572306625
 20
-2576.619950102899
 30
0.0
  0
INSERT
  5
22AE43
330
22AD17
100
AcDbEntity
  8
0
 62
     7
100
AcDbBlockReference
  2
gggr
 10
22642.07572306625
 20
-1801.619950102898
 30
0.0
  0
INSERT
  5
22AE44
330
22AD17
100
AcDbEntity
  8
0
 62
     7
100
AcDbBlockReference
  2
gggr
 10
22642.07572306625
 20
-1851.619950102898
 30
0.0
  0
INSERT
  5
22AE45
330
22AD17
100
AcDbEntity
  8
0
 62
     7
100
AcDbBlockReference
  2
gggr
 10
22642.07572306625
 20
-1901.619950102898
 30
0.0
  0
INSERT
  5
22AE46
330
22AD17
100
AcDbEntity
  8
0
 62
     7
100
AcDbBlockReference
  2
gggr
 10
22642.07572306625
 20
-1951.619950102898
 30
0.0
  0
INSERT
  5
22AE47
330
22AD17
100
AcDbEntity
  8
0
 62
     7
100
AcDbBlockReference
  2
gggr
 10
22642.07572306625
 20
-2001.619950102899
 30
0.0
  0
INSERT
  5
22AE48
330
22AD17
100
AcDbEntity
  8
0
 62
     7
100
AcDbBlockReference
  2
gggr
 10
22642.07572306625
 20
-2051.619950102899
 30
0.0
  0
INSERT
  5
22AE49
330
22AD17
100
AcDbEntity
  8
0
 62
     7
100
AcDbBlockReference
  2
gggr
 10
22642.07572306625
 20
-2101.619950102898
 30
0.0
  0
INSERT
  5
22AE4A
330
22AD17
100
AcDbEntity
  8
0
 62
     7
100
AcDbBlockReference
  2
gggr
 10
22642.07572306625
 20
-2151.619950102899
 30
0.0
  0
INSERT
  5
22AE4B
330
22AD17
100
AcDbEntity
  8
0
 62
     7
100
AcDbBlockReference
  2
gggr
 10
22642.07572306625
 20
-2201.619950102899
 30
0.0
  0
INSERT
  5
22AE4C
330
22AD17
100
AcDbEntity
  8
0
 62
     7
100
AcDbBlockReference
  2
gggr
 10
22642.07572306625
 20
-2251.619950102899
 30
0.0
  0
INSERT
  5
22AE4D
330
22AD17
100
AcDbEntity
  8
0
 62
     7
100
AcDbBlockReference
  2
gggr
 10
22642.07572306625
 20
-2301.619950102899
 30
0.0
  0
INSERT
  5
22AE4E
330
22AD17
100
AcDbEntity
  8
0
 62
     7
100
AcDbBlockReference
  2
gggr
 10
22642.07572306625
 20
-2351.619950102898
 30
0.0
  0
INSERT
  5
22AE4F
330
22AD17
100
AcDbEntity
  8
0
 62
     7
100
AcDbBlockReference
  2
gggr
 10
22642.07572306625
 20
-2401.619950102899
 30
0.0
  0
INSERT
  5
22AE50
330
22AD17
100
AcDbEntity
  8
0
 62
     7
100
AcDbBlockReference
  2
gggr
 10
22642.07572306625
 20
-2451.619950102899
 30
0.0
  0
INSERT
  5
22AE51
330
22AD17
100
AcDbEntity
  8
0
 62
     7
100
AcDbBlockReference
  2
gggr
 10
22642.07572306625
 20
-2501.619950102899
 30
0.0
  0
INSERT
  5
22AE52
330
22AD17
100
AcDbEntity
  8
0
 62
     7
100
AcDbBlockReference
  2
gggr
 10
22642.07572306625
 20
-2551.619950102899
 30
0.0
  0
INSERT
  5
22AE53
330
22AD17
100
AcDbEntity
  8
0
 62
     7
100
AcDbBlockReference
  2
gggr
 10
22642.07572306625
 20
-2601.619950102899
 30
0.0
  0
INSERT
  5
22AE54
330
22AD17
100
AcDbEntity
  8
0
 62
     7
100
AcDbBlockReference
  2
gggr
 10
22707.07572306625
 20
-1826.619950102898
 30
0.0
  0
INSERT
  5
22AE55
330
22AD17
100
AcDbEntity
  8
0
 62
     7
100
AcDbBlockReference
  2
gggr
 10
22707.07572306625
 20
-1876.619950102898
 30
0.0
  0
INSERT
  5
22AE56
330
22AD17
100
AcDbEntity
  8
0
 62
     7
100
AcDbBlockReference
  2
gggr
 10
22707.07572306625
 20
-1926.619950102898
 30
0.0
  0
INSERT
  5
22AE57
330
22AD17
100
AcDbEntity
  8
0
 62
     7
100
AcDbBlockReference
  2
gggr
 10
22707.07572306625
 20
-1976.619950102898
 30
0.0
  0
INSERT
  5
22AE58
330
22AD17
100
AcDbEntity
  8
0
 62
     7
100
AcDbBlockReference
  2
gggr
 10
22707.07572306625
 20
-2026.619950102899
 30
0.0
  0
INSERT
  5
22AE59
330
22AD17
100
AcDbEntity
  8
0
 62
     7
100
AcDbBlockReference
  2
gggr
 10
22707.07572306625
 20
-2076.619950102899
 30
0.0
  0
INSERT
  5
22AE5A
330
22AD17
100
AcDbEntity
  8
0
 62
     7
100
AcDbBlockReference
  2
gggr
 10
22707.07572306625
 20
-2126.619950102899
 30
0.0
  0
INSERT
  5
22AE5B
330
22AD17
100
AcDbEntity
  8
0
 62
     7
100
AcDbBlockReference
  2
gggr
 10
22707.07572306625
 20
-2176.619950102899
 30
0.0
  0
INSERT
  5
22AE5C
330
22AD17
100
AcDbEntity
  8
0
 62
     7
100
AcDbBlockReference
  2
gggr
 10
22707.07572306625
 20
-2226.619950102898
 30
0.0
  0
INSERT
  5
22AE5D
330
22AD17
100
AcDbEntity
  8
0
 62
     7
100
AcDbBlockReference
  2
gggr
 10
22707.07572306625
 20
-2276.619950102899
 30
0.0
  0
INSERT
  5
22AE5E
330
22AD17
100
AcDbEntity
  8
0
 62
     7
100
AcDbBlockReference
  2
gggr
 10
22707.07572306625
 20
-2326.619950102899
 30
0.0
  0
INSERT
  5
22AE5F
330
22AD17
100
AcDbEntity
  8
0
 62
     7
100
AcDbBlockReference
  2
gggr
 10
22707.07572306625
 20
-2376.619950102899
 30
0.0
  0
INSERT
  5
22AE60
330
22AD17
100
AcDbEntity
  8
0
 62
     7
100
AcDbBlockReference
  2
gggr
 10
22707.07572306625
 20
-2426.619950102899
 30
0.0
  0
INSERT
  5
22AE61
330
22AD17
100
AcDbEntity
  8
0
 62
     7
100
AcDbBlockReference
  2
gggr
 10
22707.07572306625
 20
-2476.619950102899
 30
0.0
  0
INSERT
  5
22AE62
330
22AD17
100
AcDbEntity
  8
0
 62
     7
100
AcDbBlockReference
  2
gggr
 10
22707.07572306625
 20
-2526.619950102899
 30
0.0
  0
INSERT
  5
22AE63
330
22AD17
100
AcDbEntity
  8
0
 62
     7
100
AcDbBlockReference
  2
gggr
 10
22707.07572306625
 20
-2576.619950102899
 30
0.0
  0
INSERT
  5
22AE64
330
22AD17
100
AcDbEntity
  8
0
 62
     7
100
AcDbBlockReference
  2
gggr
 10
22772.07572306625
 20
-1801.619950102898
 30
0.0
  0
INSERT
  5
22AE65
330
22AD17
100
AcDbEntity
  8
0
 62
     7
100
AcDbBlockReference
  2
gggr
 10
22772.07572306625
 20
-1851.619950102898
 30
0.0
  0
INSERT
  5
22AE66
330
22AD17
100
AcDbEntity
  8
0
 62
     7
100
AcDbBlockReference
  2
gggr
 10
22772.07572306625
 20
-1901.619950102898
 30
0.0
  0
INSERT
  5
22AE67
330
22AD17
100
AcDbEntity
  8
0
 62
     7
100
AcDbBlockReference
  2
gggr
 10
22772.07572306625
 20
-1951.619950102898
 30
0.0
  0
INSERT
  5
22AE68
330
22AD17
100
AcDbEntity
  8
0
 62
     7
100
AcDbBlockReference
  2
gggr
 10
22772.07572306625
 20
-2001.619950102899
 30
0.0
  0
INSERT
  5
22AE69
330
22AD17
100
AcDbEntity
  8
0
 62
     7
100
AcDbBlockReference
  2
gggr
 10
22772.07572306625
 20
-2051.619950102899
 30
0.0
  0
INSERT
  5
22AE6A
330
22AD17
100
AcDbEntity
  8
0
 62
     7
100
AcDbBlockReference
  2
gggr
 10
22772.07572306625
 20
-2101.619950102898
 30
0.0
  0
INSERT
  5
22AE6B
330
22AD17
100
AcDbEntity
  8
0
 62
     7
100
AcDbBlockReference
  2
gggr
 10
22772.07572306625
 20
-2151.619950102899
 30
0.0
  0
INSERT
  5
22AE6C
330
22AD17
100
AcDbEntity
  8
0
 62
     7
100
AcDbBlockReference
  2
gggr
 10
22772.07572306625
 20
-2201.619950102899
 30
0.0
  0
INSERT
  5
22AE6D
330
22AD17
100
AcDbEntity
  8
0
 62
     7
100
AcDbBlockReference
  2
gggr
 10
22772.07572306625
 20
-2251.619950102899
 30
0.0
  0
INSERT
  5
22AE6E
330
22AD17
100
AcDbEntity
  8
0
 62
     7
100
AcDbBlockReference
  2
gggr
 10
22772.07572306625
 20
-2301.619950102899
 30
0.0
  0
INSERT
  5
22AE6F
330
22AD17
100
AcDbEntity
  8
0
 62
     7
100
AcDbBlockReference
  2
gggr
 10
22772.07572306625
 20
-2351.619950102898
 30
0.0
  0
INSERT
  5
22AE70
330
22AD17
100
AcDbEntity
  8
0
 62
     7
100
AcDbBlockReference
  2
gggr
 10
22772.07572306625
 20
-2401.619950102899
 30
0.0
  0
INSERT
  5
22AE71
330
22AD17
100
AcDbEntity
  8
0
 62
     7
100
AcDbBlockReference
  2
gggr
 10
22772.07572306625
 20
-2451.619950102899
 30
0.0
  0
INSERT
  5
22AE72
330
22AD17
100
AcDbEntity
  8
0
 62
     7
100
AcDbBlockReference
  2
gggr
 10
22772.07572306625
 20
-2501.619950102899
 30
0.0
  0
INSERT
  5
22AE73
330
22AD17
100
AcDbEntity
  8
0
 62
     7
100
AcDbBlockReference
  2
gggr
 10
22772.07572306625
 20
-2551.619950102899
 30
0.0
  0
INSERT
  5
22AE74
330
22AD17
100
AcDbEntity
  8
0
 62
     7
100
AcDbBlockReference
  2
gggr
 10
22772.07572306625
 20
-2601.619950102899
 30
0.0
  0
INSERT
  5
22AE75
330
22AD17
100
AcDbEntity
  8
0
 62
     7
100
AcDbBlockReference
  2
gggr
 10
22837.07572306625
 20
-1826.619950102898
 30
0.0
  0
INSERT
  5
22AE76
330
22AD17
100
AcDbEntity
  8
0
 62
     7
100
AcDbBlockReference
  2
gggr
 10
22837.07572306625
 20
-1876.619950102898
 30
0.0
  0
INSERT
  5
22AE77
330
22AD17
100
AcDbEntity
  8
0
 62
     7
100
AcDbBlockReference
  2
gggr
 10
22837.07572306625
 20
-1926.619950102898
 30
0.0
  0
INSERT
  5
22AE78
330
22AD17
100
AcDbEntity
  8
0
 62
     7
100
AcDbBlockReference
  2
gggr
 10
22837.07572306625
 20
-1976.619950102898
 30
0.0
  0
INSERT
  5
22AE79
330
22AD17
100
AcDbEntity
  8
0
 62
     7
100
AcDbBlockReference
  2
gggr
 10
22837.07572306625
 20
-2026.619950102899
 30
0.0
  0
INSERT
  5
22AE7A
330
22AD17
100
AcDbEntity
  8
0
 62
     7
100
AcDbBlockReference
  2
gggr
 10
22837.07572306625
 20
-2076.619950102899
 30
0.0
  0
INSERT
  5
22AE7B
330
22AD17
100
AcDbEntity
  8
0
 62
     7
100
AcDbBlockReference
  2
gggr
 10
22837.07572306625
 20
-2126.619950102899
 30
0.0
  0
INSERT
  5
22AE7C
330
22AD17
100
AcDbEntity
  8
0
 62
     7
100
AcDbBlockReference
  2
gggr
 10
22837.07572306625
 20
-2176.619950102899
 30
0.0
  0
INSERT
  5
22AE7D
330
22AD17
100
AcDbEntity
  8
0
 62
     7
100
AcDbBlockReference
  2
gggr
 10
22837.07572306625
 20
-2226.619950102898
 30
0.0
  0
INSERT
  5
22AE7E
330
22AD17
100
AcDbEntity
  8
0
 62
     7
100
AcDbBlockReference
  2
gggr
 10
22837.07572306625
 20
-2276.619950102899
 30
0.0
  0
INSERT
  5
22AE7F
330
22AD17
100
AcDbEntity
  8
0
 62
     7
100
AcDbBlockReference
  2
gggr
 10
22837.07572306625
 20
-2326.619950102899
 30
0.0
  0
INSERT
  5
22AE80
330
22AD17
100
AcDbEntity
  8
0
 62
     7
100
AcDbBlockReference
  2
gggr
 10
22837.07572306625
 20
-2376.619950102899
 30
0.0
  0
INSERT
  5
22AE81
330
22AD17
100
AcDbEntity
  8
0
 62
     7
100
AcDbBlockReference
  2
gggr
 10
22837.07572306625
 20
-2426.619950102899
 30
0.0
  0
INSERT
  5
22AE82
330
22AD17
100
AcDbEntity
  8
0
 62
     7
100
AcDbBlockReference
  2
gggr
 10
22837.07572306625
 20
-2476.619950102899
 30
0.0
  0
INSERT
  5
22AE83
330
22AD17
100
AcDbEntity
  8
0
 62
     7
100
AcDbBlockReference
  2
gggr
 10
22837.07572306625
 20
-2526.619950102899
 30
0.0
  0
INSERT
  5
22AE84
330
22AD17
100
AcDbEntity
  8
0
 62
     7
100
AcDbBlockReference
  2
gggr
 10
22837.07572306625
 20
-2576.619950102899
 30
0.0
  0
LINE
  5
22AE85
330
22AD17
100
AcDbEntity
  8
0
 62
     4
100
AcDbLine
 10
40753.32729611468
 20
-1669.616192884941
 30
0.0
 11
40844.32729611467
 21
-1669.616192884941
 31
0.0
  0
LINE
  5
22AE86
330
22AD17
100
AcDbEntity
  8
0
 62
     4
100
AcDbLine
 10
40844.32729611467
 20
-1669.616192884941
 30
0.0
 11
40844.32729611467
 21
-1687.114299756863
 31
0.0
  0
LINE
  5
22AE87
330
22AD17
100
AcDbEntity
  8
0
 62
     4
100
AcDbLine
 10
40753.32729611468
 20
-1687.114299756863
 30
0.0
 11
40753.32729611468
 21
-1669.616192884941
 31
0.0
  0
INSERT
  5
22AE88
330
22AD17
100
AcDbEntity
  8
0
 62
     7
100
AcDbBlockReference
  2
gggr
 10
21537.07572306625
 20
-1776.619950102898
 30
0.0
  0
INSERT
  5
22AE89
330
22AD17
100
AcDbEntity
  8
0
 62
     7
100
AcDbBlockReference
  2
gggr
 10
21667.07572306625
 20
-1776.619950102898
 30
0.0
  0
INSERT
  5
22AE8A
330
22AD17
100
AcDbEntity
  8
0
 62
     7
100
AcDbBlockReference
  2
gggr
 10
21797.07572306625
 20
-1776.619950102898
 30
0.0
  0
INSERT
  5
22AE8B
330
22AD17
100
AcDbEntity
  8
0
 62
     7
100
AcDbBlockReference
  2
gggr
 10
21927.07572306625
 20
-1776.619950102898
 30
0.0
  0
INSERT
  5
22AE8C
330
22AD17
100
AcDbEntity
  8
0
 62
     7
100
AcDbBlockReference
  2
gggr
 10
22057.07572306625
 20
-1776.619950102898
 30
0.0
  0
INSERT
  5
22AE8D
330
22AD17
100
AcDbEntity
  8
0
 62
     7
100
AcDbBlockReference
  2
gggr
 10
22187.07572306625
 20
-1776.619950102898
 30
0.0
  0
INSERT
  5
22AE8E
330
22AD17
100
AcDbEntity
  8
0
 62
     7
100
AcDbBlockReference
  2
gggr
 10
22317.07572306625
 20
-1776.619950102898
 30
0.0
  0
INSERT
  5
22AE8F
330
22AD17
100
AcDbEntity
  8
0
 62
     7
100
AcDbBlockReference
  2
gggr
 10
22447.07572306625
 20
-1776.619950102898
 30
0.0
  0
INSERT
  5
22AE90
330
22AD17
100
AcDbEntity
  8
0
 62
     7
100
AcDbBlockReference
  2
gggr
 10
22577.07572306625
 20
-1776.619950102898
 30
0.0
  0
INSERT
  5
22AE91
330
22AD17
100
AcDbEntity
  8
0
 62
     7
100
AcDbBlockReference
  2
gggr
 10
22707.07572306625
 20
-1776.619950102898
 30
0.0
  0
INSERT
  5
22AE92
330
22AD17
100
AcDbEntity
  8
0
 62
     7
100
AcDbBlockReference
  2
gggr
 10
22837.07572306625
 20
-1776.619950102898
 30
0.0
  0
INSERT
  5
22AE93
330
22AD17
100
AcDbEntity
  8
0
 62
     7
100
AcDbBlockReference
  2
gggr
 10
21472.07572306625
 20
-1751.619950102898
 30
0.0
  0
INSERT
  5
22AE94
330
22AD17
100
AcDbEntity
  8
0
 62
     7
100
AcDbBlockReference
  2
gggr
 10
21602.07572306625
 20
-1751.619950102898
 30
0.0
  0
INSERT
  5
22AE95
330
22AD17
100
AcDbEntity
  8
0
 62
     7
100
AcDbBlockReference
  2
gggr
 10
21732.07572306625
 20
-1751.619950102898
 30
0.0
  0
INSERT
  5
22AE96
330
22AD17
100
AcDbEntity
  8
0
 62
     7
100
AcDbBlockReference
  2
gggr
 10
21862.07572306625
 20
-1751.619950102898
 30
0.0
  0
INSERT
  5
22AE97
330
22AD17
100
AcDbEntity
  8
0
 62
     7
100
AcDbBlockReference
  2
gggr
 10
21992.07572306625
 20
-1751.619950102898
 30
0.0
  0
INSERT
  5
22AE98
330
22AD17
100
AcDbEntity
  8
0
 62
     7
100
AcDbBlockReference
  2
gggr
 10
22122.07572306625
 20
-1751.619950102898
 30
0.0
  0
INSERT
  5
22AE99
330
22AD17
100
AcDbEntity
  8
0
 62
     7
100
AcDbBlockReference
  2
gggr
 10
22252.07572306625
 20
-1751.619950102898
 30
0.0
  0
INSERT
  5
22AE9A
330
22AD17
100
AcDbEntity
  8
0
 62
     7
100
AcDbBlockReference
  2
gggr
 10
22382.07572306625
 20
-1751.619950102898
 30
0.0
  0
INSERT
  5
22AE9B
330
22AD17
100
AcDbEntity
  8
0
 62
     7
100
AcDbBlockReference
  2
gggr
 10
22512.07572306625
 20
-1751.619950102898
 30
0.0
  0
INSERT
  5
22AE9C
330
22AD17
100
AcDbEntity
  8
0
 62
     7
100
AcDbBlockReference
  2
gggr
 10
22642.07572306625
 20
-1751.619950102898
 30
0.0
  0
INSERT
  5
22AE9D
330
22AD17
100
AcDbEntity
  8
0
 62
     7
100
AcDbBlockReference
  2
gggr
 10
22772.07572306625
 20
-1751.619950102898
 30
0.0
  0
INSERT
  5
22AE9E
330
22AD17
100
AcDbEntity
  8
0
 62
     7
100
AcDbBlockReference
  2
gggr
 10
21537.07572306625
 20
-1726.619950102898
 30
0.0
  0
INSERT
  5
22AE9F
330
22AD17
100
AcDbEntity
  8
0
 62
     7
100
AcDbBlockReference
  2
gggr
 10
21667.07572306625
 20
-1726.619950102898
 30
0.0
  0
INSERT
  5
22AEA0
330
22AD17
100
AcDbEntity
  8
0
 62
     7
100
AcDbBlockReference
  2
gggr
 10
21797.07572306625
 20
-1726.619950102898
 30
0.0
  0
INSERT
  5
22AEA1
330
22AD17
100
AcDbEntity
  8
0
 62
     7
100
AcDbBlockReference
  2
gggr
 10
21927.07572306625
 20
-1726.619950102898
 30
0.0
  0
INSERT
  5
22AEA2
330
22AD17
100
AcDbEntity
  8
0
 62
     7
100
AcDbBlockReference
  2
gggr
 10
22057.07572306625
 20
-1726.619950102898
 30
0.0
  0
INSERT
  5
22AEA3
330
22AD17
100
AcDbEntity
  8
0
 62
     7
100
AcDbBlockReference
  2
gggr
 10
22187.07572306625
 20
-1726.619950102898
 30
0.0
  0
INSERT
  5
22AEA4
330
22AD17
100
AcDbEntity
  8
0
 62
     7
100
AcDbBlockReference
  2
gggr
 10
22317.07572306625
 20
-1726.619950102898
 30
0.0
  0
INSERT
  5
22AEA5
330
22AD17
100
AcDbEntity
  8
0
 62
     7
100
AcDbBlockReference
  2
gggr
 10
22447.07572306625
 20
-1726.619950102898
 30
0.0
  0
INSERT
  5
22AEA6
330
22AD17
100
AcDbEntity
  8
0
 62
     7
100
AcDbBlockReference
  2
gggr
 10
22577.07572306625
 20
-1726.619950102898
 30
0.0
  0
INSERT
  5
22AEA7
330
22AD17
100
AcDbEntity
  8
0
 62
     7
100
AcDbBlockReference
  2
gggr
 10
22707.07572306625
 20
-1726.619950102898
 30
0.0
  0
INSERT
  5
22AEA8
330
22AD17
100
AcDbEntity
  8
0
 62
     7
100
AcDbBlockReference
  2
gggr
 10
22837.07572306625
 20
-1726.619950102898
 30
0.0
  0
INSERT
  5
22AEA9
330
22AD17
100
AcDbEntity
  8
0
 62
     7
100
AcDbBlockReference
  2
gggr
 10
21472.07572306625
 20
-1701.619950102898
 30
0.0
  0
INSERT
  5
22AEAA
330
22AD17
100
AcDbEntity
  8
0
 62
     7
100
AcDbBlockReference
  2
gggr
 10
21602.07572306625
 20
-1701.619950102898
 30
0.0
  0
INSERT
  5
22AEAB
330
22AD17
100
AcDbEntity
  8
0
 62
     7
100
AcDbBlockReference
  2
gggr
 10
21732.07572306625
 20
-1701.619950102898
 30
0.0
  0
INSERT
  5
22AEAC
330
22AD17
100
AcDbEntity
  8
0
 62
     7
100
AcDbBlockReference
  2
gggr
 10
21862.07572306625
 20
-1701.619950102898
 30
0.0
  0
INSERT
  5
22AEAD
330
22AD17
100
AcDbEntity
  8
0
 62
     7
100
AcDbBlockReference
  2
gggr
 10
21992.07572306625
 20
-1701.619950102898
 30
0.0
  0
INSERT
  5
22AEAE
330
22AD17
100
AcDbEntity
  8
0
 62
     7
100
AcDbBlockReference
  2
gggr
 10
22122.07572306625
 20
-1701.619950102898
 30
0.0
  0
INSERT
  5
22AEAF
330
22AD17
100
AcDbEntity
  8
0
 62
     7
100
AcDbBlockReference
  2
gggr
 10
22252.07572306625
 20
-1701.619950102898
 30
0.0
  0
INSERT
  5
22AEB0
330
22AD17
100
AcDbEntity
  8
0
 62
     7
100
AcDbBlockReference
  2
gggr
 10
22382.07572306625
 20
-1701.619950102898
 30
0.0
  0
INSERT
  5
22AEB1
330
22AD17
100
AcDbEntity
  8
0
 62
     7
100
AcDbBlockReference
  2
gggr
 10
22512.07572306625
 20
-1701.619950102898
 30
0.0
  0
INSERT
  5
22AEB2
330
22AD17
100
AcDbEntity
  8
0
 62
     7
100
AcDbBlockReference
  2
gggr
 10
22642.07572306625
 20
-1701.619950102898
 30
0.0
  0
INSERT
  5
22AEB3
330
22AD17
100
AcDbEntity
  8
0
 62
     7
100
AcDbBlockReference
  2
gggr
 10
22772.07572306625
 20
-1701.619950102898
 30
0.0
  0
INSERT
  5
22AEB4
330
22AD17
100
AcDbEntity
  8
0
 62
     7
100
AcDbBlockReference
  2
gggr
 10
21537.07572306625
 20
-1676.619950102898
 30
0.0
  0
INSERT
  5
22AEB5
330
22AD17
100
AcDbEntity
  8
0
 62
     7
100
AcDbBlockReference
  2
gggr
 10
21667.07572306625
 20
-1676.619950102898
 30
0.0
  0
INSERT
  5
22AEB6
330
22AD17
100
AcDbEntity
  8
0
 62
     7
100
AcDbBlockReference
  2
gggr
 10
21797.07572306625
 20
-1676.619950102898
 30
0.0
  0
INSERT
  5
22AEB7
330
22AD17
100
AcDbEntity
  8
0
 62
     7
100
AcDbBlockReference
  2
gggr
 10
21927.07572306625
 20
-1676.619950102898
 30
0.0
  0
INSERT
  5
22AEB8
330
22AD17
100
AcDbEntity
  8
0
 62
     7
100
AcDbBlockReference
  2
gggr
 10
22057.07572306625
 20
-1676.619950102898
 30
0.0
  0
INSERT
  5
22AEB9
330
22AD17
100
AcDbEntity
  8
0
 62
     7
100
AcDbBlockReference
  2
gggr
 10
22187.07572306625
 20
-1676.619950102898
 30
0.0
  0
INSERT
  5
22AEBA
330
22AD17
100
AcDbEntity
  8
0
 62
     7
100
AcDbBlockReference
  2
gggr
 10
22317.07572306625
 20
-1676.619950102898
 30
0.0
  0
INSERT
  5
22AEBB
330
22AD17
100
AcDbEntity
  8
0
 62
     7
100
AcDbBlockReference
  2
gggr
 10
22447.07572306625
 20
-1676.619950102898
 30
0.0
  0
INSERT
  5
22AEBC
330
22AD17
100
AcDbEntity
  8
0
 62
     7
100
AcDbBlockReference
  2
gggr
 10
22577.07572306625
 20
-1676.619950102898
 30
0.0
  0
INSERT
  5
22AEBD
330
22AD17
100
AcDbEntity
  8
0
 62
     7
100
AcDbBlockReference
  2
gggr
 10
22707.07572306625
 20
-1676.619950102898
 30
0.0
  0
INSERT
  5
22AEBE
330
22AD17
100
AcDbEntity
  8
0
 62
     7
100
AcDbBlockReference
  2
gggr
 10
22837.07572306625
 20
-1676.619950102898
 30
0.0
  0
INSERT
  5
22AEBF
330
22AD17
100
AcDbEntity
  8
0
 62
     7
100
AcDbBlockReference
  2
gggr
 10
21472.07572306625
 20
-1651.619950102898
 30
0.0
  0
INSERT
  5
22AEC0
330
22AD17
100
AcDbEntity
  8
0
 62
     7
100
AcDbBlockReference
  2
gggr
 10
21602.07572306625
 20
-1651.619950102898
 30
0.0
  0
INSERT
  5
22AEC1
330
22AD17
100
AcDbEntity
  8
0
 62
     7
100
AcDbBlockReference
  2
gggr
 10
21732.07572306625
 20
-1651.619950102898
 30
0.0
  0
INSERT
  5
22AEC2
330
22AD17
100
AcDbEntity
  8
0
 62
     7
100
AcDbBlockReference
  2
gggr
 10
21862.07572306625
 20
-1651.619950102898
 30
0.0
  0
INSERT
  5
22AEC3
330
22AD17
100
AcDbEntity
  8
0
 62
     7
100
AcDbBlockReference
  2
gggr
 10
21992.07572306625
 20
-1651.619950102898
 30
0.0
  0
INSERT
  5
22AEC4
330
22AD17
100
AcDbEntity
  8
0
 62
     7
100
AcDbBlockReference
  2
gggr
 10
22122.07572306625
 20
-1651.619950102898
 30
0.0
  0
INSERT
  5
22AEC5
330
22AD17
100
AcDbEntity
  8
0
 62
     7
100
AcDbBlockReference
  2
gggr
 10
22252.07572306625
 20
-1651.619950102898
 30
0.0
  0
INSERT
  5
22AEC6
330
22AD17
100
AcDbEntity
  8
0
 62
     7
100
AcDbBlockReference
  2
gggr
 10
22382.07572306625
 20
-1651.619950102898
 30
0.0
  0
INSERT
  5
22AEC7
330
22AD17
100
AcDbEntity
  8
0
 62
     7
100
AcDbBlockReference
  2
gggr
 10
22512.07572306625
 20
-1651.619950102898
 30
0.0
  0
INSERT
  5
22AEC8
330
22AD17
100
AcDbEntity
  8
0
 62
     7
100
AcDbBlockReference
  2
gggr
 10
22642.07572306625
 20
-1651.619950102898
 30
0.0
  0
INSERT
  5
22AEC9
330
22AD17
100
AcDbEntity
  8
0
 62
     7
100
AcDbBlockReference
  2
gggr
 10
22772.07572306625
 20
-1651.619950102898
 30
0.0
  0
LINE
  5
22AECA
330
22AD17
100
AcDbEntity
  8
0
 62
     4
100
AcDbLine
 10
40818.32729611468
 20
-694.6161928849415
 30
0.0
 11
40883.22332817352
 21
-694.6161928849415
 31
0.0
  0
LINE
  5
22AECB
330
22AD17
100
AcDbEntity
  8
0
 62
     4
100
AcDbLine
 10
40883.22332817352
 20
-719.6161928849415
 30
0.0
 11
40818.32729611468
 21
-719.6161928849415
 31
0.0
  0
LINE
  5
22AECC
330
22AD17
100
AcDbEntity
  8
0
 62
     4
100
AcDbLine
 10
40818.32729611468
 20
-719.6161928849415
 30
0.0
 11
40818.32729611468
 21
-694.6161928849415
 31
0.0
  0
LINE
  5
22AECD
330
22AD17
100
AcDbEntity
  8
0
 62
     4
100
AcDbLine
 10
39544.32729611468
 20
-677.1142997568915
 30
0.0
 11
39544.32729611468
 21
-694.6161928849415
 31
0.0
  0
LINE
  5
22AECE
330
22AD17
100
AcDbEntity
  8
0
 62
     4
100
AcDbLine
 10
39544.32729611468
 20
-694.6161928849415
 30
0.0
 11
39453.32729611468
 21
-694.6161928849415
 31
0.0
  0
LINE
  5
22AECF
330
22AD17
100
AcDbEntity
  8
0
 62
     4
100
AcDbLine
 10
39453.32729611468
 20
-694.6161928849415
 30
0.0
 11
39453.32729611468
 21
-677.1142997568914
 31
0.0
  0
LINE
  5
22AED0
330
22AD17
100
AcDbEntity
  8
0
 62
     4
100
AcDbLine
 10
39414.32729611469
 20
-677.1142997568913
 30
0.0
 11
39414.32729611468
 21
-694.6161928849415
 31
0.0
  0
LINE
  5
22AED1
330
22AD17
100
AcDbEntity
  8
0
 62
     4
100
AcDbLine
 10
39414.32729611468
 20
-694.6161928849415
 30
0.0
 11
39348.22332817354
 21
-694.6161928849415
 31
0.0
  0
LINE
  5
22AED2
330
22AD17
100
AcDbEntity
  8
0
 62
     4
100
AcDbLine
 10
39348.22332817354
 20
-719.6161928849415
 30
0.0
 11
39414.32729611468
 21
-719.6161928849415
 31
0.0
  0
LINE
  5
22AED3
330
22AD17
100
AcDbEntity
  8
0
 62
     4
100
AcDbLine
 10
39414.32729611468
 20
-719.6161928849415
 30
0.0
 11
39414.32729611468
 21
-744.6161928849415
 31
0.0
  0
LINE
  5
22AED4
330
22AD17
100
AcDbEntity
  8
0
 62
     4
100
AcDbLine
 10
39414.32729611468
 20
-744.6161928849415
 30
0.0
 11
39348.22332817354
 21
-744.6161928849415
 31
0.0
  0
LINE
  5
22AED5
330
22AD17
100
AcDbEntity
  8
0
 62
     4
100
AcDbLine
 10
39348.22332817354
 20
-769.6161928849416
 30
0.0
 11
39414.32729611468
 21
-769.6161928849415
 31
0.0
  0
LINE
  5
22AED6
330
22AD17
100
AcDbEntity
  8
0
 62
     4
100
AcDbLine
 10
39414.32729611468
 20
-769.6161928849415
 30
0.0
 11
39414.32729611468
 21
-794.6161928849415
 31
0.0
  0
LINE
  5
22AED7
330
22AD17
100
AcDbEntity
  8
0
 62
     4
100
AcDbLine
 10
39414.32729611468
 20
-794.6161928849415
 30
0.0
 11
39348.22332817354
 21
-794.6161928849415
 31
0.0
  0
LINE
  5
22AED8
330
22AD17
100
AcDbEntity
  8
0
 62
     4
100
AcDbLine
 10
39348.22332817354
 20
-819.6161928849415
 30
0.0
 11
39414.32729611468
 21
-819.6161928849415
 31
0.0
  0
LINE
  5
22AED9
330
22AD17
100
AcDbEntity
  8
0
 62
     4
100
AcDbLine
 10
39414.32729611468
 20
-819.6161928849415
 30
0.0
 11
39414.32729611468
 21
-844.6161928849415
 31
0.0
  0
LINE
  5
22AEDA
330
22AD17
100
AcDbEntity
  8
0
 62
     4
100
AcDbLine
 10
39414.32729611468
 20
-844.6161928849415
 30
0.0
 11
39348.22332817354
 21
-844.6161928849416
 31
0.0
  0
LINE
  5
22AEDB
330
22AD17
100
AcDbEntity
  8
0
 62
     4
100
AcDbLine
 10
39414.32729611468
 20
-869.6161928849415
 30
0.0
 11
39414.32729611468
 21
-894.6161928849415
 31
0.0
  0
LINE
  5
22AEDC
330
22AD17
100
AcDbEntity
  8
0
 62
     4
100
AcDbLine
 10
39414.32729611468
 20
-919.6161928849415
 30
0.0
 11
39414.32729611468
 21
-944.6161928849415
 31
0.0
  0
LINE
  5
22AEDD
330
22AD17
100
AcDbEntity
  8
0
 62
     4
100
AcDbLine
 10
39414.32729611468
 20
-1019.616192884941
 30
0.0
 11
39414.32729611468
 21
-1044.616192884941
 31
0.0
  0
LINE
  5
22AEDE
330
22AD17
100
AcDbEntity
  8
0
 62
     4
100
AcDbLine
 10
39414.32729611468
 20
-969.6161928849415
 30
0.0
 11
39414.32729611468
 21
-994.6161928849415
 31
0.0
  0
LINE
  5
22AEDF
330
22AD17
100
AcDbEntity
  8
0
 62
     4
100
AcDbLine
 10
39414.32729611468
 20
-1069.616192884941
 30
0.0
 11
39414.32729611468
 21
-1094.616192884941
 31
0.0
  0
LINE
  5
22AEE0
330
22AD17
100
AcDbEntity
  8
Widoczne (ISO)
 62
     2
100
AcDbLine
 10
39348.22332817353
 20
-1687.114299756863
 30
0.0
 11
40883.22332817352
 21
-1687.114299756863
 31
0.0
  0
LINE
  5
22AEE1
330
22AD17
100
AcDbEntity
  8
Widoczne (ISO)
 62
     2
100
AcDbLine
 10
40883.22332817352
 20
-677.1142997568932
 30
0.0
 11
40883.22332817352
 21
-1687.114299756863
 31
0.0
  0
LINE
  5
22AEE2
330
22AD17
100
AcDbEntity
  8
Widoczne (ISO)
 62
     2
100
AcDbLine
 10
40883.22332817352
 20
-677.1142997568932
 30
0.0
 11
39348.22332817353
 21
-677.1142997568913
 31
0.0
  0
LINE
  5
22AEE3
330
22AD17
100
AcDbEntity
  8
Widoczne (ISO)
 62
     2
100
AcDbLine
 10
39348.22332817353
 20
-1687.114299756863
 30
0.0
 11
39348.22332817353
 21
-677.1142997568913
 31
0.0
  0
INSERT
  5
22AEE4
330
22AD17
100
AcDbEntity
  8
0
100
AcDbBlockReference
  2
rrrrttd
 10
0.0
 20
0.0
 30
0.0
  0
INSERT
  5
22AEE5
330
22AD17
100
AcDbEntity
  8
0
100
AcDbBlockReference
  2
rrrrttd
 10
0.0
 20
-50.0
 30
0.0
  0
INSERT
  5
22AEE6
330
22AD17
100
AcDbEntity
  8
0
100
AcDbBlockReference
  2
rrrrttd
 10
0.0
 20
-100.0
 30
0.0
  0
INSERT
  5
22AEE7
330
22AD17
100
AcDbEntity
  8
0
100
AcDbBlockReference
  2
rrrrttd
 10
0.0
 20
-150.0
 30
0.0
  0
INSERT
  5
22AEE8
330
22AD17
100
AcDbEntity
  8
0
100
AcDbBlockReference
  2
rrrrttd
 10
0.0
 20
-200.0
 30
0.0
  0
INSERT
  5
22AEE9
330
22AD17
100
AcDbEntity
  8
0
100
AcDbBlockReference
  2
rrrrttd
 10
0.0
 20
-250.0
 30
0.0
  0
INSERT
  5
22AEEA
330
22AD17
100
AcDbEntity
  8
0
100
AcDbBlockReference
  2
rrrrttd
 10
0.0
 20
-300.0
 30
0.0
  0
LINE
  5
22AEEB
330
22AD17
100
AcDbEntity
  8
0
 62
     4
100
AcDbLine
 10
40818.32729611468
 20
-1094.616192884941
 30
0.0
 11
40883.22332817352
 21
-1094.616192884941
 31
0.0
  0
LINE
  5
22AEEC
330
22AD17
100
AcDbEntity
  8
0
 62
     4
100
AcDbLine
 10
40883.22332817352
 20
-1119.616192884941
 30
0.0
 11
40818.32729611468
 21
-1119.616192884941
 31
0.0
  0
LINE
  5
22AEED
330
22AD17
100
AcDbEntity
  8
0
 62
     4
100
AcDbLine
 10
40818.32729611468
 20
-1119.616192884941
 30
0.0
 11
40818.32729611468
 21
-1094.616192884941
 31
0.0
  0
INSERT
  5
22AEEE
330
22AD17
100
AcDbEntity
  8
0
100
AcDbBlockReference
  2
rrrrttd
 10
0.0
 20
-400.0
 30
0.0
  0
INSERT
  5
22AEEF
330
22AD17
100
AcDbEntity
  8
0
100
AcDbBlockReference
  2
rrrrttd
 10
0.0
 20
-450.0
 30
0.0
  0
INSERT
  5
22AEF0
330
22AD17
100
AcDbEntity
  8
0
100
AcDbBlockReference
  2
rrrrttd
 10
0.0
 20
-500.0
 30
0.0
  0
INSERT
  5
22AEF1
330
22AD17
100
AcDbEntity
  8
0
100
AcDbBlockReference
  2
rrrrttd
 10
0.0
 20
-550.0
 30
0.0
  0
INSERT
  5
22AEF2
330
22AD17
100
AcDbEntity
  8
0
100
AcDbBlockReference
  2
rrrrttd
 10
0.0
 20
-600.0
 30
0.0
  0
INSERT
  5
22AEF3
330
22AD17
100
AcDbEntity
  8
0
100
AcDbBlockReference
  2
rrrrttd
 10
0.0
 20
-650.0
 30
0.0
  0
INSERT
  5
22AEF4
330
22AD17
100
AcDbEntity
  8
0
100
AcDbBlockReference
  2
rrrrttd
 10
0.0
 20
-700.0
 30
0.0
  0
LINE
  5
22AEF5
330
22AD17
100
AcDbEntity
  8
0
 62
     4
100
AcDbLine
 10
40818.32729611468
 20
-1494.616192884941
 30
0.0
 11
40883.22332817352
 21
-1494.616192884941
 31
0.0
  0
LINE
  5
22AEF6
330
22AD17
100
AcDbEntity
  8
0
 62
     4
100
AcDbLine
 10
40883.22332817352
 20
-1519.616192884941
 30
0.0
 11
40818.32729611468
 21
-1519.616192884941
 31
0.0
  0
LINE
  5
22AEF7
330
22AD17
100
AcDbEntity
  8
0
 62
     4
100
AcDbLine
 10
40818.32729611468
 20
-1519.616192884941
 30
0.0
 11
40818.32729611468
 21
-1494.616192884941
 31
0.0
  0
INSERT
  5
22AEF8
330
22AD17
100
AcDbEntity
  8
0
100
AcDbBlockReference
  2
rrrrttd
 10
0.0
 20
-800.0
 30
0.0
  0
INSERT
  5
22AEF9
330
22AD17
100
AcDbEntity
  8
0
100
AcDbBlockReference
  2
rrrrttd
 10
0.0
 20
-850.0
 30
0.0
  0
INSERT
  5
22AEFA
330
22AD17
100
AcDbEntity
  8
0
100
AcDbBlockReference
  2
rrrrttd
 10
0.0
 20
-900.0
 30
0.0
  0
LINE
  5
22AEFB
330
22AD17
100
AcDbEntity
  8
0
 62
     4
100
AcDbLine
 10
39674.32729611468
 20
-677.1142997568915
 30
0.0
 11
39674.32729611468
 21
-694.6161928849415
 31
0.0
  0
LINE
  5
22AEFC
330
22AD17
100
AcDbEntity
  8
0
 62
     4
100
AcDbLine
 10
39674.32729611468
 20
-694.6161928849415
 30
0.0
 11
39583.32729611468
 21
-694.6161928849415
 31
0.0
  0
LINE
  5
22AEFD
330
22AD17
100
AcDbEntity
  8
0
 62
     4
100
AcDbLine
 10
39583.32729611468
 20
-694.6161928849415
 30
0.0
 11
39583.32729611468
 21
-677.1142997568914
 31
0.0
  0
LINE
  5
22AEFE
330
22AD17
100
AcDbEntity
  8
0
 62
     4
100
AcDbLine
 10
39804.32729611468
 20
-677.1142997568915
 30
0.0
 11
39804.32729611468
 21
-694.6161928849415
 31
0.0
  0
LINE
  5
22AEFF
330
22AD17
100
AcDbEntity
  8
0
 62
     4
100
AcDbLine
 10
39804.32729611468
 20
-694.6161928849415
 30
0.0
 11
39713.32729611468
 21
-694.6161928849415
 31
0.0
  0
LINE
  5
22AF00
330
22AD17
100
AcDbEntity
  8
0
 62
     4
100
AcDbLine
 10
39713.32729611468
 20
-694.6161928849415
 30
0.0
 11
39713.32729611468
 21
-677.1142997568914
 31
0.0
  0
LINE
  5
22AF01
330
22AD17
100
AcDbEntity
  8
0
 62
     4
100
AcDbLine
 10
39934.32729611468
 20
-677.1142997568915
 30
0.0
 11
39934.32729611468
 21
-694.6161928849415
 31
0.0
  0
LINE
  5
22AF02
330
22AD17
100
AcDbEntity
  8
0
 62
     4
100
AcDbLine
 10
39934.32729611468
 20
-694.6161928849415
 30
0.0
 11
39843.32729611468
 21
-694.6161928849415
 31
0.0
  0
LINE
  5
22AF03
330
22AD17
100
AcDbEntity
  8
0
 62
     4
100
AcDbLine
 10
39843.32729611468
 20
-694.6161928849415
 30
0.0
 11
39843.32729611468
 21
-677.1142997568914
 31
0.0
  0
LINE
  5
22AF04
330
22AD17
100
AcDbEntity
  8
0
 62
     4
100
AcDbLine
 10
40064.32729611468
 20
-677.1142997568915
 30
0.0
 11
40064.32729611468
 21
-694.6161928849415
 31
0.0
  0
LINE
  5
22AF05
330
22AD17
100
AcDbEntity
  8
0
 62
     4
100
AcDbLine
 10
40064.32729611468
 20
-694.6161928849415
 30
0.0
 11
39973.32729611468
 21
-694.6161928849415
 31
0.0
  0
LINE
  5
22AF06
330
22AD17
100
AcDbEntity
  8
0
 62
     4
100
AcDbLine
 10
39973.32729611468
 20
-694.6161928849415
 30
0.0
 11
39973.32729611468
 21
-677.1142997568914
 31
0.0
  0
LINE
  5
22AF07
330
22AD17
100
AcDbEntity
  8
0
 62
     4
100
AcDbLine
 10
40194.32729611468
 20
-677.1142997568915
 30
0.0
 11
40194.32729611468
 21
-694.6161928849415
 31
0.0
  0
LINE
  5
22AF08
330
22AD17
100
AcDbEntity
  8
0
 62
     4
100
AcDbLine
 10
40194.32729611468
 20
-694.6161928849415
 30
0.0
 11
40103.32729611468
 21
-694.6161928849415
 31
0.0
  0
LINE
  5
22AF09
330
22AD17
100
AcDbEntity
  8
0
 62
     4
100
AcDbLine
 10
40103.32729611468
 20
-694.6161928849415
 30
0.0
 11
40103.32729611468
 21
-677.1142997568914
 31
0.0
  0
LINE
  5
22AF0A
330
22AD17
100
AcDbEntity
  8
0
 62
     4
100
AcDbLine
 10
40324.32729611468
 20
-677.1142997568915
 30
0.0
 11
40324.32729611468
 21
-694.6161928849415
 31
0.0
  0
LINE
  5
22AF0B
330
22AD17
100
AcDbEntity
  8
0
 62
     4
100
AcDbLine
 10
40324.32729611468
 20
-694.6161928849415
 30
0.0
 11
40233.32729611468
 21
-694.6161928849415
 31
0.0
  0
LINE
  5
22AF0C
330
22AD17
100
AcDbEntity
  8
0
 62
     4
100
AcDbLine
 10
40233.32729611468
 20
-694.6161928849415
 30
0.0
 11
40233.32729611468
 21
-677.1142997568914
 31
0.0
  0
LINE
  5
22AF0D
330
22AD17
100
AcDbEntity
  8
0
 62
     4
100
AcDbLine
 10
40454.32729611468
 20
-677.1142997568915
 30
0.0
 11
40454.32729611468
 21
-694.6161928849415
 31
0.0
  0
LINE
  5
22AF0E
330
22AD17
100
AcDbEntity
  8
0
 62
     4
100
AcDbLine
 10
40454.32729611468
 20
-694.6161928849415
 30
0.0
 11
40363.32729611467
 21
-694.6161928849415
 31
0.0
  0
LINE
  5
22AF0F
330
22AD17
100
AcDbEntity
  8
0
 62
     4
100
AcDbLine
 10
40363.32729611467
 20
-694.6161928849415
 30
0.0
 11
40363.32729611467
 21
-677.1142997568914
 31
0.0
  0
LINE
  5
22AF10
330
22AD17
100
AcDbEntity
  8
0
 62
     4
100
AcDbLine
 10
40584.32729611467
 20
-677.1142997568915
 30
0.0
 11
40584.32729611467
 21
-694.6161928849415
 31
0.0
  0
LINE
  5
22AF11
330
22AD17
100
AcDbEntity
  8
0
 62
     4
100
AcDbLine
 10
40584.32729611467
 20
-694.6161928849415
 30
0.0
 11
40493.32729611467
 21
-694.6161928849415
 31
0.0
  0
LINE
  5
22AF12
330
22AD17
100
AcDbEntity
  8
0
 62
     4
100
AcDbLine
 10
40493.32729611467
 20
-694.6161928849415
 30
0.0
 11
40493.32729611467
 21
-677.1142997568914
 31
0.0
  0
LINE
  5
22AF13
330
22AD17
100
AcDbEntity
  8
0
 62
     4
100
AcDbLine
 10
40714.32729611467
 20
-677.1142997568915
 30
0.0
 11
40714.32729611467
 21
-694.6161928849415
 31
0.0
  0
LINE
  5
22AF14
330
22AD17
100
AcDbEntity
  8
0
 62
     4
100
AcDbLine
 10
40714.32729611467
 20
-694.6161928849415
 30
0.0
 11
40623.32729611467
 21
-694.6161928849415
 31
0.0
  0
LINE
  5
22AF15
330
22AD17
100
AcDbEntity
  8
0
 62
     4
100
AcDbLine
 10
40623.32729611467
 20
-694.6161928849415
 30
0.0
 11
40623.32729611467
 21
-677.1142997568914
 31
0.0
  0
LINE
  5
22AF16
330
22AD17
100
AcDbEntity
  8
0
 62
     4
100
AcDbLine
 10
40844.32729611467
 20
-677.1142997568915
 30
0.0
 11
40844.32729611467
 21
-694.6161928849415
 31
0.0
  0
LINE
  5
22AF17
330
22AD17
100
AcDbEntity
  8
0
 62
     4
100
AcDbLine
 10
40844.32729611467
 20
-694.6161928849415
 30
0.0
 11
40753.32729611468
 21
-694.6161928849415
 31
0.0
  0
LINE
  5
22AF18
330
22AD17
100
AcDbEntity
  8
0
 62
     4
100
AcDbLine
 10
40753.32729611468
 20
-694.6161928849415
 30
0.0
 11
40753.32729611468
 21
-677.1142997568914
 31
0.0
  0
LINE
  5
22AF19
330
22AD17
100
AcDbEntity
  8
0
 62
     4
100
AcDbLine
 10
40623.65723988082
 20
-1669.616192884941
 30
0.0
 11
40714.65723988081
 21
-1669.616192884941
 31
0.0
  0
LINE
  5
22AF1A
330
22AD17
100
AcDbEntity
  8
0
 62
     4
100
AcDbLine
 10
40714.65723988081
 20
-1669.616192884941
 30
0.0
 11
40714.65723988081
 21
-1687.114299756863
 31
0.0
  0
LINE
  5
22AF1B
330
22AD17
100
AcDbEntity
  8
0
 62
     4
100
AcDbLine
 10
40623.65723988082
 20
-1687.114299756863
 30
0.0
 11
40623.65723988082
 21
-1669.616192884941
 31
0.0
  0
LINE
  5
22AF1C
330
22AD17
100
AcDbEntity
  8
0
 62
     4
100
AcDbLine
 10
40493.65723988081
 20
-1669.616192884941
 30
0.0
 11
40584.65723988081
 21
-1669.616192884941
 31
0.0
  0
LINE
  5
22AF1D
330
22AD17
100
AcDbEntity
  8
0
 62
     4
100
AcDbLine
 10
40584.65723988081
 20
-1669.616192884941
 30
0.0
 11
40584.65723988081
 21
-1687.114299756863
 31
0.0
  0
LINE
  5
22AF1E
330
22AD17
100
AcDbEntity
  8
0
 62
     4
100
AcDbLine
 10
40493.65723988081
 20
-1687.114299756863
 30
0.0
 11
40493.65723988081
 21
-1669.616192884941
 31
0.0
  0
LINE
  5
22AF1F
330
22AD17
100
AcDbEntity
  8
0
 62
     4
100
AcDbLine
 10
40363.65723988081
 20
-1669.616192884941
 30
0.0
 11
40454.65723988082
 21
-1669.616192884941
 31
0.0
  0
LINE
  5
22AF20
330
22AD17
100
AcDbEntity
  8
0
 62
     4
100
AcDbLine
 10
40454.65723988082
 20
-1669.616192884941
 30
0.0
 11
40454.65723988082
 21
-1687.114299756863
 31
0.0
  0
LINE
  5
22AF21
330
22AD17
100
AcDbEntity
  8
0
 62
     4
100
AcDbLine
 10
40363.65723988081
 20
-1687.114299756863
 30
0.0
 11
40363.65723988081
 21
-1669.616192884941
 31
0.0
  0
LINE
  5
22AF22
330
22AD17
100
AcDbEntity
  8
0
 62
     4
100
AcDbLine
 10
40233.65723988082
 20
-1669.616192884941
 30
0.0
 11
40324.65723988082
 21
-1669.616192884941
 31
0.0
  0
LINE
  5
22AF23
330
22AD17
100
AcDbEntity
  8
0
 62
     4
100
AcDbLine
 10
40324.65723988082
 20
-1669.616192884941
 30
0.0
 11
40324.65723988082
 21
-1687.114299756863
 31
0.0
  0
LINE
  5
22AF24
330
22AD17
100
AcDbEntity
  8
0
 62
     4
100
AcDbLine
 10
40233.65723988082
 20
-1687.114299756863
 30
0.0
 11
40233.65723988082
 21
-1669.616192884941
 31
0.0
  0
LINE
  5
22AF25
330
22AD17
100
AcDbEntity
  8
0
 62
     4
100
AcDbLine
 10
40103.65723988082
 20
-1669.616192884941
 30
0.0
 11
40194.65723988082
 21
-1669.616192884941
 31
0.0
  0
LINE
  5
22AF26
330
22AD17
100
AcDbEntity
  8
0
 62
     4
100
AcDbLine
 10
40194.65723988082
 20
-1669.616192884941
 30
0.0
 11
40194.65723988082
 21
-1687.114299756863
 31
0.0
  0
LINE
  5
22AF27
330
22AD17
100
AcDbEntity
  8
0
 62
     4
100
AcDbLine
 10
40103.65723988082
 20
-1687.114299756863
 30
0.0
 11
40103.65723988082
 21
-1669.616192884941
 31
0.0
  0
LINE
  5
22AF28
330
22AD17
100
AcDbEntity
  8
0
 62
     4
100
AcDbLine
 10
39973.65723988082
 20
-1669.616192884941
 30
0.0
 11
40064.65723988082
 21
-1669.616192884941
 31
0.0
  0
LINE
  5
22AF29
330
22AD17
100
AcDbEntity
  8
0
 62
     4
100
AcDbLine
 10
40064.65723988082
 20
-1669.616192884941
 30
0.0
 11
40064.65723988082
 21
-1687.114299756863
 31
0.0
  0
LINE
  5
22AF2A
330
22AD17
100
AcDbEntity
  8
0
 62
     4
100
AcDbLine
 10
39973.65723988082
 20
-1687.114299756863
 30
0.0
 11
39973.65723988082
 21
-1669.616192884941
 31
0.0
  0
LINE
  5
22AF2B
330
22AD17
100
AcDbEntity
  8
0
 62
     4
100
AcDbLine
 10
39843.65723988082
 20
-1669.616192884941
 30
0.0
 11
39934.65723988082
 21
-1669.616192884941
 31
0.0
  0
LINE
  5
22AF2C
330
22AD17
100
AcDbEntity
  8
0
 62
     4
100
AcDbLine
 10
39934.65723988082
 20
-1669.616192884941
 30
0.0
 11
39934.65723988082
 21
-1687.114299756863
 31
0.0
  0
LINE
  5
22AF2D
330
22AD17
100
AcDbEntity
  8
0
 62
     4
100
AcDbLine
 10
39843.65723988082
 20
-1687.114299756863
 30
0.0
 11
39843.65723988082
 21
-1669.616192884941
 31
0.0
  0
LINE
  5
22AF2E
330
22AD17
100
AcDbEntity
  8
0
 62
     4
100
AcDbLine
 10
39713.65723988082
 20
-1669.616192884941
 30
0.0
 11
39804.65723988082
 21
-1669.616192884941
 31
0.0
  0
LINE
  5
22AF2F
330
22AD17
100
AcDbEntity
  8
0
 62
     4
100
AcDbLine
 10
39804.65723988082
 20
-1669.616192884941
 30
0.0
 11
39804.65723988082
 21
-1687.114299756863
 31
0.0
  0
LINE
  5
22AF30
330
22AD17
100
AcDbEntity
  8
0
 62
     4
100
AcDbLine
 10
39713.65723988082
 20
-1687.114299756863
 30
0.0
 11
39713.65723988082
 21
-1669.616192884941
 31
0.0
  0
LINE
  5
22AF31
330
22AD17
100
AcDbEntity
  8
0
 62
     4
100
AcDbLine
 10
39583.65723988082
 20
-1669.616192884941
 30
0.0
 11
39674.65723988082
 21
-1669.616192884941
 31
0.0
  0
LINE
  5
22AF32
330
22AD17
100
AcDbEntity
  8
0
 62
     4
100
AcDbLine
 10
39674.65723988082
 20
-1669.616192884941
 30
0.0
 11
39674.65723988082
 21
-1687.114299756863
 31
0.0
  0
LINE
  5
22AF33
330
22AD17
100
AcDbEntity
  8
0
 62
     4
100
AcDbLine
 10
39583.65723988082
 20
-1687.114299756863
 30
0.0
 11
39583.65723988082
 21
-1669.616192884941
 31
0.0
  0
LINE
  5
22AF34
330
22AD17
100
AcDbEntity
  8
0
 62
     4
100
AcDbLine
 10
39453.65723988082
 20
-1669.616192884941
 30
0.0
 11
39544.65723988082
 21
-1669.616192884941
 31
0.0
  0
LINE
  5
22AF35
330
22AD17
100
AcDbEntity
  8
0
 62
     4
100
AcDbLine
 10
39544.65723988082
 20
-1669.616192884941
 30
0.0
 11
39544.65723988082
 21
-1687.114299756863
 31
0.0
  0
LINE
  5
22AF36
330
22AD17
100
AcDbEntity
  8
0
 62
     4
100
AcDbLine
 10
39453.65723988082
 20
-1687.114299756863
 30
0.0
 11
39453.65723988082
 21
-1669.616192884941
 31
0.0
  0
LINE
  5
22AF37
330
22AD17
100
AcDbEntity
  8
0
 62
     4
100
AcDbLine
 10
39348.22332817354
 20
-869.6161928849416
 30
0.0
 11
39414.32729611468
 21
-869.6161928849415
 31
0.0
  0
LINE
  5
22AF38
330
22AD17
100
AcDbEntity
  8
0
 62
     4
100
AcDbLine
 10
39414.32729611468
 20
-894.6161928849415
 30
0.0
 11
39348.22332817354
 21
-894.6161928849415
 31
0.0
  0
LINE
  5
22AF39
330
22AD17
100
AcDbEntity
  8
0
 62
     4
100
AcDbLine
 10
39348.22332817354
 20
-919.6161928849415
 30
0.0
 11
39414.32729611468
 21
-919.6161928849415
 31
0.0
  0
LINE
  5
22AF3A
330
22AD17
100
AcDbEntity
  8
0
 62
     4
100
AcDbLine
 10
39414.32729611468
 20
-944.6161928849415
 30
0.0
 11
39348.22332817354
 21
-944.6161928849416
 31
0.0
  0
LINE
  5
22AF3B
330
22AD17
100
AcDbEntity
  8
0
 62
     4
100
AcDbLine
 10
39348.22332817354
 20
-969.6161928849416
 30
0.0
 11
39414.32729611468
 21
-969.6161928849415
 31
0.0
  0
LINE
  5
22AF3C
330
22AD17
100
AcDbEntity
  8
0
 62
     4
100
AcDbLine
 10
39414.32729611468
 20
-994.6161928849415
 30
0.0
 11
39348.22332817354
 21
-994.6161928849415
 31
0.0
  0
LINE
  5
22AF3D
330
22AD17
100
AcDbEntity
  8
0
 62
     4
100
AcDbLine
 10
39348.22332817354
 20
-1019.616192884941
 30
0.0
 11
39414.32729611468
 21
-1019.616192884941
 31
0.0
  0
LINE
  5
22AF3E
330
22AD17
100
AcDbEntity
  8
0
 62
     4
100
AcDbLine
 10
39414.32729611468
 20
-1044.616192884941
 30
0.0
 11
39348.22332817354
 21
-1044.616192884941
 31
0.0
  0
LINE
  5
22AF3F
330
22AD17
100
AcDbEntity
  8
0
 62
     4
100
AcDbLine
 10
39348.22332817354
 20
-1069.616192884941
 30
0.0
 11
39414.32729611468
 21
-1069.616192884941
 31
0.0
  0
LINE
  5
22AF40
330
22AD17
100
AcDbEntity
  8
0
 62
     4
100
AcDbLine
 10
39414.32729611468
 20
-1094.616192884941
 30
0.0
 11
39348.22332817354
 21
-1094.616192884941
 31
0.0
  0
LINE
  5
22AF41
330
22AD17
100
AcDbEntity
  8
0
 62
     4
100
AcDbLine
 10
39348.22332817354
 20
-1119.616192884941
 30
0.0
 11
39414.32729611468
 21
-1119.616192884941
 31
0.0
  0
LINE
  5
22AF42
330
22AD17
100
AcDbEntity
  8
0
 62
     4
100
AcDbLine
 10
39414.32729611468
 20
-1144.616192884941
 30
0.0
 11
39348.22332817354
 21
-1144.616192884941
 31
0.0
  0
LINE
  5
22AF43
330
22AD17
100
AcDbEntity
  8
0
 62
     4
100
AcDbLine
 10
39414.32729611468
 20
-1119.616192884941
 30
0.0
 11
39414.32729611468
 21
-1144.616192884941
 31
0.0
  0
LINE
  5
22AF44
330
22AD17
100
AcDbEntity
  8
0
 62
     4
100
AcDbLine
 10
39414.32729611468
 20
-1169.616192884941
 30
0.0
 11
39414.32729611468
 21
-1194.616192884941
 31
0.0
  0
LINE
  5
22AF45
330
22AD17
100
AcDbEntity
  8
0
 62
     4
100
AcDbLine
 10
39414.32729611468
 20
-1219.616192884941
 30
0.0
 11
39414.32729611468
 21
-1244.616192884941
 31
0.0
  0
LINE
  5
22AF46
330
22AD17
100
AcDbEntity
  8
0
 62
     4
100
AcDbLine
 10
39348.22332817354
 20
-1169.616192884941
 30
0.0
 11
39414.32729611468
 21
-1169.616192884941
 31
0.0
  0
LINE
  5
22AF47
330
22AD17
100
AcDbEntity
  8
0
 62
     4
100
AcDbLine
 10
39414.32729611468
 20
-1194.616192884941
 30
0.0
 11
39348.22332817354
 21
-1194.616192884941
 31
0.0
  0
LINE
  5
22AF48
330
22AD17
100
AcDbEntity
  8
0
 62
     4
100
AcDbLine
 10
39348.22332817354
 20
-1219.616192884941
 30
0.0
 11
39414.32729611468
 21
-1219.616192884941
 31
0.0
  0
LINE
  5
22AF49
330
22AD17
100
AcDbEntity
  8
0
 62
     4
100
AcDbLine
 10
39414.32729611468
 20
-1244.616192884941
 30
0.0
 11
39348.22332817354
 21
-1244.616192884941
 31
0.0
  0
LINE
  5
22AF4A
330
22AD17
100
AcDbEntity
  8
0
 62
     4
100
AcDbLine
 10
39348.22332817354
 20
-1269.616192884941
 30
0.0
 11
39414.32729611468
 21
-1269.616192884941
 31
0.0
  0
LINE
  5
22AF4B
330
22AD17
100
AcDbEntity
  8
0
 62
     4
100
AcDbLine
 10
39414.32729611468
 20
-1294.616192884941
 30
0.0
 11
39348.22332817354
 21
-1294.616192884941
 31
0.0
  0
LINE
  5
22AF4C
330
22AD17
100
AcDbEntity
  8
0
 62
     4
100
AcDbLine
 10
39414.32729611468
 20
-1269.616192884941
 30
0.0
 11
39414.32729611468
 21
-1294.616192884941
 31
0.0
  0
LINE
  5
22AF4D
330
22AD17
100
AcDbEntity
  8
0
 62
     4
100
AcDbLine
 10
39414.32729611468
 20
-1319.616192884941
 30
0.0
 11
39414.32729611468
 21
-1344.616192884941
 31
0.0
  0
LINE
  5
22AF4E
330
22AD17
100
AcDbEntity
  8
0
 62
     4
100
AcDbLine
 10
39414.32729611468
 20
-1369.616192884941
 30
0.0
 11
39414.32729611468
 21
-1394.616192884941
 31
0.0
  0
LINE
  5
22AF4F
330
22AD17
100
AcDbEntity
  8
0
 62
     4
100
AcDbLine
 10
39348.22332817354
 20
-1319.616192884941
 30
0.0
 11
39414.32729611468
 21
-1319.616192884941
 31
0.0
  0
LINE
  5
22AF50
330
22AD17
100
AcDbEntity
  8
0
 62
     4
100
AcDbLine
 10
39414.32729611468
 20
-1344.616192884941
 30
0.0
 11
39348.22332817354
 21
-1344.616192884941
 31
0.0
  0
LINE
  5
22AF51
330
22AD17
100
AcDbEntity
  8
0
 62
     4
100
AcDbLine
 10
39348.22332817354
 20
-1369.616192884941
 30
0.0
 11
39414.32729611468
 21
-1369.616192884941
 31
0.0
  0
LINE
  5
22AF52
330
22AD17
100
AcDbEntity
  8
0
 62
     4
100
AcDbLine
 10
39414.32729611468
 20
-1394.616192884941
 30
0.0
 11
39348.22332817354
 21
-1394.616192884941
 31
0.0
  0
LINE
  5
22AF53
330
22AD17
100
AcDbEntity
  8
0
 62
     4
100
AcDbLine
 10
39348.22332817354
 20
-1419.616192884941
 30
0.0
 11
39414.32729611468
 21
-1419.616192884941
 31
0.0
  0
LINE
  5
22AF54
330
22AD17
100
AcDbEntity
  8
0
 62
     4
100
AcDbLine
 10
39414.32729611468
 20
-1444.616192884941
 30
0.0
 11
39348.22332817354
 21
-1444.616192884941
 31
0.0
  0
LINE
  5
22AF55
330
22AD17
100
AcDbEntity
  8
0
 62
     4
100
AcDbLine
 10
39414.32729611468
 20
-1419.616192884941
 30
0.0
 11
39414.32729611468
 21
-1444.616192884941
 31
0.0
  0
LINE
  5
22AF56
330
22AD17
100
AcDbEntity
  8
0
 62
     4
100
AcDbLine
 10
39414.32729611468
 20
-1469.616192884941
 30
0.0
 11
39414.32729611468
 21
-1494.616192884941
 31
0.0
  0
LINE
  5
22AF57
330
22AD17
100
AcDbEntity
  8
0
 62
     4
100
AcDbLine
 10
39414.32729611468
 20
-1519.616192884941
 30
0.0
 11
39414.32729611468
 21
-1544.616192884941
 31
0.0
  0
LINE
  5
22AF58
330
22AD17
100
AcDbEntity
  8
0
 62
     4
100
AcDbLine
 10
39348.22332817354
 20
-1469.616192884941
 30
0.0
 11
39414.32729611468
 21
-1469.616192884941
 31
0.0
  0
LINE
  5
22AF59
330
22AD17
100
AcDbEntity
  8
0
 62
     4
100
AcDbLine
 10
39414.32729611468
 20
-1494.616192884941
 30
0.0
 11
39348.22332817354
 21
-1494.616192884941
 31
0.0
  0
LINE
  5
22AF5A
330
22AD17
100
AcDbEntity
  8
0
 62
     4
100
AcDbLine
 10
39348.22332817354
 20
-1519.616192884941
 30
0.0
 11
39414.32729611468
 21
-1519.616192884941
 31
0.0
  0
LINE
  5
22AF5B
330
22AD17
100
AcDbEntity
  8
0
 62
     4
100
AcDbLine
 10
39414.32729611468
 20
-1544.616192884941
 30
0.0
 11
39348.22332817354
 21
-1544.616192884941
 31
0.0
  0
LINE
  5
22AF5C
330
22AD17
100
AcDbEntity
  8
0
 62
     4
100
AcDbLine
 10
39348.22332817354
 20
-1569.616192884941
 30
0.0
 11
39414.32729611468
 21
-1569.616192884941
 31
0.0
  0
LINE
  5
22AF5D
330
22AD17
100
AcDbEntity
  8
0
 62
     4
100
AcDbLine
 10
39414.32729611468
 20
-1594.616192884941
 30
0.0
 11
39348.22332817354
 21
-1594.616192884941
 31
0.0
  0
LINE
  5
22AF5E
330
22AD17
100
AcDbEntity
  8
0
 62
     4
100
AcDbLine
 10
39414.32729611468
 20
-1569.616192884941
 30
0.0
 11
39414.32729611468
 21
-1594.616192884941
 31
0.0
  0
LINE
  5
22AF5F
330
22AD17
100
AcDbEntity
  8
0
 62
     4
100
AcDbLine
 10
39414.32729611468
 20
-1619.616192884941
 30
0.0
 11
39414.32729611468
 21
-1644.616192884941
 31
0.0
  0
LINE
  5
22AF60
330
22AD17
100
AcDbEntity
  8
0
 62
     4
100
AcDbLine
 10
39414.32729611468
 20
-1669.616192884941
 30
0.0
 11
39414.32729611469
 21
-1687.114299756863
 31
0.0
  0
LINE
  5
22AF61
330
22AD17
100
AcDbEntity
  8
0
 62
     4
100
AcDbLine
 10
39348.22332817354
 20
-1619.616192884941
 30
0.0
 11
39414.32729611468
 21
-1619.616192884941
 31
0.0
  0
LINE
  5
22AF62
330
22AD17
100
AcDbEntity
  8
0
 62
     4
100
AcDbLine
 10
39414.32729611468
 20
-1644.616192884941
 30
0.0
 11
39348.22332817354
 21
-1644.616192884941
 31
0.0
  0
LINE
  5
22AF63
330
22AD17
100
AcDbEntity
  8
0
 62
     4
100
AcDbLine
 10
39348.22332817354
 20
-1669.616192884941
 30
0.0
 11
39414.32729611468
 21
-1669.616192884941
 31
0.0
  0
ENDBLK
  5
22AD19
330
22AD17
100
AcDbEntity
  8
0
100
AcDbBlockEnd
  0
ENDSEC
  0
SECTION
  2
ENTITIES
  0
LINE
  5
221C12
330
6C
100
AcDbEntity
  8
Widoczne (ISO)
 62
     2
100
AcDbLine
 10
35027.44663179734
 20
-1050.054633181907
 30
0.0
 11
35027.44663179734
 21
-1055.934633181907
 31
0.0
  0
LINE
  5
221C13
330
6C
100
AcDbEntity
  8
Widoczne (ISO)
 62
     2
100
AcDbLine
 10
35027.94663179733
 20
-1055.934633181907
 30
0.0
 11
35027.44663179734
 21
-1055.934633181907
 31
0.0
  0
ARC
  5
221C14
330
6C
100
AcDbEntity
  8
Widoczne (ISO)
 62
     2
100
AcDbCircle
 10
35036.613298464
 20
-1047.934633181907
 30
0.0
 40
12.16666666666665
100
AcDbArc
 50
166.0164188032022
 51
221.1120904391876
  0
LINE
  5
221C15
330
6C
100
AcDbEntity
  8
Widoczne (ISO)
 62
     2
100
AcDbLine
 10
35027.44663179734
 20
-1428.934633181908
 30
0.0
 11
35027.44663179734
 21
-1444.934633181907
 31
0.0
  0
LINE
  5
221C16
330
6C
100
AcDbEntity
  8
Widoczne (ISO)
 62
     2
100
AcDbLine
 10
35027.94663179733
 20
-1444.934633181907
 30
0.0
 11
35027.44663179734
 21
-1444.934633181907
 31
0.0
  0
LINE
  5
221C17
330
6C
100
AcDbEntity
  8
Widoczne (ISO)
 62
     2
100
AcDbLine
 10
35027.94663179733
 20
-1428.934633181908
 30
0.0
 11
35027.44663179734
 21
-1428.934633181908
 31
0.0
  0
ARC
  5
221C18
330
6C
100
AcDbEntity
  8
Widoczne (ISO)
 62
     2
100
AcDbCircle
 10
35036.613298464
 20
-1436.934633181908
 30
0.0
 40
12.16666666666665
100
AcDbArc
 50
138.8879095608124
 51
221.1120904391876
  0
LINE
  5
221C19
330
6C
100
AcDbEntity
  8
Widoczne (ISO)
 62
     2
100
AcDbLine
 10
35027.44663179734
 20
-689.0546331819082
 30
0.0
 11
35027.44663179734
 21
-705.0546331819082
 31
0.0
  0
LINE
  5
221C1A
330
6C
100
AcDbEntity
  8
Widoczne (ISO)
 62
     2
100
AcDbLine
 10
35027.94663179733
 20
-705.0546331819082
 30
0.0
 11
35027.44663179734
 21
-705.0546331819082
 31
0.0
  0
LINE
  5
221C1B
330
6C
100
AcDbEntity
  8
Widoczne (ISO)
 62
     2
100
AcDbLine
 10
35027.94663179733
 20
-689.0546331819082
 30
0.0
 11
35027.44663179734
 21
-689.0546331819082
 31
0.0
  0
ARC
  5
221C1C
330
6C
100
AcDbEntity
  8
Widoczne (ISO)
 62
     2
100
AcDbCircle
 10
35036.613298464
 20
-697.0546331819082
 30
0.0
 40
12.16666666666666
100
AcDbArc
 50
138.8879095608516
 51
221.1120904391876
  0
LINE
  5
221C1D
330
6C
100
AcDbEntity
  8
Widoczne (ISO)
 62
     2
100
AcDbLine
 10
35027.44663179734
 20
-804.0546331819069
 30
0.0
 11
35027.44663179734
 21
-820.0546331819069
 31
0.0
  0
LINE
  5
221C1E
330
6C
100
AcDbEntity
  8
Widoczne (ISO)
 62
     2
100
AcDbLine
 10
35027.94663179733
 20
-820.0546331819069
 30
0.0
 11
35027.44663179734
 21
-820.0546331819069
 31
0.0
  0
LINE
  5
221C1F
330
6C
100
AcDbEntity
  8
Widoczne (ISO)
 62
     2
100
AcDbLine
 10
35027.94663179733
 20
-804.0546331819069
 30
0.0
 11
35027.44663179734
 21
-804.0546331819069
 31
0.0
  0
ARC
  5
221C20
330
6C
100
AcDbEntity
  8
Widoczne (ISO)
 62
     2
100
AcDbCircle
 10
35036.613298464
 20
-812.0546331819069
 30
0.0
 40
12.16666666666665
100
AcDbArc
 50
138.8879095608124
 51
221.1120904391876
  0
LINE
  5
221C21
330
6C
100
AcDbEntity
  8
Widoczne (ISO)
 62
     2
100
AcDbLine
 10
35027.44663179734
 20
-919.054633181908
 30
0.0
 11
35027.44663179734
 21
-935.0546331819082
 31
0.0
  0
LINE
  5
221C22
330
6C
100
AcDbEntity
  8
Widoczne (ISO)
 62
     2
100
AcDbLine
 10
35027.94663179733
 20
-935.0546331819082
 30
0.0
 11
35027.44663179734
 21
-935.0546331819082
 31
0.0
  0
LINE
  5
221C23
330
6C
100
AcDbEntity
  8
Widoczne (ISO)
 62
     2
100
AcDbLine
 10
35027.94663179733
 20
-919.054633181908
 30
0.0
 11
35027.44663179734
 21
-919.054633181908
 31
0.0
  0
ARC
  5
221C24
330
6C
100
AcDbEntity
  8
Widoczne (ISO)
 62
     2
100
AcDbCircle
 10
35036.613298464
 20
-927.054633181908
 30
0.0
 40
12.16666666666666
100
AcDbArc
 50
138.8879095608516
 51
221.1120904391876
  0
LINE
  5
221C25
330
6C
100
AcDbEntity
  8
Widoczne (ISO)
 62
     2
100
AcDbLine
 10
35027.44663179734
 20
-1034.054633181907
 30
0.0
 11
35027.44663179734
 21
-1050.054633181907
 31
0.0
  0
LINE
  5
221C26
330
6C
100
AcDbEntity
  8
Widoczne (ISO)
 62
     2
100
AcDbLine
 10
35027.94663179733
 20
-1050.054633181907
 30
0.0
 11
35027.44663179734
 21
-1050.054633181907
 31
0.0
  0
LINE
  5
221C27
330
6C
100
AcDbEntity
  8
Widoczne (ISO)
 62
     2
100
AcDbLine
 10
35027.94663179733
 20
-1034.054633181907
 30
0.0
 11
35027.44663179734
 21
-1034.054633181907
 31
0.0
  0
ARC
  5
221C28
330
6C
100
AcDbEntity
  8
Widoczne (ISO)
 62
     2
100
AcDbCircle
 10
35036.613298464
 20
-1042.054633181907
 30
0.0
 40
12.16666666666665
100
AcDbArc
 50
138.8879095608124
 51
221.1120904391876
  0
LINE
  5
221C29
330
6C
100
AcDbEntity
  8
Widoczne (ISO)
 62
     2
100
AcDbLine
 10
35027.44663179734
 20
-1149.054633181908
 30
0.0
 11
35027.44663179734
 21
-1165.054633181908
 31
0.0
  0
LINE
  5
221C2A
330
6C
100
AcDbEntity
  8
Widoczne (ISO)
 62
     2
100
AcDbLine
 10
35027.94663179733
 20
-1165.054633181908
 30
0.0
 11
35027.44663179734
 21
-1165.054633181908
 31
0.0
  0
LINE
  5
221C2B
330
6C
100
AcDbEntity
  8
Widoczne (ISO)
 62
     2
100
AcDbLine
 10
35027.94663179733
 20
-1149.054633181908
 30
0.0
 11
35027.44663179734
 21
-1149.054633181908
 31
0.0
  0
ARC
  5
221C2C
330
6C
100
AcDbEntity
  8
Widoczne (ISO)
 62
     2
100
AcDbCircle
 10
35036.613298464
 20
-1157.054633181908
 30
0.0
 40
12.16666666666666
100
AcDbArc
 50
138.8879095608516
 51
221.1120904391876
  0
LINE
  5
221C2D
330
6C
100
AcDbEntity
  8
Widoczne (ISO)
 62
     2
100
AcDbLine
 10
35027.44663179734
 20
-1264.054633181907
 30
0.0
 11
35027.44663179734
 21
-1280.054633181907
 31
0.0
  0
LINE
  5
221C2E
330
6C
100
AcDbEntity
  8
Widoczne (ISO)
 62
     2
100
AcDbLine
 10
35027.94663179733
 20
-1280.054633181907
 30
0.0
 11
35027.44663179734
 21
-1280.054633181907
 31
0.0
  0
LINE
  5
221C2F
330
6C
100
AcDbEntity
  8
Widoczne (ISO)
 62
     2
100
AcDbLine
 10
35027.94663179733
 20
-1264.054633181907
 30
0.0
 11
35027.44663179734
 21
-1264.054633181907
 31
0.0
  0
ARC
  5
221C30
330
6C
100
AcDbEntity
  8
Widoczne (ISO)
 62
     2
100
AcDbCircle
 10
35036.613298464
 20
-1272.054633181907
 30
0.0
 40
12.16666666666665
100
AcDbArc
 50
138.8879095608124
 51
221.1120904391876
  0
LINE
  5
221C31
330
6C
100
AcDbEntity
  8
Widoczne (ISO)
 62
     2
100
AcDbLine
 10
35027.44663179734
 20
-1379.054633181908
 30
0.0
 11
35027.44663179734
 21
-1395.054633181908
 31
0.0
  0
LINE
  5
221C32
330
6C
100
AcDbEntity
  8
Widoczne (ISO)
 62
     2
100
AcDbLine
 10
35027.94663179733
 20
-1395.054633181908
 30
0.0
 11
35027.44663179734
 21
-1395.054633181908
 31
0.0
  0
LINE
  5
221C33
330
6C
100
AcDbEntity
  8
Widoczne (ISO)
 62
     2
100
AcDbLine
 10
35027.94663179733
 20
-1379.054633181908
 30
0.0
 11
35027.44663179734
 21
-1379.054633181908
 31
0.0
  0
ARC
  5
221C34
330
6C
100
AcDbEntity
  8
Widoczne (ISO)
 62
     2
100
AcDbCircle
 10
35036.613298464
 20
-1387.054633181908
 30
0.0
 40
12.16666666666666
100
AcDbArc
 50
138.8879095608516
 51
221.1120904391876
  0
LINE
  5
221C35
330
6C
100
AcDbEntity
  8
Widoczne (ISO)
 62
     2
100
AcDbLine
 10
35027.44663179734
 20
-1494.054633181907
 30
0.0
 11
35027.44663179734
 21
-1510.054633181907
 31
0.0
  0
LINE
  5
221C36
330
6C
100
AcDbEntity
  8
Widoczne (ISO)
 62
     2
100
AcDbLine
 10
35027.94663179733
 20
-1510.054633181907
 30
0.0
 11
35027.44663179734
 21
-1510.054633181907
 31
0.0
  0
LINE
  5
221C37
330
6C
100
AcDbEntity
  8
Widoczne (ISO)
 62
     2
100
AcDbLine
 10
35027.94663179733
 20
-1494.054633181907
 30
0.0
 11
35027.44663179734
 21
-1494.054633181907
 31
0.0
  0
ARC
  5
221C38
330
6C
100
AcDbEntity
  8
Widoczne (ISO)
 62
     2
100
AcDbCircle
 10
35036.613298464
 20
-1502.054633181907
 30
0.0
 40
12.16666666666665
100
AcDbArc
 50
138.8879095608124
 51
221.1120904391876
  0
LINE
  5
221C39
330
6C
100
AcDbEntity
  8
Widoczne (ISO)
 62
     2
100
AcDbLine
 10
35027.44663179734
 20
-1609.054633181909
 30
0.0
 11
35027.44663179734
 21
-1625.054633181909
 31
0.0
  0
LINE
  5
221C3A
330
6C
100
AcDbEntity
  8
Widoczne (ISO)
 62
     2
100
AcDbLine
 10
35027.94663179733
 20
-1625.054633181909
 30
0.0
 11
35027.44663179734
 21
-1625.054633181909
 31
0.0
  0
LINE
  5
221C3B
330
6C
100
AcDbEntity
  8
Widoczne (ISO)
 62
     2
100
AcDbLine
 10
35027.94663179733
 20
-1609.054633181908
 30
0.0
 11
35027.44663179734
 21
-1609.054633181908
 31
0.0
  0
ARC
  5
221C3C
330
6C
100
AcDbEntity
  8
Widoczne (ISO)
 62
     2
100
AcDbCircle
 10
35036.613298464
 20
-1617.054633181908
 30
0.0
 40
12.16666666666666
100
AcDbArc
 50
138.8879095608516
 51
221.1120904391876
  0
LINE
  5
221C3D
330
6C
100
AcDbEntity
  8
Widoczne (ISO)
 62
     2
100
AcDbLine
 10
35027.44663179734
 20
-1724.054633181907
 30
0.0
 11
35027.44663179734
 21
-1740.054633181907
 31
0.0
  0
LINE
  5
221C3E
330
6C
100
AcDbEntity
  8
Widoczne (ISO)
 62
     2
100
AcDbLine
 10
35027.94663179733
 20
-1740.054633181907
 30
0.0
 11
35027.44663179734
 21
-1740.054633181907
 31
0.0
  0
LINE
  5
221C3F
330
6C
100
AcDbEntity
  8
Widoczne (ISO)
 62
     2
100
AcDbLine
 10
35027.94663179733
 20
-1724.054633181907
 30
0.0
 11
35027.44663179734
 21
-1724.054633181907
 31
0.0
  0
ARC
  5
221C40
330
6C
100
AcDbEntity
  8
Widoczne (ISO)
 62
     2
100
AcDbCircle
 10
35036.613298464
 20
-1732.054633181907
 30
0.0
 40
12.16666666666665
100
AcDbArc
 50
138.8879095608124
 51
221.1120904391876
  0
LINE
  5
221C41
330
6C
100
AcDbEntity
  8
Widoczne (ISO)
 62
     2
100
AcDbLine
 10
37133.44663179737
 20
-1410.814633181908
 30
0.0
 11
37133.44663179737
 21
-1404.934633181908
 31
0.0
  0
LINE
  5
221C42
330
6C
100
AcDbEntity
  8
Widoczne (ISO)
 62
     2
100
AcDbLine
 10
37132.94663179737
 20
-1404.934633181908
 30
0.0
 11
37133.44663179737
 21
-1404.934633181908
 31
0.0
  0
ARC
  5
221C43
330
6C
100
AcDbEntity
  8
Widoczne (ISO)
 62
     2
100
AcDbCircle
 10
37124.2799651307
 20
-1412.934633181907
 30
0.0
 40
12.16666666666667
100
AcDbArc
 50
346.0164188032022
 51
41.11209043914834
  0
LINE
  5
221C44
330
6C
100
AcDbEntity
  8
Widoczne (ISO)
 62
     2
100
AcDbLine
 10
37133.44663179739
 20
-1031.934633181907
 30
0.0
 11
37133.44663179739
 21
-1015.934633181907
 31
0.0
  0
LINE
  5
221C45
330
6C
100
AcDbEntity
  8
Widoczne (ISO)
 62
     2
100
AcDbLine
 10
37132.94663179738
 20
-1015.934633181907
 30
0.0
 11
37133.44663179739
 21
-1015.934633181907
 31
0.0
  0
LINE
  5
221C46
330
6C
100
AcDbEntity
  8
Widoczne (ISO)
 62
     2
100
AcDbLine
 10
37132.94663179738
 20
-1031.934633181907
 30
0.0
 11
37133.44663179739
 21
-1031.934633181907
 31
0.0
  0
ARC
  5
221C47
330
6C
100
AcDbEntity
  8
Widoczne (ISO)
 62
     2
100
AcDbCircle
 10
37124.27996513072
 20
-1023.934633181907
 30
0.0
 40
12.16666666666668
100
AcDbArc
 50
318.8879095608124
 51
41.11209043914834
  0
LINE
  5
221C48
330
6C
100
AcDbEntity
  8
Widoczne (ISO)
 62
     2
100
AcDbLine
 10
37133.44663179735
 20
-1771.814633181907
 30
0.0
 11
37133.44663179735
 21
-1755.814633181907
 31
0.0
  0
LINE
  5
221C49
330
6C
100
AcDbEntity
  8
Widoczne (ISO)
 62
     2
100
AcDbLine
 10
37132.94663179735
 20
-1755.814633181907
 30
0.0
 11
37133.44663179735
 21
-1755.814633181907
 31
0.0
  0
LINE
  5
221C4A
330
6C
100
AcDbEntity
  8
Widoczne (ISO)
 62
     2
100
AcDbLine
 10
37132.94663179735
 20
-1771.814633181907
 30
0.0
 11
37133.44663179735
 21
-1771.814633181907
 31
0.0
  0
ARC
  5
221C4B
330
6C
100
AcDbEntity
  8
Widoczne (ISO)
 62
     2
100
AcDbCircle
 10
37124.27996513069
 20
-1763.814633181907
 30
0.0
 40
12.16666666666668
100
AcDbArc
 50
318.8879095608124
 51
41.11209043914834
  0
LINE
  5
221C4C
330
6C
100
AcDbEntity
  8
Widoczne (ISO)
 62
     2
100
AcDbLine
 10
37133.44663179737
 20
-1656.814633181908
 30
0.0
 11
37133.44663179737
 21
-1640.814633181908
 31
0.0
  0
LINE
  5
221C4D
330
6C
100
AcDbEntity
  8
Widoczne (ISO)
 62
     2
100
AcDbLine
 10
37132.94663179737
 20
-1640.814633181908
 30
0.0
 11
37133.44663179737
 21
-1640.814633181908
 31
0.0
  0
LINE
  5
221C4E
330
6C
100
AcDbEntity
  8
Widoczne (ISO)
 62
     2
100
AcDbLine
 10
37132.94663179737
 20
-1656.814633181908
 30
0.0
 11
37133.44663179737
 21
-1656.814633181908
 31
0.0
  0
ARC
  5
221C4F
330
6C
100
AcDbEntity
  8
Widoczne (ISO)
 62
     2
100
AcDbCircle
 10
37124.27996513069
 20
-1648.814633181908
 30
0.0
 40
12.16666666666667
100
AcDbArc
 50
318.8879095608124
 51
41.11209043914834
  0
LINE
  5
221C50
330
6C
100
AcDbEntity
  8
Widoczne (ISO)
 62
     2
100
AcDbLine
 10
37133.44663179737
 20
-1541.814633181907
 30
0.0
 11
37133.44663179737
 21
-1525.814633181907
 31
0.0
  0
LINE
  5
221C51
330
6C
100
AcDbEntity
  8
Widoczne (ISO)
 62
     2
100
AcDbLine
 10
37132.94663179737
 20
-1525.814633181907
 30
0.0
 11
37133.44663179737
 21
-1525.814633181907
 31
0.0
  0
LINE
  5
221C52
330
6C
100
AcDbEntity
  8
Widoczne (ISO)
 62
     2
100
AcDbLine
 10
37132.94663179737
 20
-1541.814633181907
 30
0.0
 11
37133.44663179737
 21
-1541.814633181907
 31
0.0
  0
ARC
  5
221C53
330
6C
100
AcDbEntity
  8
Widoczne (ISO)
 62
     2
100
AcDbCircle
 10
37124.2799651307
 20
-1533.814633181906
 30
0.0
 40
12.16666666666668
100
AcDbArc
 50
318.8879095608124
 51
41.11209043914834
  0
LINE
  5
221C54
330
6C
100
AcDbEntity
  8
Widoczne (ISO)
 62
     2
100
AcDbLine
 10
37133.44663179737
 20
-1426.814633181908
 30
0.0
 11
37133.44663179737
 21
-1410.814633181908
 31
0.0
  0
LINE
  5
221C55
330
6C
100
AcDbEntity
  8
Widoczne (ISO)
 62
     2
100
AcDbLine
 10
37132.94663179737
 20
-1410.814633181908
 30
0.0
 11
37133.44663179737
 21
-1410.814633181908
 31
0.0
  0
LINE
  5
221C56
330
6C
100
AcDbEntity
  8
Widoczne (ISO)
 62
     2
100
AcDbLine
 10
37132.94663179737
 20
-1426.814633181908
 30
0.0
 11
37133.44663179737
 21
-1426.814633181908
 31
0.0
  0
ARC
  5
221C57
330
6C
100
AcDbEntity
  8
Widoczne (ISO)
 62
     2
100
AcDbCircle
 10
37124.2799651307
 20
-1418.814633181907
 30
0.0
 40
12.16666666666667
100
AcDbArc
 50
318.8879095608124
 51
41.11209043914834
  0
LINE
  5
221C58
330
6C
100
AcDbEntity
  8
Widoczne (ISO)
 62
     2
100
AcDbLine
 10
37133.44663179737
 20
-1311.814633181906
 30
0.0
 11
37133.44663179737
 21
-1295.814633181906
 31
0.0
  0
LINE
  5
221C59
330
6C
100
AcDbEntity
  8
Widoczne (ISO)
 62
     2
100
AcDbLine
 10
37132.94663179737
 20
-1295.814633181906
 30
0.0
 11
37133.44663179737
 21
-1295.814633181906
 31
0.0
  0
LINE
  5
221C5A
330
6C
100
AcDbEntity
  8
Widoczne (ISO)
 62
     2
100
AcDbLine
 10
37132.94663179737
 20
-1311.814633181906
 30
0.0
 11
37133.44663179737
 21
-1311.814633181906
 31
0.0
  0
ARC
  5
221C5B
330
6C
100
AcDbEntity
  8
Widoczne (ISO)
 62
     2
100
AcDbCircle
 10
37124.27996513071
 20
-1303.814633181906
 30
0.0
 40
12.16666666666668
100
AcDbArc
 50
318.8879095608124
 51
41.11209043914834
  0
LINE
  5
221C5C
330
6C
100
AcDbEntity
  8
Widoczne (ISO)
 62
     2
100
AcDbLine
 10
37133.44663179739
 20
-1196.814633181908
 30
0.0
 11
37133.44663179739
 21
-1180.814633181908
 31
0.0
  0
LINE
  5
221C5D
330
6C
100
AcDbEntity
  8
Widoczne (ISO)
 62
     2
100
AcDbLine
 10
37132.94663179738
 20
-1180.814633181908
 30
0.0
 11
37133.44663179739
 21
-1180.814633181908
 31
0.0
  0
LINE
  5
221C5E
330
6C
100
AcDbEntity
  8
Widoczne (ISO)
 62
     2
100
AcDbLine
 10
37132.94663179738
 20
-1196.814633181908
 30
0.0
 11
37133.44663179739
 21
-1196.814633181908
 31
0.0
  0
ARC
  5
221C5F
330
6C
100
AcDbEntity
  8
Widoczne (ISO)
 62
     2
100
AcDbCircle
 10
37124.27996513071
 20
-1188.814633181907
 30
0.0
 40
12.16666666666667
100
AcDbArc
 50
318.8879095608124
 51
41.11209043914834
  0
LINE
  5
221C60
330
6C
100
AcDbEntity
  8
Widoczne (ISO)
 62
     2
100
AcDbLine
 10
37133.44663179739
 20
-1081.814633181906
 30
0.0
 11
37133.44663179739
 21
-1065.814633181906
 31
0.0
  0
LINE
  5
221C61
330
6C
100
AcDbEntity
  8
Widoczne (ISO)
 62
     2
100
AcDbLine
 10
37132.94663179738
 20
-1065.814633181906
 30
0.0
 11
37133.44663179739
 21
-1065.814633181906
 31
0.0
  0
LINE
  5
221C62
330
6C
100
AcDbEntity
  8
Widoczne (ISO)
 62
     2
100
AcDbLine
 10
37132.94663179738
 20
-1081.814633181906
 30
0.0
 11
37133.44663179739
 21
-1081.814633181906
 31
0.0
  0
ARC
  5
221C63
330
6C
100
AcDbEntity
  8
Widoczne (ISO)
 62
     2
100
AcDbCircle
 10
37124.27996513072
 20
-1073.814633181906
 30
0.0
 40
12.16666666666668
100
AcDbArc
 50
318.8879095608124
 51
41.11209043914834
  0
LINE
  5
221C64
330
6C
100
AcDbEntity
  8
Widoczne (ISO)
 62
     2
100
AcDbLine
 10
37133.44663179739
 20
-966.8146331819077
 30
0.0
 11
37133.44663179739
 21
-950.8146331819077
 31
0.0
  0
LINE
  5
221C65
330
6C
100
AcDbEntity
  8
Widoczne (ISO)
 62
     2
100
AcDbLine
 10
37132.94663179738
 20
-950.8146331819077
 30
0.0
 11
37133.44663179739
 21
-950.8146331819077
 31
0.0
  0
LINE
  5
221C66
330
6C
100
AcDbEntity
  8
Widoczne (ISO)
 62
     2
100
AcDbLine
 10
37132.94663179738
 20
-966.8146331819077
 30
0.0
 11
37133.44663179739
 21
-966.8146331819077
 31
0.0
  0
ARC
  5
221C67
330
6C
100
AcDbEntity
  8
Widoczne (ISO)
 62
     2
100
AcDbCircle
 10
37124.27996513074
 20
-958.8146331819071
 30
0.0
 40
12.16666666666667
100
AcDbArc
 50
318.8879095608124
 51
41.11209043914834
  0
LINE
  5
221C68
330
6C
100
AcDbEntity
  8
Widoczne (ISO)
 62
     2
100
AcDbLine
 10
37133.4466317974
 20
-851.8146331819062
 30
0.0
 11
37133.4466317974
 21
-835.8146331819058
 31
0.0
  0
LINE
  5
221C69
330
6C
100
AcDbEntity
  8
Widoczne (ISO)
 62
     2
100
AcDbLine
 10
37132.9466317974
 20
-835.8146331819058
 30
0.0
 11
37133.4466317974
 21
-835.8146331819058
 31
0.0
  0
LINE
  5
221C6A
330
6C
100
AcDbEntity
  8
Widoczne (ISO)
 62
     2
100
AcDbLine
 10
37132.9466317974
 20
-851.8146331819059
 30
0.0
 11
37133.4466317974
 21
-851.8146331819059
 31
0.0
  0
ARC
  5
221C6B
330
6C
100
AcDbEntity
  8
Widoczne (ISO)
 62
     2
100
AcDbCircle
 10
37124.27996513074
 20
-843.814633181905
 30
0.0
 40
12.16666666666668
100
AcDbArc
 50
318.8879095608124
 51
41.11209043914834
  0
LINE
  5
221C6C
330
6C
100
AcDbEntity
  8
Widoczne (ISO)
 62
     2
100
AcDbLine
 10
37133.4466317974
 20
-736.8146331819072
 30
0.0
 11
37133.4466317974
 21
-720.8146331819071
 31
0.0
  0
LINE
  5
221C6D
330
6C
100
AcDbEntity
  8
Widoczne (ISO)
 62
     2
100
AcDbLine
 10
37132.94663179742
 20
-720.8146331819071
 30
0.0
 11
37133.4466317974
 21
-720.8146331819071
 31
0.0
  0
LINE
  5
221C6E
330
6C
100
AcDbEntity
  8
Widoczne (ISO)
 62
     2
100
AcDbLine
 10
37132.9466317974
 20
-736.8146331819075
 30
0.0
 11
37133.4466317974
 21
-736.8146331819075
 31
0.0
  0
ARC
  5
221C6F
330
6C
100
AcDbEntity
  8
Widoczne (ISO)
 62
     2
100
AcDbCircle
 10
37124.27996513074
 20
-728.8146331819066
 30
0.0
 40
12.16666666666667
100
AcDbArc
 50
318.8879095608124
 51
41.11209043914834
  0
LINE
  5
221C70
330
6C
100
AcDbEntity
  8
Widoczne (ISO)
 62
     2
100
AcDbLine
 10
35687.44663179732
 20
-439.9346331818706
 30
0.0
 11
35685.94663179732
 21
-439.9346331818706
 31
0.0
  0
LINE
  5
221C71
330
6C
100
AcDbEntity
  8
Widoczne (ISO)
 62
     2
100
AcDbLine
 10
35687.44663179732
 20
-440.4346331818707
 30
0.0
 11
35687.44663179732
 21
-439.934633181871
 31
0.0
  0
ARC
  5
221C72
330
6C
100
AcDbEntity
  8
Widoczne (ISO)
 62
     2
100
AcDbCircle
 10
35679.44663179732
 20
-449.101299848538
 30
0.0
 40
12.16666666666665
100
AcDbArc
 50
48.8879095607731
 51
93.53417231537864
  0
LINE
  5
221C73
330
6C
100
AcDbEntity
  8
Widoczne (ISO)
 62
     2
100
AcDbLine
 10
36129.94663179732
 20
-439.9346331818462
 30
0.0
 11
36125.44663179732
 21
-439.9346331818462
 31
0.0
  0
LINE
  5
221C74
330
6C
100
AcDbEntity
  8
Widoczne (ISO)
 62
     2
100
AcDbLine
 10
36125.44663179732
 20
-440.4346331818465
 30
0.0
 11
36125.44663179732
 21
-439.934633181847
 31
0.0
  0
ARC
  5
221C75
330
6C
100
AcDbEntity
  8
Widoczne (ISO)
 62
     2
100
AcDbCircle
 10
36133.44663179732
 20
-449.101299848513
 30
0.0
 40
12.16666666666665
100
AcDbArc
 50
79.3428608747582
 51
131.1120904392268
  0
LINE
  5
221C76
330
6C
100
AcDbEntity
  8
Widoczne (ISO)
 62
     2
100
AcDbLine
 10
36531.44663179732
 20
-439.9346331818242
 30
0.0
 11
36515.44663179732
 21
-439.9346331818251
 31
0.0
  0
LINE
  5
221C77
330
6C
100
AcDbEntity
  8
Widoczne (ISO)
 62
     2
100
AcDbLine
 10
36515.44663179732
 20
-440.4346331818251
 30
0.0
 11
36515.44663179732
 21
-439.9346331818251
 31
0.0
  0
LINE
  5
221C78
330
6C
100
AcDbEntity
  8
Widoczne (ISO)
 62
     2
100
AcDbLine
 10
36531.44663179732
 20
-440.4346331818246
 30
0.0
 11
36531.44663179732
 21
-439.9346331818247
 31
0.0
  0
ARC
  5
221C79
330
6C
100
AcDbEntity
  8
Widoczne (ISO)
 62
     2
100
AcDbCircle
 10
36523.44663179732
 20
-449.1012998484915
 30
0.0
 40
12.16666666666666
100
AcDbArc
 50
48.8879095607731
 51
131.1120904392268
  0
LINE
  5
221C7A
330
6C
100
AcDbEntity
  8
Widoczne (ISO)
 62
     2
100
AcDbLine
 10
36835.94663179732
 20
-439.9346331818087
 30
0.0
 11
36819.94663179732
 21
-439.9346331818096
 31
0.0
  0
LINE
  5
221C7B
330
6C
100
AcDbEntity
  8
Widoczne (ISO)
 62
     2
100
AcDbLine
 10
36819.94663179732
 20
-440.4346331818091
 30
0.0
 11
36819.94663179732
 21
-439.9346331818096
 31
0.0
  0
LINE
  5
221C7C
330
6C
100
AcDbEntity
  8
Widoczne (ISO)
 62
     2
100
AcDbLine
 10
36835.94663179732
 20
-440.434633181808
 30
0.0
 11
36835.94663179732
 21
-439.9346331818087
 31
0.0
  0
ARC
  5
221C7D
330
6C
100
AcDbEntity
  8
Widoczne (ISO)
 62
     2
100
AcDbCircle
 10
36827.94663179732
 20
-449.1012998484757
 30
0.0
 40
12.16666666666666
100
AcDbArc
 50
48.8879095607731
 51
131.1120904392268
  0
LINE
  5
221C7E
330
6C
100
AcDbEntity
  8
Widoczne (ISO)
 62
     2
100
AcDbLine
 10
36720.94663179732
 20
-439.9346331818151
 30
0.0
 11
36704.94663179732
 21
-439.934633181816
 31
0.0
  0
LINE
  5
221C7F
330
6C
100
AcDbEntity
  8
Widoczne (ISO)
 62
     2
100
AcDbLine
 10
36704.94663179732
 20
-440.4346331818155
 30
0.0
 11
36704.94663179732
 21
-439.934633181816
 31
0.0
  0
LINE
  5
221C80
330
6C
100
AcDbEntity
  8
Widoczne (ISO)
 62
     2
100
AcDbLine
 10
36720.94663179732
 20
-440.4346331818142
 30
0.0
 11
36720.94663179732
 21
-439.9346331818151
 31
0.0
  0
ARC
  5
221C81
330
6C
100
AcDbEntity
  8
Widoczne (ISO)
 62
     2
100
AcDbCircle
 10
36712.94663179732
 20
-449.1012998484818
 30
0.0
 40
12.16666666666666
100
AcDbArc
 50
48.8879095607731
 51
131.1120904392268
  0
LINE
  5
221C82
330
6C
100
AcDbEntity
  8
Widoczne (ISO)
 62
     2
100
AcDbLine
 10
36605.94663179732
 20
-439.9346331818215
 30
0.0
 11
36589.94663179732
 21
-439.9346331818223
 31
0.0
  0
LINE
  5
221C83
330
6C
100
AcDbEntity
  8
Widoczne (ISO)
 62
     2
100
AcDbLine
 10
36589.94663179732
 20
-440.4346331818218
 30
0.0
 11
36589.94663179732
 21
-439.9346331818223
 31
0.0
  0
LINE
  5
221C84
330
6C
100
AcDbEntity
  8
Widoczne (ISO)
 62
     2
100
AcDbLine
 10
36605.94663179732
 20
-440.4346331818206
 30
0.0
 11
36605.94663179732
 21
-439.9346331818208
 31
0.0
  0
ARC
  5
221C85
330
6C
100
AcDbEntity
  8
Widoczne (ISO)
 62
     2
100
AcDbCircle
 10
36597.94663179732
 20
-449.1012998484883
 30
0.0
 40
12.16666666666666
100
AcDbArc
 50
48.8879095607731
 51
131.1120904392268
  0
LINE
  5
221C86
330
6C
100
AcDbEntity
  8
Widoczne (ISO)
 62
     2
100
AcDbLine
 10
36490.94663179732
 20
-439.9346331818278
 30
0.0
 11
36474.94663179732
 21
-439.9346331818287
 31
0.0
  0
LINE
  5
221C87
330
6C
100
AcDbEntity
  8
Widoczne (ISO)
 62
     2
100
AcDbLine
 10
36474.94663179732
 20
-440.4346331818286
 30
0.0
 11
36474.94663179732
 21
-439.9346331818287
 31
0.0
  0
LINE
  5
221C88
330
6C
100
AcDbEntity
  8
Widoczne (ISO)
 62
     2
100
AcDbLine
 10
36490.94663179732
 20
-440.4346331818273
 30
0.0
 11
36490.94663179732
 21
-439.9346331818273
 31
0.0
  0
ARC
  5
221C89
330
6C
100
AcDbEntity
  8
Widoczne (ISO)
 62
     2
100
AcDbCircle
 10
36482.94663179732
 20
-449.1012998484948
 30
0.0
 40
12.16666666666666
100
AcDbArc
 50
48.8879095607731
 51
131.1120904392268
  0
LINE
  5
221C8A
330
6C
100
AcDbEntity
  8
Widoczne (ISO)
 62
     2
100
AcDbLine
 10
36375.94663179732
 20
-439.9346331818342
 30
0.0
 11
36359.94663179732
 21
-439.934633181835
 31
0.0
  0
LINE
  5
221C8B
330
6C
100
AcDbEntity
  8
Widoczne (ISO)
 62
     2
100
AcDbLine
 10
36359.94663179732
 20
-440.4346331818346
 30
0.0
 11
36359.94663179732
 21
-439.934633181835
 31
0.0
  0
LINE
  5
221C8C
330
6C
100
AcDbEntity
  8
Widoczne (ISO)
 62
     2
100
AcDbLine
 10
36375.94663179732
 20
-440.4346331818334
 30
0.0
 11
36375.94663179732
 21
-439.9346331818342
 31
0.0
  0
ARC
  5
221C8D
330
6C
100
AcDbEntity
  8
Widoczne (ISO)
 62
     2
100
AcDbCircle
 10
36367.94663179732
 20
-449.1012998485011
 30
0.0
 40
12.16666666666666
100
AcDbArc
 50
48.8879095607731
 51
131.1120904392268
  0
LINE
  5
221C8E
330
6C
100
AcDbEntity
  8
Widoczne (ISO)
 62
     2
100
AcDbLine
 10
36260.94663179732
 20
-439.9346331818406
 30
0.0
 11
36244.94663179732
 21
-439.9346331818409
 31
0.0
  0
LINE
  5
221C8F
330
6C
100
AcDbEntity
  8
Widoczne (ISO)
 62
     2
100
AcDbLine
 10
36244.94663179732
 20
-440.4346331818409
 30
0.0
 11
36244.94663179732
 21
-439.9346331818409
 31
0.0
  0
LINE
  5
221C90
330
6C
100
AcDbEntity
  8
Widoczne (ISO)
 62
     2
100
AcDbLine
 10
36260.94663179732
 20
-440.4346331818405
 30
0.0
 11
36260.94663179732
 21
-439.9346331818401
 31
0.0
  0
ARC
  5
221C91
330
6C
100
AcDbEntity
  8
Widoczne (ISO)
 62
     2
100
AcDbCircle
 10
36252.94663179732
 20
-449.1012998485075
 30
0.0
 40
12.16666666666666
100
AcDbArc
 50
48.8879095607731
 51
131.1120904392268
  0
LINE
  5
221C92
330
6C
100
AcDbEntity
  8
Widoczne (ISO)
 62
     2
100
AcDbLine
 10
36145.94663179732
 20
-439.9346331818462
 30
0.0
 11
36129.94663179732
 21
-439.9346331818474
 31
0.0
  0
LINE
  5
221C93
330
6C
100
AcDbEntity
  8
Widoczne (ISO)
 62
     2
100
AcDbLine
 10
36129.94663179732
 20
-440.4346331818468
 30
0.0
 11
36129.94663179732
 21
-439.9346331818478
 31
0.0
  0
LINE
  5
221C94
330
6C
100
AcDbEntity
  8
Widoczne (ISO)
 62
     2
100
AcDbLine
 10
36145.94663179732
 20
-440.434633181846
 30
0.0
 11
36145.94663179732
 21
-439.9346331818462
 31
0.0
  0
ARC
  5
221C95
330
6C
100
AcDbEntity
  8
Widoczne (ISO)
 62
     2
100
AcDbCircle
 10
36137.94663179732
 20
-449.1012998485138
 30
0.0
 40
12.16666666666666
100
AcDbArc
 50
48.8879095607731
 51
131.1120904392268
  0
LINE
  5
221C96
330
6C
100
AcDbEntity
  8
Widoczne (ISO)
 62
     2
100
AcDbLine
 10
36030.94663179732
 20
-439.9346331818527
 30
0.0
 11
36014.94663179732
 21
-439.9346331818537
 31
0.0
  0
LINE
  5
221C97
330
6C
100
AcDbEntity
  8
Widoczne (ISO)
 62
     2
100
AcDbLine
 10
36014.94663179732
 20
-440.434633181854
 30
0.0
 11
36014.94663179732
 21
-439.9346331818537
 31
0.0
  0
LINE
  5
221C98
330
6C
100
AcDbEntity
  8
Widoczne (ISO)
 62
     2
100
AcDbLine
 10
36030.94663179732
 20
-440.4346331818528
 30
0.0
 11
36030.94663179732
 21
-439.9346331818527
 31
0.0
  0
ARC
  5
221C99
330
6C
100
AcDbEntity
  8
Widoczne (ISO)
 62
     2
100
AcDbCircle
 10
36022.94663179732
 20
-449.1012998485198
 30
0.0
 40
12.16666666666666
100
AcDbArc
 50
48.8879095607731
 51
131.1120904392268
  0
LINE
  5
221C9A
330
6C
100
AcDbEntity
  8
Widoczne (ISO)
 62
     2
100
AcDbLine
 10
35915.94663179732
 20
-439.9346331818592
 30
0.0
 11
35899.94663179732
 21
-439.9346331818601
 31
0.0
  0
LINE
  5
221C9B
330
6C
100
AcDbEntity
  8
Widoczne (ISO)
 62
     2
100
AcDbLine
 10
35899.94663179732
 20
-440.4346331818596
 30
0.0
 11
35899.94663179732
 21
-439.9346331818605
 31
0.0
  0
LINE
  5
221C9C
330
6C
100
AcDbEntity
  8
Widoczne (ISO)
 62
     2
100
AcDbLine
 10
35915.94663179732
 20
-440.4346331818588
 30
0.0
 11
35915.94663179732
 21
-439.9346331818592
 31
0.0
  0
ARC
  5
221C9D
330
6C
100
AcDbEntity
  8
Widoczne (ISO)
 62
     2
100
AcDbCircle
 10
35907.94663179732
 20
-449.1012998485261
 30
0.0
 40
12.16666666666666
100
AcDbArc
 50
48.8879095607731
 51
131.1120904392268
  0
LINE
  5
221C9E
330
6C
100
AcDbEntity
  8
Widoczne (ISO)
 62
     2
100
AcDbLine
 10
35800.94663179732
 20
-439.9346331818653
 30
0.0
 11
35784.94663179732
 21
-439.9346331818665
 31
0.0
  0
LINE
  5
221C9F
330
6C
100
AcDbEntity
  8
Widoczne (ISO)
 62
     2
100
AcDbLine
 10
35784.94663179732
 20
-440.4346331818665
 30
0.0
 11
35784.94663179732
 21
-439.9346331818668
 31
0.0
  0
LINE
  5
221CA0
330
6C
100
AcDbEntity
  8
Widoczne (ISO)
 62
     2
100
AcDbLine
 10
35800.94663179732
 20
-440.4346331818651
 30
0.0
 11
35800.94663179732
 21
-439.934633181866
 31
0.0
  0
ARC
  5
221CA1
330
6C
100
AcDbEntity
  8
Widoczne (ISO)
 62
     2
100
AcDbCircle
 10
35792.94663179732
 20
-449.101299848533
 30
0.0
 40
12.16666666666666
100
AcDbArc
 50
48.8879095607731
 51
131.1120904392268
  0
LINE
  5
221CA2
330
6C
100
AcDbEntity
  8
Widoczne (ISO)
 62
     2
100
AcDbLine
 10
35685.94663179732
 20
-439.9346331818717
 30
0.0
 11
35669.94663179732
 21
-439.9346331818728
 31
0.0
  0
LINE
  5
221CA3
330
6C
100
AcDbEntity
  8
Widoczne (ISO)
 62
     2
100
AcDbLine
 10
35669.94663179732
 20
-440.4346331818728
 30
0.0
 11
35669.94663179732
 21
-439.9346331818732
 31
0.0
  0
LINE
  5
221CA4
330
6C
100
AcDbEntity
  8
Widoczne (ISO)
 62
     2
100
AcDbLine
 10
35685.94663179732
 20
-440.4346331818715
 30
0.0
 11
35685.94663179732
 21
-439.9346331818717
 31
0.0
  0
ARC
  5
221CA5
330
6C
100
AcDbEntity
  8
Widoczne (ISO)
 62
     2
100
AcDbCircle
 10
35677.94663179732
 20
-449.1012998485389
 30
0.0
 40
12.16666666666666
100
AcDbArc
 50
48.8879095607731
 51
131.1120904392268
  0
LINE
  5
221CA6
330
6C
100
AcDbEntity
  8
Widoczne (ISO)
 62
     2
100
AcDbLine
 10
35570.94663179732
 20
-439.9346331818782
 30
0.0
 11
35554.94663179732
 21
-439.9346331818787
 31
0.0
  0
LINE
  5
221CA7
330
6C
100
AcDbEntity
  8
Widoczne (ISO)
 62
     2
100
AcDbLine
 10
35554.94663179732
 20
-440.4346331818786
 30
0.0
 11
35554.94663179732
 21
-439.9346331818796
 31
0.0
  0
LINE
  5
221CA8
330
6C
100
AcDbEntity
  8
Widoczne (ISO)
 62
     2
100
AcDbLine
 10
35570.94663179732
 20
-440.4346331818778
 30
0.0
 11
35570.94663179732
 21
-439.9346331818782
 31
0.0
  0
ARC
  5
221CA9
330
6C
100
AcDbEntity
  8
Widoczne (ISO)
 62
     2
100
AcDbCircle
 10
35562.94663179732
 20
-449.1012998485451
 30
0.0
 40
12.16666666666666
100
AcDbArc
 50
48.8879095607731
 51
131.1120904392268
  0
LINE
  5
221CAA
330
6C
100
AcDbEntity
  8
Widoczne (ISO)
 62
     2
100
AcDbLine
 10
35455.94663179732
 20
-439.9346331818842
 30
0.0
 11
35439.94663179732
 21
-439.9346331818851
 31
0.0
  0
LINE
  5
221CAB
330
6C
100
AcDbEntity
  8
Widoczne (ISO)
 62
     2
100
AcDbLine
 10
35439.94663179732
 20
-440.4346331818851
 30
0.0
 11
35439.94663179732
 21
-439.9346331818856
 31
0.0
  0
LINE
  5
221CAC
330
6C
100
AcDbEntity
  8
Widoczne (ISO)
 62
     2
100
AcDbLine
 10
35455.94663179732
 20
-440.4346331818842
 30
0.0
 11
35455.94663179732
 21
-439.9346331818846
 31
0.0
  0
ARC
  5
221CAD
330
6C
100
AcDbEntity
  8
Widoczne (ISO)
 62
     2
100
AcDbCircle
 10
35447.94663179732
 20
-449.1012998485516
 30
0.0
 40
12.16666666666666
100
AcDbArc
 50
48.8879095607731
 51
131.1120904392268
  0
LINE
  5
221CAE
330
6C
100
AcDbEntity
  8
Widoczne (ISO)
 62
     2
100
AcDbLine
 10
35340.94663179732
 20
-439.9346331818906
 30
0.0
 11
35324.94663179732
 21
-439.9346331818914
 31
0.0
  0
LINE
  5
221CAF
330
6C
100
AcDbEntity
  8
Widoczne (ISO)
 62
     2
100
AcDbLine
 10
35324.94663179732
 20
-440.4346331818913
 30
0.0
 11
35324.94663179732
 21
-439.9346331818917
 31
0.0
  0
LINE
  5
221CB0
330
6C
100
AcDbEntity
  8
Widoczne (ISO)
 62
     2
100
AcDbLine
 10
35340.94663179732
 20
-440.4346331818906
 30
0.0
 11
35340.94663179732
 21
-439.9346331818906
 31
0.0
  0
ARC
  5
221CB1
330
6C
100
AcDbEntity
  8
Widoczne (ISO)
 62
     2
100
AcDbCircle
 10
35332.94663179732
 20
-449.1012998485575
 30
0.0
 40
12.16666666666666
100
AcDbArc
 50
48.8879095607731
 51
131.1120904392268
  0
LINE
  5
221CB2
330
6C
100
AcDbEntity
  8
Widoczne (ISO)
 62
     2
100
AcDbLine
 10
36473.44663179735
 20
-2020.934633181909
 30
0.0
 11
36474.94663179734
 21
-2020.934633181909
 31
0.0
  0
LINE
  5
221CB3
330
6C
100
AcDbEntity
  8
Widoczne (ISO)
 62
     2
100
AcDbLine
 10
36473.44663179735
 20
-2020.434633181908
 30
0.0
 11
36473.44663179735
 21
-2020.934633181909
 31
0.0
  0
ARC
  5
221CB4
330
6C
100
AcDbEntity
  8
Widoczne (ISO)
 62
     2
100
AcDbCircle
 10
36481.44663179735
 20
-2011.767966515242
 30
0.0
 40
12.16666666666666
100
AcDbArc
 50
228.8879095607731
 51
273.5341723153787
  0
LINE
  5
221CB5
330
6C
100
AcDbEntity
  8
Widoczne (ISO)
 62
     2
100
AcDbLine
 10
36030.94663179734
 20
-2020.934633181909
 30
0.0
 11
36035.44663179735
 21
-2020.934633181909
 31
0.0
  0
LINE
  5
221CB6
330
6C
100
AcDbEntity
  8
Widoczne (ISO)
 62
     2
100
AcDbLine
 10
36035.44663179735
 20
-2020.434633181909
 30
0.0
 11
36035.44663179735
 21
-2020.934633181909
 31
0.0
  0
ARC
  5
221CB7
330
6C
100
AcDbEntity
  8
Widoczne (ISO)
 62
     2
100
AcDbCircle
 10
36027.44663179735
 20
-2011.767966515242
 30
0.0
 40
12.16666666666665
100
AcDbArc
 50
259.3428608747582
 51
311.1120904392269
  0
LINE
  5
221CB8
330
6C
100
AcDbEntity
  8
Widoczne (ISO)
 62
     2
100
AcDbLine
 10
35629.44663179735
 20
-2020.934633181909
 30
0.0
 11
35645.44663179735
 21
-2020.934633181909
 31
0.0
  0
LINE
  5
221CB9
330
6C
100
AcDbEntity
  8
Widoczne (ISO)
 62
     2
100
AcDbLine
 10
35645.44663179735
 20
-2020.434633181909
 30
0.0
 11
35645.44663179735
 21
-2020.934633181909
 31
0.0
  0
LINE
  5
221CBA
330
6C
100
AcDbEntity
  8
Widoczne (ISO)
 62
     2
100
AcDbLine
 10
35629.44663179735
 20
-2020.434633181909
 30
0.0
 11
35629.44663179735
 21
-2020.934633181909
 31
0.0
  0
ARC
  5
221CBB
330
6C
100
AcDbEntity
  8
Widoczne (ISO)
 62
     2
100
AcDbCircle
 10
35637.44663179735
 20
-2011.767966515242
 30
0.0
 40
12.16666666666666
100
AcDbArc
 50
228.8879095607731
 51
311.1120904392269
  0
LINE
  5
221CBC
330
6C
100
AcDbEntity
  8
Widoczne (ISO)
 62
     2
100
AcDbLine
 10
35324.94663179735
 20
-2020.934633181907
 30
0.0
 11
35340.94663179735
 21
-2020.934633181907
 31
0.0
  0
LINE
  5
221CBD
330
6C
100
AcDbEntity
  8
Widoczne (ISO)
 62
     2
100
AcDbLine
 10
35340.94663179735
 20
-2020.434633181908
 30
0.0
 11
35340.94663179735
 21
-2020.934633181907
 31
0.0
  0
LINE
  5
221CBE
330
6C
100
AcDbEntity
  8
Widoczne (ISO)
 62
     2
100
AcDbLine
 10
35324.94663179735
 20
-2020.434633181908
 30
0.0
 11
35324.94663179735
 21
-2020.934633181907
 31
0.0
  0
ARC
  5
221CBF
330
6C
100
AcDbEntity
  8
Widoczne (ISO)
 62
     2
100
AcDbCircle
 10
35332.94663179735
 20
-2011.767966515241
 30
0.0
 40
12.16666666666666
100
AcDbArc
 50
228.8879095607731
 51
311.1120904392269
  0
LINE
  5
221CC0
330
6C
100
AcDbEntity
  8
Widoczne (ISO)
 62
     2
100
AcDbLine
 10
35439.94663179735
 20
-2020.934633181907
 30
0.0
 11
35455.94663179735
 21
-2020.934633181907
 31
0.0
  0
LINE
  5
221CC1
330
6C
100
AcDbEntity
  8
Widoczne (ISO)
 62
     2
100
AcDbLine
 10
35455.94663179735
 20
-2020.434633181908
 30
0.0
 11
35455.94663179735
 21
-2020.934633181907
 31
0.0
  0
LINE
  5
221CC2
330
6C
100
AcDbEntity
  8
Widoczne (ISO)
 62
     2
100
AcDbLine
 10
35439.94663179735
 20
-2020.434633181908
 30
0.0
 11
35439.94663179735
 21
-2020.934633181907
 31
0.0
  0
ARC
  5
221CC3
330
6C
100
AcDbEntity
  8
Widoczne (ISO)
 62
     2
100
AcDbCircle
 10
35447.94663179735
 20
-2011.767966515241
 30
0.0
 40
12.16666666666667
100
AcDbArc
 50
228.8879095607731
 51
311.1120904392269
  0
LINE
  5
221CC4
330
6C
100
AcDbEntity
  8
Widoczne (ISO)
 62
     2
100
AcDbLine
 10
35554.94663179735
 20
-2020.934633181907
 30
0.0
 11
35570.94663179735
 21
-2020.934633181907
 31
0.0
  0
LINE
  5
221CC5
330
6C
100
AcDbEntity
  8
Widoczne (ISO)
 62
     2
100
AcDbLine
 10
35570.94663179735
 20
-2020.434633181908
 30
0.0
 11
35570.94663179735
 21
-2020.934633181907
 31
0.0
  0
LINE
  5
221CC6
330
6C
100
AcDbEntity
  8
Widoczne (ISO)
 62
     2
100
AcDbLine
 10
35554.94663179735
 20
-2020.434633181908
 30
0.0
 11
35554.94663179735
 21
-2020.934633181907
 31
0.0
  0
ARC
  5
221CC7
330
6C
100
AcDbEntity
  8
Widoczne (ISO)
 62
     2
100
AcDbCircle
 10
35562.94663179735
 20
-2011.767966515241
 30
0.0
 40
12.16666666666666
100
AcDbArc
 50
228.8879095607731
 51
311.1120904392269
  0
LINE
  5
221CC8
330
6C
100
AcDbEntity
  8
Widoczne (ISO)
 62
     2
100
AcDbLine
 10
35669.94663179735
 20
-2020.934633181907
 30
0.0
 11
35685.94663179735
 21
-2020.934633181907
 31
0.0
  0
LINE
  5
221CC9
330
6C
100
AcDbEntity
  8
Widoczne (ISO)
 62
     2
100
AcDbLine
 10
35685.94663179735
 20
-2020.434633181908
 30
0.0
 11
35685.94663179735
 21
-2020.934633181907
 31
0.0
  0
LINE
  5
221CCA
330
6C
100
AcDbEntity
  8
Widoczne (ISO)
 62
     2
100
AcDbLine
 10
35669.94663179735
 20
-2020.434633181908
 30
0.0
 11
35669.94663179735
 21
-2020.934633181907
 31
0.0
  0
ARC
  5
221CCB
330
6C
100
AcDbEntity
  8
Widoczne (ISO)
 62
     2
100
AcDbCircle
 10
35677.94663179735
 20
-2011.767966515241
 30
0.0
 40
12.16666666666666
100
AcDbArc
 50
228.8879095607731
 51
311.1120904392269
  0
LINE
  5
221CCC
330
6C
100
AcDbEntity
  8
Widoczne (ISO)
 62
     2
100
AcDbLine
 10
35784.94663179735
 20
-2020.934633181907
 30
0.0
 11
35800.94663179735
 21
-2020.934633181907
 31
0.0
  0
LINE
  5
221CCD
330
6C
100
AcDbEntity
  8
Widoczne (ISO)
 62
     2
100
AcDbLine
 10
35800.94663179735
 20
-2020.434633181908
 30
0.0
 11
35800.94663179735
 21
-2020.934633181907
 31
0.0
  0
LINE
  5
221CCE
330
6C
100
AcDbEntity
  8
Widoczne (ISO)
 62
     2
100
AcDbLine
 10
35784.94663179735
 20
-2020.434633181908
 30
0.0
 11
35784.94663179735
 21
-2020.934633181907
 31
0.0
  0
ARC
  5
221CCF
330
6C
100
AcDbEntity
  8
Widoczne (ISO)
 62
     2
100
AcDbCircle
 10
35792.94663179735
 20
-2011.767966515241
 30
0.0
 40
12.16666666666666
100
AcDbArc
 50
228.8879095607731
 51
311.1120904392269
  0
LINE
  5
221CD0
330
6C
100
AcDbEntity
  8
Widoczne (ISO)
 62
     2
100
AcDbLine
 10
35899.94663179735
 20
-2020.934633181907
 30
0.0
 11
35915.94663179735
 21
-2020.934633181907
 31
0.0
  0
LINE
  5
221CD1
330
6C
100
AcDbEntity
  8
Widoczne (ISO)
 62
     2
100
AcDbLine
 10
35915.94663179735
 20
-2020.434633181908
 30
0.0
 11
35915.94663179735
 21
-2020.934633181907
 31
0.0
  0
LINE
  5
221CD2
330
6C
100
AcDbEntity
  8
Widoczne (ISO)
 62
     2
100
AcDbLine
 10
35899.94663179735
 20
-2020.434633181908
 30
0.0
 11
35899.94663179735
 21
-2020.934633181907
 31
0.0
  0
ARC
  5
221CD3
330
6C
100
AcDbEntity
  8
Widoczne (ISO)
 62
     2
100
AcDbCircle
 10
35907.94663179735
 20
-2011.767966515241
 30
0.0
 40
12.16666666666666
100
AcDbArc
 50
228.8879095607731
 51
311.1120904392269
  0
LINE
  5
221CD4
330
6C
100
AcDbEntity
  8
Widoczne (ISO)
 62
     2
100
AcDbLine
 10
36014.94663179735
 20
-2020.934633181907
 30
0.0
 11
36030.94663179735
 21
-2020.934633181907
 31
0.0
  0
LINE
  5
221CD5
330
6C
100
AcDbEntity
  8
Widoczne (ISO)
 62
     2
100
AcDbLine
 10
36030.94663179735
 20
-2020.434633181908
 30
0.0
 11
36030.94663179735
 21
-2020.934633181907
 31
0.0
  0
LINE
  5
221CD6
330
6C
100
AcDbEntity
  8
Widoczne (ISO)
 62
     2
100
AcDbLine
 10
36014.94663179735
 20
-2020.434633181908
 30
0.0
 11
36014.94663179735
 21
-2020.934633181907
 31
0.0
  0
ARC
  5
221CD7
330
6C
100
AcDbEntity
  8
Widoczne (ISO)
 62
     2
100
AcDbCircle
 10
36022.94663179735
 20
-2011.767966515241
 30
0.0
 40
12.16666666666666
100
AcDbArc
 50
228.8879095607731
 51
311.1120904392269
  0
LINE
  5
221CD8
330
6C
100
AcDbEntity
  8
Widoczne (ISO)
 62
     2
100
AcDbLine
 10
36129.94663179735
 20
-2020.934633181907
 30
0.0
 11
36145.94663179735
 21
-2020.934633181907
 31
0.0
  0
LINE
  5
221CD9
330
6C
100
AcDbEntity
  8
Widoczne (ISO)
 62
     2
100
AcDbLine
 10
36145.94663179735
 20
-2020.434633181908
 30
0.0
 11
36145.94663179735
 21
-2020.934633181907
 31
0.0
  0
LINE
  5
221CDA
330
6C
100
AcDbEntity
  8
Widoczne (ISO)
 62
     2
100
AcDbLine
 10
36129.94663179735
 20
-2020.434633181908
 30
0.0
 11
36129.94663179735
 21
-2020.934633181907
 31
0.0
  0
ARC
  5
221CDB
330
6C
100
AcDbEntity
  8
Widoczne (ISO)
 62
     2
100
AcDbCircle
 10
36137.94663179735
 20
-2011.767966515241
 30
0.0
 40
12.16666666666666
100
AcDbArc
 50
228.8879095607731
 51
311.1120904392269
  0
LINE
  5
221CDC
330
6C
100
AcDbEntity
  8
Widoczne (ISO)
 62
     2
100
AcDbLine
 10
36244.94663179735
 20
-2020.934633181907
 30
0.0
 11
36260.94663179735
 21
-2020.934633181907
 31
0.0
  0
LINE
  5
221CDD
330
6C
100
AcDbEntity
  8
Widoczne (ISO)
 62
     2
100
AcDbLine
 10
36260.94663179735
 20
-2020.434633181908
 30
0.0
 11
36260.94663179735
 21
-2020.934633181907
 31
0.0
  0
LINE
  5
221CDE
330
6C
100
AcDbEntity
  8
Widoczne (ISO)
 62
     2
100
AcDbLine
 10
36244.94663179735
 20
-2020.434633181908
 30
0.0
 11
36244.94663179735
 21
-2020.934633181907
 31
0.0
  0
ARC
  5
221CDF
330
6C
100
AcDbEntity
  8
Widoczne (ISO)
 62
     2
100
AcDbCircle
 10
36252.94663179735
 20
-2011.767966515241
 30
0.0
 40
12.16666666666666
100
AcDbArc
 50
228.8879095607731
 51
311.1120904392269
  0
LINE
  5
221CE0
330
6C
100
AcDbEntity
  8
Widoczne (ISO)
 62
     2
100
AcDbLine
 10
36359.94663179735
 20
-2020.934633181907
 30
0.0
 11
36375.94663179735
 21
-2020.934633181907
 31
0.0
  0
LINE
  5
221CE1
330
6C
100
AcDbEntity
  8
Widoczne (ISO)
 62
     2
100
AcDbLine
 10
36375.94663179735
 20
-2020.434633181908
 30
0.0
 11
36375.94663179735
 21
-2020.934633181907
 31
0.0
  0
LINE
  5
221CE2
330
6C
100
AcDbEntity
  8
Widoczne (ISO)
 62
     2
100
AcDbLine
 10
36359.94663179735
 20
-2020.434633181908
 30
0.0
 11
36359.94663179735
 21
-2020.934633181907
 31
0.0
  0
ARC
  5
221CE3
330
6C
100
AcDbEntity
  8
Widoczne (ISO)
 62
     2
100
AcDbCircle
 10
36367.94663179735
 20
-2011.767966515241
 30
0.0
 40
12.16666666666666
100
AcDbArc
 50
228.8879095607731
 51
311.1120904392269
  0
LINE
  5
221CE4
330
6C
100
AcDbEntity
  8
Widoczne (ISO)
 62
     2
100
AcDbLine
 10
36474.94663179735
 20
-2020.934633181907
 30
0.0
 11
36490.94663179734
 21
-2020.934633181907
 31
0.0
  0
LINE
  5
221CE5
330
6C
100
AcDbEntity
  8
Widoczne (ISO)
 62
     2
100
AcDbLine
 10
36490.94663179734
 20
-2020.434633181908
 30
0.0
 11
36490.94663179734
 21
-2020.934633181907
 31
0.0
  0
LINE
  5
221CE6
330
6C
100
AcDbEntity
  8
Widoczne (ISO)
 62
     2
100
AcDbLine
 10
36474.94663179735
 20
-2020.434633181908
 30
0.0
 11
36474.94663179735
 21
-2020.934633181907
 31
0.0
  0
ARC
  5
221CE7
330
6C
100
AcDbEntity
  8
Widoczne (ISO)
 62
     2
100
AcDbCircle
 10
36482.94663179735
 20
-2011.767966515241
 30
0.0
 40
12.16666666666666
100
AcDbArc
 50
228.8879095607731
 51
311.1120904392269
  0
LINE
  5
221CE8
330
6C
100
AcDbEntity
  8
Widoczne (ISO)
 62
     2
100
AcDbLine
 10
36589.94663179735
 20
-2020.934633181907
 30
0.0
 11
36605.94663179734
 21
-2020.934633181907
 31
0.0
  0
LINE
  5
221CE9
330
6C
100
AcDbEntity
  8
Widoczne (ISO)
 62
     2
100
AcDbLine
 10
36605.94663179734
 20
-2020.434633181908
 30
0.0
 11
36605.94663179734
 21
-2020.934633181907
 31
0.0
  0
LINE
  5
221CEA
330
6C
100
AcDbEntity
  8
Widoczne (ISO)
 62
     2
100
AcDbLine
 10
36589.94663179734
 20
-2020.434633181908
 30
0.0
 11
36589.94663179734
 21
-2020.934633181907
 31
0.0
  0
ARC
  5
221CEB
330
6C
100
AcDbEntity
  8
Widoczne (ISO)
 62
     2
100
AcDbCircle
 10
36597.94663179735
 20
-2011.767966515241
 30
0.0
 40
12.16666666666667
100
AcDbArc
 50
228.8879095607731
 51
311.1120904392269
  0
LINE
  5
221CEC
330
6C
100
AcDbEntity
  8
Widoczne (ISO)
 62
     2
100
AcDbLine
 10
36704.94663179735
 20
-2020.934633181907
 30
0.0
 11
36720.94663179734
 21
-2020.934633181907
 31
0.0
  0
LINE
  5
221CED
330
6C
100
AcDbEntity
  8
Widoczne (ISO)
 62
     2
100
AcDbLine
 10
36720.94663179734
 20
-2020.434633181908
 30
0.0
 11
36720.94663179734
 21
-2020.934633181907
 31
0.0
  0
LINE
  5
221CEE
330
6C
100
AcDbEntity
  8
Widoczne (ISO)
 62
     2
100
AcDbLine
 10
36704.94663179734
 20
-2020.434633181908
 30
0.0
 11
36704.94663179734
 21
-2020.934633181907
 31
0.0
  0
ARC
  5
221CEF
330
6C
100
AcDbEntity
  8
Widoczne (ISO)
 62
     2
100
AcDbCircle
 10
36712.94663179735
 20
-2011.767966515241
 30
0.0
 40
12.16666666666666
100
AcDbArc
 50
228.8879095607731
 51
311.1120904392269
  0
LINE
  5
221CF0
330
6C
100
AcDbEntity
  8
Widoczne (ISO)
 62
     2
100
AcDbLine
 10
36819.94663179735
 20
-2020.934633181907
 30
0.0
 11
36835.94663179734
 21
-2020.934633181907
 31
0.0
  0
LINE
  5
221CF1
330
6C
100
AcDbEntity
  8
Widoczne (ISO)
 62
     2
100
AcDbLine
 10
36835.94663179734
 20
-2020.434633181908
 30
0.0
 11
36835.94663179734
 21
-2020.934633181907
 31
0.0
  0
LINE
  5
221CF2
330
6C
100
AcDbEntity
  8
Widoczne (ISO)
 62
     2
100
AcDbLine
 10
36819.94663179735
 20
-2020.434633181908
 30
0.0
 11
36819.94663179735
 21
-2020.934633181907
 31
0.0
  0
ARC
  5
221CF3
330
6C
100
AcDbEntity
  8
Widoczne (ISO)
 62
     2
100
AcDbCircle
 10
36827.94663179735
 20
-2011.767966515241
 30
0.0
 40
12.16666666666667
100
AcDbArc
 50
228.8879095607731
 51
311.1120904392269
  0
LINE
  5
221CF4
330
6C
100
AcDbEntity
  8
Widoczne (ISO)
 62
     2
100
AcDbLine
 10
35027.44663179734
 20
-1995.434633181907
 30
0.0
 11
35027.44663179734
 21
-2011.434633181908
 31
0.0
  0
LINE
  5
221CF5
330
6C
100
AcDbEntity
  8
Widoczne (ISO)
 62
     2
100
AcDbLine
 10
35027.94663179733
 20
-2011.434633181908
 30
0.0
 11
35027.44663179734
 21
-2011.434633181908
 31
0.0
  0
LINE
  5
221CF6
330
6C
100
AcDbEntity
  8
Widoczne (ISO)
 62
     2
100
AcDbLine
 10
35027.94663179733
 20
-1995.434633181907
 30
0.0
 11
35027.44663179734
 21
-1995.434633181907
 31
0.0
  0
ARC
  5
221CF7
330
6C
100
AcDbEntity
  8
Widoczne (ISO)
 62
     2
100
AcDbCircle
 10
35036.613298464
 20
-2003.434633181908
 30
0.0
 40
12.16666666666666
100
AcDbArc
 50
138.8879095608124
 51
221.1120904391876
  0
LINE
  5
221CF8
330
6C
100
AcDbEntity
  8
Widoczne (ISO)
 62
     2
100
AcDbLine
 10
37107.94663179735
 20
-2020.934633181908
 30
0.0
 11
37123.94663179735
 21
-2020.934633181908
 31
0.0
  0
LINE
  5
221CF9
330
6C
100
AcDbEntity
  8
Widoczne (ISO)
 62
     2
100
AcDbLine
 10
37123.94663179735
 20
-2020.434633181908
 30
0.0
 11
37123.94663179735
 21
-2020.934633181908
 31
0.0
  0
LINE
  5
221CFA
330
6C
100
AcDbEntity
  8
Widoczne (ISO)
 62
     2
100
AcDbLine
 10
37107.94663179735
 20
-2020.434633181908
 30
0.0
 11
37107.94663179735
 21
-2020.934633181908
 31
0.0
  0
ARC
  5
221CFB
330
6C
100
AcDbEntity
  8
Widoczne (ISO)
 62
     2
100
AcDbCircle
 10
37115.94663179735
 20
-2011.767966515241
 30
0.0
 40
12.16666666666666
100
AcDbArc
 50
228.8879095607731
 51
311.1120904392269
  0
LINE
  5
221CFC
330
6C
100
AcDbEntity
  8
Widoczne (ISO)
 62
     2
100
AcDbLine
 10
37133.44663179743
 20
-465.4346331819058
 30
0.0
 11
37133.44663179743
 21
-449.4346331819058
 31
0.0
  0
LINE
  5
221CFD
330
6C
100
AcDbEntity
  8
Widoczne (ISO)
 62
     2
100
AcDbLine
 10
37132.94663179743
 20
-449.4346331819065
 30
0.0
 11
37133.44663179743
 21
-449.4346331819065
 31
0.0
  0
LINE
  5
221CFE
330
6C
100
AcDbEntity
  8
Widoczne (ISO)
 62
     2
100
AcDbLine
 10
37132.94663179743
 20
-465.4346331819063
 30
0.0
 11
37133.44663179743
 21
-465.4346331819063
 31
0.0
  0
ARC
  5
221CFF
330
6C
100
AcDbEntity
  8
Widoczne (ISO)
 62
     2
100
AcDbCircle
 10
37124.27996513077
 20
-457.4346331819056
 30
0.0
 40
12.16666666666666
100
AcDbArc
 50
318.8879095608124
 51
41.11209043914834
  0
LINE
  5
221D00
330
6C
100
AcDbEntity
  8
Widoczne (ISO)
 62
     2
100
AcDbLine
 10
35052.94663179732
 20
-439.934633181912
 30
0.0
 11
35036.94663179732
 21
-439.9346331819128
 31
0.0
  0
LINE
  5
221D01
330
6C
100
AcDbEntity
  8
Widoczne (ISO)
 62
     2
100
AcDbLine
 10
35036.94663179732
 20
-440.4346331819128
 30
0.0
 11
35036.94663179732
 21
-439.9346331819123
 31
0.0
  0
LINE
  5
221D02
330
6C
100
AcDbEntity
  8
Widoczne (ISO)
 62
     2
100
AcDbLine
 10
35052.94663179732
 20
-440.4346331819123
 30
0.0
 11
35052.94663179732
 21
-439.934633181912
 31
0.0
  0
ARC
  5
221D03
330
6C
100
AcDbEntity
  8
Widoczne (ISO)
 62
     2
100
AcDbCircle
 10
35044.94663179732
 20
-449.1012998485787
 30
0.0
 40
12.16666666666666
100
AcDbArc
 50
48.8879095607731
 51
131.1120904392268
  0
LINE
  5
229AED
330
6C
100
AcDbEntity
  8
Widoczne (ISO)
 62
     2
100
AcDbLine
 10
35027.94663179733
 20
-2020.434633181901
 30
0.0
 11
35027.94663179733
 21
-1330.434633181905
 31
0.0
  0
LINE
  5
229AEE
330
6C
100
AcDbEntity
  8
Widoczne (ISO)
 62
     2
100
AcDbLine
 10
35027.94663179733
 20
-2020.434633181901
 30
0.0
 11
36442.94663179736
 21
-2020.434633181894
 31
0.0
  0
LINE
  5
229AF8
330
6C
100
AcDbEntity
  8
Widoczne (ISO)
 62
     2
100
AcDbLine
 10
37132.94663179735
 20
-440.434633181942
 30
0.0
 11
37132.94663179732
 21
-1130.434633181934
 31
0.0
  0
LINE
  5
229AFA
330
6C
100
AcDbEntity
  8
Widoczne (ISO)
 62
     2
100
AcDbLine
 10
37132.94663179735
 20
-440.434633181942
 30
0.0
 11
35717.94663179734
 21
-440.4346331819042
 31
0.0
  0
LINE
  5
229B05
330
6C
100
AcDbEntity
  8
Widoczne (ISO)
 62
     2
100
AcDbLine
 10
35027.94663179734
 20
-440.4346331819083
 30
0.0
 11
35717.94663179734
 21
-440.4346331819111
 31
0.0
  0
LINE
  5
229B06
330
6C
100
AcDbEntity
  8
Widoczne (ISO)
 62
     2
100
AcDbLine
 10
35027.94663179734
 20
-440.4346331819083
 30
0.0
 11
35027.94663179733
 21
-1330.434633181905
 31
0.0
  0
LINE
  5
229B11
330
6C
100
AcDbEntity
  8
Widoczne (ISO)
 62
     2
100
AcDbLine
 10
37132.94663179731
 20
-2020.434633181939
 30
0.0
 11
36442.94663179731
 21
-2020.434633181913
 31
0.0
  0
LINE
  5
229B13
330
6C
100
AcDbEntity
  8
Widoczne (ISO)
 62
     2
100
AcDbLine
 10
37132.94663179731
 20
-2020.434633181939
 30
0.0
 11
37132.94663179735
 21
-1130.434633181934
 31
0.0
  0
LINE
  5
22AA69
330
6C
100
AcDbEntity
  8
0
  6
ACISOTGB
 62
     6
 48
25.0
100
AcDbLine
 10
36847.94663179733
 20
1274.56536681807
 30
0.0
 11
35312.94663179734
 21
1274.565366818071
 31
0.0
  0
LINE
  5
22AA6A
330
6C
100
AcDbEntity
  8
0
  6
ACISOTGB
 62
     6
 48
25.0
100
AcDbLine
 10
38847.94663179733
 20
-725.4346331819299
 30
0.0
 11
38847.94663179733
 21
-1735.434633181901
 31
0.0
  0
LINE
  5
22AA6B
330
6C
100
AcDbEntity
  8
0
  6
ACISOTGB
 62
     6
 48
25.0
100
AcDbLine
 10
35312.94663179734
 20
-3735.434633181901
 30
0.0
 11
36847.94663179733
 21
-3735.434633181901
 31
0.0
  0
LINE
  5
22AA6C
330
6C
100
AcDbEntity
  8
0
  6
ACISOTGB
 62
     6
 48
25.0
100
AcDbLine
 10
33312.94663179733
 20
-1735.434633181898
 30
0.0
 11
33312.94663179734
 21
-725.4346331819244
 31
0.0
  0
ARC
  5
22AA6E
330
6C
100
AcDbEntity
  8
0
  6
ACISOTGB
 62
     6
 48
25.0
100
AcDbCircle
 10
36847.94663179733
 20
-725.4346331819299
 30
0.0
 40
2000.0
100
AcDbArc
 50
0.0
 51
89.99999999999998
1001
GENIUS_GENOBJ-N-FIL_13
1002
{
1000
OWNER
1000
GEN
1002
}
1001
GENIUS_GENODEF_13
1002
{
1000
HIER
1070
     0
1002
}
1002
{
1000
MANEDIT
1070
     0
1002
}
1002
{
1000
NOSEL
1070
     0
1002
}
1002
{
1000
BEHIND
1070
     0
1002
}
1002
{
1000
OTHER
1070
     0
1002
}
1002
{
1000
REACTOR
1002
}
  0
ARC
  5
22AA6F
330
6C
100
AcDbEntity
  8
0
  6
ACISOTGB
 62
     6
 48
25.0
100
AcDbCircle
 10
35312.94663179734
 20
-725.4346331819292
 30
0.0
 40
2000.0
100
AcDbArc
 50
89.99999999999998
 51
179.9999999999999
1001
GENIUS_GENODEF_13
1002
{
1000
HIER
1070
     0
1002
}
1002
{
1000
MANEDIT
1070
     0
1002
}
1002
{
1000
NOSEL
1070
     0
1002
}
1002
{
1000
BEHIND
1070
     0
1002
}
1002
{
1000
OTHER
1070
     0
1002
}
1002
{
1000
REACTOR
1002
}
1001
GENIUS_GENOBJ-N-FIL_13
1002
{
1000
OWNER
1000
GEN
1002
}
  0
ARC
  5
22AA70
330
6C
100
AcDbEntity
  8
0
  6
ACISOTGB
 62
     6
 48
25.0
100
AcDbCircle
 10
35312.94663179734
 20
-1735.434633181901
 30
0.0
 40
2000.0
100
AcDbArc
 50
179.9999999999999
 51
270.0
1001
GENIUS_GENODEF_13
1002
{
1000
HIER
1070
     0
1002
}
1002
{
1000
MANEDIT
1070
     0
1002
}
1002
{
1000
NOSEL
1070
     0
1002
}
1002
{
1000
BEHIND
1070
     0
1002
}
1002
{
1000
OTHER
1070
     0
1002
}
1002
{
1000
REACTOR
1002
}
1001
GENIUS_GENOBJ-N-FIL_13
1002
{
1000
OWNER
1000
GEN
1002
}
  0
ARC
  5
22AA71
330
6C
100
AcDbEntity
  8
0
  6
ACISOTGB
 62
     6
 48
25.0
100
AcDbCircle
 10
36847.94663179733
 20
-1735.434633181901
 30
0.0
 40
2000.0
100
AcDbArc
 50
270.0
 51
0.0
1001
GENIUS_GENODEF_13
1002
{
1000
HIER
1070
     0
1002
}
1002
{
1000
MANEDIT
1070
     0
1002
}
1002
{
1000
NOSEL
1070
     0
1002
}
1002
{
1000
BEHIND
1070
     0
1002
}
1002
{
1000
OTHER
1070
     0
1002
}
1002
{
1000
REACTOR
1002
}
1001
GENIUS_GENOBJ-N-FIL_13
1002
{
1000
OWNER
1000
GEN
1002
}
  0
INSERT
  5
22AF64
330
6C
100
AcDbEntity
  8
0
100
AcDbBlockReference
  2
werwerrr
 10
-4035.276696376189
 20
-48.32033342503746
 30
0.0
  0
LINE
  5
22AF67
330
6C
100
AcDbEntity
  8
Widoczne (ISO)
 62
     2
100
AcDbLine
 10
35312.94663179734
 20
-1735.434633181901
 30
0.0
 11
36847.94663179733
 21
-1735.434633181901
 31
0.0
  0
LINE
  5
22AF68
330
6C
100
AcDbEntity
  8
Widoczne (ISO)
 62
     2
100
AcDbLine
 10
36847.94663179733
 20
-725.4346331819307
 30
0.0
 11
36847.94663179733
 21
-1735.434633181901
 31
0.0
  0
LINE
  5
22AF69
330
6C
100
AcDbEntity
  8
Widoczne (ISO)
 62
     2
100
AcDbLine
 10
36847.94663179733
 20
-725.4346331819307
 30
0.0
 11
35312.94663179734
 21
-725.4346331819288
 31
0.0
  0
LINE
  5
22AF6A
330
6C
100
AcDbEntity
  8
Widoczne (ISO)
 62
     2
100
AcDbLine
 10
35312.94663179734
 20
-1735.434633181901
 30
0.0
 11
35312.94663179734
 21
-725.4346331819288
 31
0.0
  0
ENDSEC
  0
SECTION
  2
OBJECTS
  0
DICTIONARY
  5
C
330
0
100
AcDbDictionary
281
     1
  3
ACAD_2007HEADERVARS_RT
350
22AF8D
  3
ACAD_COLOR
350
63
  3
ACAD_GROUP
350
D
  3
ACAD_LAYOUT
350
62
  3
ACAD_MATERIAL
350
10
  3
ACAD_MLEADERSTYLE
350
66
  3
ACAD_MLINESTYLE
350
5F
  3
ACAD_PLOTSETTINGS
350
61
  3
ACAD_PLOTSTYLENAME
350
E
  3
ACAD_SCALELIST
350
42
  3
ACAD_TABLESTYLE
350
64
  3
ACAD_VISUALSTYLE
350
29
  3
ACDB_RECOMPOSE_DATA
350
22AF8B
  3
AcDbVariableDictionary
350
22DB7
  3
AcmDictionary
350
22E11
  3
AMG
350
22DC3
  3
AMGSNAPSETTINGS
350
22E52
  3
DWGPROPS
350
22AF8C
  0
DICTIONARY
  5
22E5D
330
2
100
AcDbDictionary
280
     1
281
     1
  3
ACAD_LAYERSTATES
360
22E5E
  3
AMLAYER_GROUPCOLORS
360
79095
  0
DICTIONARY
  5
2D669
330
6C
100
AcDbDictionary
280
     1
281
     1
  3
ACAD_SORTENTS
360
2D66A
  0
DICTIONARY
  5
22A029
330
22A028
100
AcDbDictionary
280
     1
281
     1
  3
ACAD_SORTENTS
360
22A02A
  0
DICTIONARY
  5
22AF8D
102
{ACAD_REACTORS
330
C
102
}
330
C
100
AcDbDictionary
281
     1
  3
DIMARCSYM
350
22AF8E
  3
DIMLTEX1
350
22AF90
  3
DIMLTEX2
350
22AF91
  3
DIMLTYPE
350
22AF8F
  0
DICTIONARY
  5
63
102
{ACAD_REACTORS
330
C
102
}
330
C
100
AcDbDictionary
281
     1
  0
DICTIONARY
  5
D
102
{ACAD_REACTORS
330
C
102
}
330
C
100
AcDbDictionary
281
     1
  0
DICTIONARY
  5
62
102
{ACAD_REACTORS
330
C
102
}
330
C
100
AcDbDictionary
281
     1
  3
Layout1
350
6B
  3
Layout2
350
73
  3
Model
350
6F
  0
DICTIONARY
  5
10
102
{ACAD_REACTORS
330
C
102
}
330
C
100
AcDbDictionary
281
     1
  3
ByBlock
350
19
  3
ByLayer
350
11
  3
Global
350
21
  0
DICTIONARY
  5
66
102
{ACAD_REACTORS
330
C
102
}
330
C
100
AcDbDictionary
281
     1
  3
Standard
350
67
  0
DICTIONARY
  5
5F
102
{ACAD_REACTORS
330
C
102
}
330
C
100
AcDbDictionary
281
     1
  3
Standard
350
60
  0
DICTIONARY
  5
61
102
{ACAD_REACTORS
330
C
102
}
330
C
100
AcDbDictionary
281
     1
  0
ACDBDICTIONARYWDFLT
  5
E
102
{ACAD_REACTORS
330
C
102
}
330
C
100
AcDbDictionary
281
     1
  3
Normal
350
F
100
AcDbDictionaryWithDefault
340
F
  0
DICTIONARY
  5
42
102
{ACAD_REACTORS
330
C
102
}
330
C
100
AcDbDictionary
281
     1
  3
A0
350
43
  3
A1
350
44
  3
A2
350
45
  3
A3
350
46
  3
A4
350
47
  3
A5
350
48
  3
A6
350
49
  3
A7
350
4A
  3
A8
350
4B
  3
A9
350
4C
  3
B0
350
4D
  3
B1
350
4E
  3
B2
350
4F
  3
B3
350
50
  3
B4
350
51
  3
B5
350
52
  3
B6
350
53
  0
DICTIONARY
  5
64
102
{ACAD_REACTORS
330
C
102
}
330
C
100
AcDbDictionary
281
     1
  3
Standard
350
65
  0
DICTIONARY
  5
29
102
{ACAD_REACTORS
330
C
102
}
330
C
100
AcDbDictionary
281
     1
  3
2dWireframe
350
2F
  3
3dWireframe
350
22EE4
  3
Basic
350
2E
  3
Brighten
350
35
  3
ColorChange
350
39
  3
Conceptual
350
32
  3
Dim
350
34
  3
EdgeColorOff
350
41
  3
Facepattern
350
38
  3
Flat
350
2A
  3
FlatWithEdges
350
2B
  3
Gouraud
350
2C
  3
GouraudWithEdges
350
2D
  3
Hidden
350
31
  3
JitterOff
350
3F
  3
Linepattern
350
37
  3
OverhangOff
350
40
  3
Realistic
350
33
  3
Shaded
350
3E
  3
Shaded with edges
350
3D
  3
Shades of Gray
350
3A
  3
Sketchy
350
3B
  3
Thicken
350
36
  3
Wireframe
350
30
  3
X-Ray
350
3C
  0
XRECORD
  5
22AF8B
102
{ACAD_REACTORS
330
C
102
}
330
C
100
AcDbXrecord
280
     1
 90
        1
330
65
  0
DICTIONARY
  5
22DB7
102
{ACAD_REACTORS
330
C
102
}
330
C
100
AcDbDictionary
281
     1
  3
CANNOSCALE
350
22DBA
  3
CMLEADERSTYLE
350
22DB9
  3
CTABLESTYLE
350
22DB8
  3
DIMASSOC
350
229D71
  3
HIDETEXT
350
229D70
  3
HPORIGIN
350
7A31F
  3
INDEXCTL
350
229D6F
  3
LAYEREVAL
350
229D6C
  3
LAYERNOTIFY
350
229D6D
  3
LIGHTINGUNITS
350
229D6B
  3
MSLTSCALE
350
229D6A
  3
SORTENTS
350
229D6E
  3
XCLIPFRAME
350
22AF89
  0
DICTIONARY
  5
22E11
102
{ACAD_REACTORS
330
C
102
}
330
C
100
AcDbDictionary
281
     1
  3
AcmStdDictionary
350
22E1C
  0
DICTIONARY
  5
22DC3
102
{ACAD_REACTORS
330
C
102
}
330
C
100
AcDbDictionary
281
     1
  0
DICTIONARY
  5
22E52
102
{ACAD_REACTORS
330
C
102
}
330
C
100
AcDbDictionary
281
     1
  0
XRECORD
  5
22AF8C
102
{ACAD_REACTORS
330
C
102
}
330
C
100
AcDbXrecord
280
     1
  1
DWGPROPS COOKIE
  2

  3

  4
Daniel Mazur
  6

  7

  8
Jumpo
  9

300
Menadżer=
301
Firma=
302
Kategoria=
303
Numer części=
304
Opis=
305
Projekt=
306
Projektant=Daniel Mazur
307
Inżynier=
308
Zatwierdził=
309
Centrum kosztów=
 40
1.085121701388888
 41
2458022.861501852
 42
2458667.565199085
  1

 90
       16
300
Dostawca=
300
Stan użytkownika=
300
Stan projektu=PracaWToku
300
Sprawdził=
300
Zatwierdził konstrukcję=
300
Zatwierdził do produkcji=
  0
DICTIONARY
  5
22E5E
102
{ACAD_REACTORS
330
22E5D
102
}
330
22E5D
100
AcDbDictionary
281
     1
  0
DICTIONARY
  5
79095
102
{ACAD_REACTORS
330
22E5D
102
}
330
22E5D
100
AcDbDictionary
280
     1
281
     1
  0
SORTENTSTABLE
  5
2D66A
102
{ACAD_REACTORS
330
2D669
102
}
330
2D669
100
AcDbSortentsTable
330
6C
331
22AF68
  5
22AF67
331
221CD4
  5
221CD4
331
22AF64
  5
22AF6A
331
221C95
  5
221C95
331
221CD0
  5
221CD0
331
221C91
  5
221C91
331
221CCC
  5
221CCC
331
221C8D
  5
221C8D
331
221D03
  5
221D03
331
221CC8
  5
221CC8
331
221C89
  5
221C89
331
221C5C
  5
221C5C
331
221C1D
  5
221C1D
331
221C58
  5
221C58
331
221C19
  5
221C19
331
221C54
  5
221C54
331
221C15
  5
221C15
331
221C50
  5
221C50
331
221CC4
  5
221CC4
331
221CC0
  5
221CC0
331
221CFF
  5
221CFF
331
221CBC
  5
221CBC
331
221CFB
  5
221CFB
331
221CB8
  5
221CB8
331
221C4C
  5
221C4C
331
221C48
  5
221C48
331
221C87
  5
221C87
331
221C44
  5
221C44
331
221C83
  5
221C83
331
221C40
  5
221C40
331
221CF7
  5
221CF7
331
221CB4
  5
221CB4
331
221CF3
  5
221CF3
331
221CB0
  5
221CB0
331
221CEF
  5
221CEF
331
221CAC
  5
221CAC
331
221CEB
  5
221CEB
331
221CA8
  5
221CA8
331
221C7F
  5
221C7F
331
221C3C
  5
221C3C
331
221C7B
  5
221C7B
331
221C38
  5
221C38
331
221C77
  5
221C77
331
221C34
  5
221C34
331
221C73
  5
221C73
331
221C30
  5
221C30
331
22AA6F
  5
22A559
331
22AA6B
  5
229F70
331
229B06
  5
229B0A
331
221CE7
  5
221CE7
331
221CA4
  5
221CA4
331
221CE3
  5
221CE3
331
221CA0
  5
221CA0
331
221CDF
  5
221CDF
331
229AFA
  5
229AFD
331
221C9C
  5
221C9C
331
221CDB
  5
221CDB
331
221C98
  5
221C98
331
221C6F
  5
221C6F
331
221C2C
  5
221C2C
331
221C6B
  5
221C6B
331
221C28
  5
221C28
331
221C67
  5
221C67
331
221C24
  5
221C24
331
221C63
  5
221C63
331
221C20
  5
221C20
331
22AF67
  5
22AF66
331
229AEE
  5
229AEE
331
221CD7
  5
221CD7
331
221C94
  5
221C94
331
221CD3
  5
221CD3
331
221C90
  5
221C90
331
221CCF
  5
221CCF
331
221D02
  5
221D02
331
221C8C
  5
221C8C
331
221CCB
  5
221CCB
331
221C88
  5
221C88
331
221C5F
  5
221C5F
331
221C1C
  5
221C1C
331
221C5B
  5
221C5B
331
221C18
  5
221C18
331
221C57
  5
221C57
331
221C14
  5
221C14
331
221C53
  5
221C53
331
221CC7
  5
221CC7
331
221CC3
  5
221CC3
331
221CFE
  5
221CFE
331
221CBF
  5
221CBF
331
221CFA
  5
221CFA
331
221CBB
  5
221CBB
331
221C4F
  5
221C4F
331
221C4B
  5
221C4B
331
221C86
  5
221C86
331
221C47
  5
221C47
331
221C82
  5
221C82
331
221C43
  5
221C43
331
221CF6
  5
221CF6
331
221CB7
  5
221CB7
331
221CF2
  5
221CF2
331
221CB3
  5
221CB3
331
221CEE
  5
221CEE
331
221CAF
  5
221CAF
331
229B11
  5
229CF0
331
221CEA
  5
221CEA
331
221CAB
  5
221CAB
331
221C7E
  5
221C7E
331
221C3F
  5
221C3F
331
221C7A
  5
221C7A
331
221C3B
  5
221C3B
331
221C76
  5
221C76
331
221C37
  5
221C37
331
221C72
  5
221C72
331
221C33
  5
221C33
331
22AA6E
  5
22A554
331
22AA6A
  5
22A553
331
229B05
  5
229B09
331
221CE6
  5
221CE6
331
221CA7
  5
221CA7
331
221CE2
  5
221CE2
331
221CA3
  5
221CA3
331
221CDE
  5
221CDE
331
221C9F
  5
221C9F
331
221CDA
  5
221CDA
331
221C9B
  5
221C9B
331
221C6E
  5
221C6E
331
221C2F
  5
221C2F
331
221C6A
  5
221C6A
331
221C2B
  5
221C2B
331
221C66
  5
221C66
331
221C27
  5
221C27
331
221C62
  5
221C62
331
221C23
  5
221C23
331
22AF6A
  5
22AF69
331
229AED
  5
229AED
331
221CD6
  5
221CD6
331
221C97
  5
221C97
331
221CD2
  5
221CD2
331
221C93
  5
221C93
331
221CCE
  5
221CCE
331
221C8F
  5
221C8F
331
221D01
  5
221D01
331
221CCA
  5
221CCA
331
221C8B
  5
221C8B
331
221C5E
  5
221C5E
331
221C1F
  5
221C1F
331
221C5A
  5
221C5A
331
221C1B
  5
221C1B
331
221C56
  5
221C56
331
221C17
  5
221C17
331
221C52
  5
221C52
331
221C13
  5
221C13
331
221CC6
  5
221CC6
331
221CC2
  5
221CC2
331
221CFD
  5
221CFD
331
221CBE
  5
221CBE
331
221CF9
  5
221CF9
331
221CBA
  5
221CBA
331
221C4E
  5
221C4E
331
221C4A
  5
221C4A
331
221C85
  5
221C85
331
221C46
  5
221C46
331
221C81
  5
221C81
331
221C42
  5
221C42
331
22AA71
  5
229F77
331
221CF5
  5
221CF5
331
221CB6
  5
221CB6
331
221CF1
  5
221CF1
331
221CB2
  5
221CB2
331
221CED
  5
221CED
331
221CAE
  5
221CAE
331
221CE9
  5
221CE9
331
221CAA
  5
221CAA
331
221C7D
  5
221C7D
331
221C3E
  5
221C3E
331
221C79
  5
221C79
331
221C3A
  5
221C3A
331
221C75
  5
221C75
331
221C36
  5
221C36
331
221C71
  5
221C71
331
221C32
  5
221C32
331
22AA69
  5
22A556
331
221CE5
  5
221CE5
331
221CA6
  5
221CA6
331
221CE1
  5
221CE1
331
221CA2
  5
221CA2
331
221CDD
  5
221CDD
331
221C9E
  5
221C9E
331
229AF8
  5
229AF8
331
221CD9
  5
221CD9
331
221C9A
  5
221C9A
331
221C6D
  5
221C6D
331
221C2E
  5
221C2E
331
221C69
  5
221C69
331
221C2A
  5
221C2A
331
221C65
  5
221C65
331
221C26
  5
221C26
331
221C61
  5
221C61
331
221C22
  5
221C22
331
22AF69
  5
22AF68
331
221CD5
  5
221CD5
331
221C96
  5
221C96
331
221CD1
  5
221CD1
331
221C92
  5
221C92
331
221CCD
  5
221CCD
331
221C8E
  5
221C8E
331
221D00
  5
221D00
331
221CC9
  5
221CC9
331
221C8A
  5
221C8A
331
221C5D
  5
221C5D
331
221C1E
  5
221C1E
331
221C59
  5
221C59
331
221C1A
  5
221C1A
331
221C55
  5
221C55
331
221C16
  5
221C16
331
221C51
  5
221C51
331
221C12
  5
221C12
331
221CC5
  5
221CC5
331
221CC1
  5
221CC1
331
221CFC
  5
221CFC
331
221CBD
  5
221CBD
331
221CF8
  5
221CF8
331
221CB9
  5
221CB9
331
221C4D
  5
221C4D
331
221C49
  5
221C49
331
221C84
  5
221C84
331
221C45
  5
221C45
331
221C80
  5
221C80
331
221C41
  5
221C41
331
22AA70
  5
229F78
331
221CF4
  5
221CF4
331
221CB5
  5
221CB5
331
221CF0
  5
221CF0
331
221CB1
  5
221CB1
331
229B13
  5
229E69
331
221CEC
  5
221CEC
331
221CAD
  5
221CAD
331
221CE8
  5
221CE8
331
221CA9
  5
221CA9
331
221C7C
  5
221C7C
331
221C3D
  5
221C3D
331
221C78
  5
221C78
331
221C39
  5
221C39
331
221C74
  5
221C74
331
221C35
  5
221C35
331
221C70
  5
221C70
331
221C31
  5
221C31
331
22AA6C
  5
22A558
331
221CE4
  5
221CE4
331
221CA5
  5
221CA5
331
221CE0
  5
221CE0
331
221CA1
  5
221CA1
331
221CDC
  5
221CDC
331
221C9D
  5
221C9D
331
221CD8
  5
221CD8
331
221C99
  5
221C99
331
221C6C
  5
221C6C
331
221C2D
  5
221C2D
331
221C68
  5
221C68
331
221C29
  5
221C29
331
221C64
  5
221C64
331
221C25
  5
221C25
331
221C60
  5
221C60
331
221C21
  5
221C21
  0
SORTENTSTABLE
  5
22A02A
102
{ACAD_REACTORS
330
22A029
102
}
330
22A029
100
AcDbSortentsTable
330
22A028
  0
XRECORD
  5
22AF8E
102
{ACAD_REACTORS
330
22AF8D
102
}
330
22AF8D
100
AcDbXrecord
280
     1
 70
     1
  0
XRECORD
  5
22AF90
102
{ACAD_REACTORS
330
22AF8D
102
}
330
22AF8D
100
AcDbXrecord
280
     1
340
5B
  0
XRECORD
  5
22AF91
102
{ACAD_REACTORS
330
22AF8D
102
}
330
22AF8D
100
AcDbXrecord
280
     1
340
5B
  0
XRECORD
  5
22AF8F
102
{ACAD_REACTORS
330
22AF8D
102
}
330
22AF8D
100
AcDbXrecord
280
     1
340
5B
  0
LAYOUT
  5
6B
102
{ACAD_XDICTIONARY
360
22AFC3
102
}
102
{ACAD_REACTORS
330
62
102
}
330
62
100
AcDbPlotSettings
  1

  2

  4

  6

 40
0.0
 41
0.0
 42
0.0
 43
0.0
 44
0.0
 45
0.0
 46
0.0
 47
0.0
 48
0.0
 49
0.0
140
0.0
141
0.0
142
1.0
143
1.0
 70
   688
 72
     0
 73
     0
 74
     5
  7
monochrome.ctb
 75
    16
147
1.0
148
0.0
149
0.0
100
AcDbLayout
  1
Layout1
 70
     1
 71
     1
 10
0.0
 20
0.0
 11
420.0
 21
297.0
 12
0.0
 22
0.0
 32
0.0
 14
0.0
 24
0.0
 34
0.0
 15
420.0
 25
297.0
 35
0.0
146
0.0
 13
0.0
 23
0.0
 33
0.0
 16
1.0
 26
0.0
 36
0.0
 17
0.0
 27
1.0
 37
0.0
 76
     0
330
68
  0
LAYOUT
  5
73
102
{ACAD_XDICTIONARY
360
22AFC6
102
}
102
{ACAD_REACTORS
330
62
102
}
330
62
100
AcDbPlotSettings
  1

  2

  4

  6

 40
0.0
 41
0.0
 42
0.0
 43
0.0
 44
0.0
 45
0.0
 46
0.0
 47
0.0
 48
0.0
 49
0.0
140
0.0
141
0.0
142
1.0
143
1.0
 70
   688
 72
     0
 73
     0
 74
     5
  7
monochrome.ctb
 75
    16
147
1.0
148
0.0
149
0.0
100
AcDbLayout
  1
Layout2
 70
     1
 71
     2
 10
0.0
 20
0.0
 11
12.0
 21
9.0
 12
0.0
 22
0.0
 32
0.0
 14
0.0
 24
0.0
 34
0.0
 15
0.0
 25
0.0
 35
0.0
146
0.0
 13
0.0
 23
0.0
 33
0.0
 16
1.0
 26
0.0
 36
0.0
 17
0.0
 27
1.0
 37
0.0
 76
     0
330
70
  0
LAYOUT
  5
6F
102
{ACAD_XDICTIONARY
360
22E63
102
}
102
{ACAD_REACTORS
330
62
102
}
330
62
100
AcDbPlotSettings
  1

  2
PDFCreator
  4
A4
  6

 40
3.174999952316282
 41
3.174999952316282
 42
3.175003051757812
 43
3.17498779296875
 44
209.8886566162109
 45
297.0530090332031
 46
0.0
 47
0.0
 48
0.0
 49
0.0
140
0.0
141
0.0
142
1.0
143
44.55739079110222
 70
 11952
 72
     1
 73
     1
 74
     0
  7
monochrome.ctb
 75
     0
147
0.022442965852473
148
3615.822218811902
149
2375.763017350619
100
AcDbLayout
  1
Model
 70
     1
 71
     0
 10
0.0
 20
0.0
 11
12.0
 21
9.0
 12
0.0
 22
0.0
 32
0.0
 14
0.0
 24
0.0
 34
0.0
 15
0.0
 25
0.0
 35
0.0
146
0.0
 13
0.0
 23
0.0
 33
0.0
 16
1.0
 26
0.0
 36
0.0
 17
0.0
 27
1.0
 37
0.0
 76
     0
330
6C
331
57
1001
ACAD_PSEXT
1000
PDFCreator
1000
PDFCreator
1000
pdfcmon
1000
PDFCreator Printer
1070
     0
  0
MATERIAL
  5
19
102
{ACAD_XDICTIONARY
360
1A
102
}
102
{ACAD_REACTORS
330
10
102
}
330
10
100
AcDbMaterial
  1
ByBlock
 72
     0
 43
0.0208333333333333
 43
0.0
 43
0.0
 43
0.0
 43
0.0
 43
0.0208333333333333
 43
0.0
 43
0.0
 43
0.0
 43
0.0
 43
1.0
 43
0.0
 43
0.0
 43
0.0
 43
0.0
 43
1.0
 77
     0
 47
0.0208333333333333
 47
0.0
 47
0.0
 47
0.0
 47
0.0
 47
0.0208333333333333
 47
0.0
 47
0.0
 47
0.0
 47
0.0
 47
1.0
 47
0.0
 47
0.0
 47
0.0
 47
0.0
 47
1.0
171
     0
 49
0.0208333333333333
 49
0.0
 49
0.0
 49
0.0
 49
0.0
 49
0.0208333333333333
 49
0.0
 49
0.0
 49
0.0
 49
0.0
 49
1.0
 49
0.0
 49
0.0
 49
0.0
 49
0.0
 49
1.0
175
     0
142
0.0208333333333333
142
0.0
142
0.0
142
0.0
142
0.0
142
0.0208333333333333
142
0.0
142
0.0
142
0.0
142
0.0
142
1.0
142
0.0
142
0.0
142
0.0
142
0.0
142
1.0
179
     0
144
0.0208333333333333
144
0.0
144
0.0
144
0.0
144
0.0
144
0.0208333333333333
144
0.0
144
0.0
144
0.0
144
0.0
144
1.0
144
0.0
144
0.0
144
0.0
144
0.0
144
1.0
147
0.0208333333333333
147
0.0
147
0.0
147
0.0
147
0.0
147
0.0208333333333333
147
0.0
147
0.0
147
0.0
147
0.0
147
1.0
147
0.0
147
0.0
147
0.0
147
0.0
147
1.0
  0
MATERIAL
  5
11
102
{ACAD_XDICTIONARY
360
12
102
}
102
{ACAD_REACTORS
330
10
102
}
330
10
100
AcDbMaterial
  1
ByLayer
 72
     0
 43
0.0208333333333333
 43
0.0
 43
0.0
 43
0.0
 43
0.0
 43
0.0208333333333333
 43
0.0
 43
0.0
 43
0.0
 43
0.0
 43
1.0
 43
0.0
 43
0.0
 43
0.0
 43
0.0
 43
1.0
 77
     0
 47
0.0208333333333333
 47
0.0
 47
0.0
 47
0.0
 47
0.0
 47
0.0208333333333333
 47
0.0
 47
0.0
 47
0.0
 47
0.0
 47
1.0
 47
0.0
 47
0.0
 47
0.0
 47
0.0
 47
1.0
171
     0
 49
0.0208333333333333
 49
0.0
 49
0.0
 49
0.0
 49
0.0
 49
0.0208333333333333
 49
0.0
 49
0.0
 49
0.0
 49
0.0
 49
1.0
 49
0.0
 49
0.0
 49
0.0
 49
0.0
 49
1.0
175
     0
142
0.0208333333333333
142
0.0
142
0.0
142
0.0
142
0.0
142
0.0208333333333333
142
0.0
142
0.0
142
0.0
142
0.0
142
1.0
142
0.0
142
0.0
142
0.0
142
0.0
142
1.0
179
     0
144
0.0208333333333333
144
0.0
144
0.0
144
0.0
144
0.0
144
0.0208333333333333
144
0.0
144
0.0
144
0.0
144
0.0
144
1.0
144
0.0
144
0.0
144
0.0
144
0.0
144
1.0
147
0.0208333333333333
147
0.0
147
0.0
147
0.0
147
0.0
147
0.0208333333333333
147
0.0
147
0.0
147
0.0
147
0.0
147
1.0
147
0.0
147
0.0
147
0.0
147
0.0
147
1.0
  0
MATERIAL
  5
21
102
{ACAD_XDICTIONARY
360
22
102
}
102
{ACAD_REACTORS
330
10
102
}
330
10
100
AcDbMaterial
  1
Global
 72
     0
 43
0.0208333333333333
 43
0.0
 43
0.0
 43
0.0
 43
0.0
 43
0.0208333333333333
 43
0.0
 43
0.0
 43
0.0
 43
0.0
 43
1.0
 43
0.0
 43
0.0
 43
0.0
 43
0.0
 43
1.0
 77
     0
 47
0.0208333333333333
 47
0.0
 47
0.0
 47
0.0
 47
0.0
 47
0.0208333333333333
 47
0.0
 47
0.0
 47
0.0
 47
0.0
 47
1.0
 47
0.0
 47
0.0
 47
0.0
 47
0.0
 47
1.0
171
     0
 49
0.0208333333333333
 49
0.0
 49
0.0
 49
0.0
 49
0.0
 49
0.0208333333333333
 49
0.0
 49
0.0
 49
0.0
 49
0.0
 49
1.0
 49
0.0
 49
0.0
 49
0.0
 49
0.0
 49
1.0
175
     0
142
0.0208333333333333
142
0.0
142
0.0
142
0.0
142
0.0
142
0.0208333333333333
142
0.0
142
0.0
142
0.0
142
0.0
142
1.0
142
0.0
142
0.0
142
0.0
142
0.0
142
1.0
179
     0
144
0.0208333333333333
144
0.0
144
0.0
144
0.0
144
0.0
144
0.0208333333333333
144
0.0
144
0.0
144
0.0
144
0.0
144
1.0
144
0.0
144
0.0
144
0.0
144
0.0
144
1.0
147
0.0208333333333333
147
0.0
147
0.0
147
0.0
147
0.0
147
0.0208333333333333
147
0.0
147
0.0
147
0.0
147
0.0
147
1.0
147
0.0
147
0.0
147
0.0
147
0.0
147
1.0
  0
MLEADERSTYLE
  5
67
102
{ACAD_REACTORS
330
66
102
}
330
66
100
AcDbMLeaderStyle
170
     2
171
     1
172
     0
 90
        2
 40
0.0
 41
0.0
173
     1
 91
-1056964608
340
5B
 92
       -2
290
     1
 42
0.09
291
     1
 43
0.36
  3
Standard
 44
0.18
300

342
55
174
     1
178
     6
175
     1
176
     0
 93
-1056964608
 45
0.18
292
     0
297
     0
 46
0.18
 94
-1056964608
 47
1.0
 49
1.0
140
1.0
293
     1
141
0.0
294
     1
177
     0
142
1.0
295
     0
296
     0
143
0.125
1001
ACAD_MLEADERVER
1070
     2
  0
MLINESTYLE
  5
60
102
{ACAD_REACTORS
330
5F
102
}
330
5F
100
AcDbMlineStyle
  2
STANDARD
 70
     0
  3

 62
   256
 51
90.0
 52
90.0
 71
     2
 49
0.5
 62
   256
  6
BYLAYER
 49
-0.5
 62
   256
  6
BYLAYER
  0
ACDBPLACEHOLDER
  5
F
102
{ACAD_REACTORS
330
E
102
}
330
E
  0
SCALE
  5
43
102
{ACAD_REACTORS
330
42
102
}
330
42
100
AcDbScale
 70
     0
300
1:1
140
1.0
141
1.0
290
     1
  0
SCALE
  5
44
102
{ACAD_REACTORS
330
42
102
}
330
42
100
AcDbScale
 70
     0
300
1/128" = 1'-0"
140
0.0078125
141
12.0
290
     0
  0
SCALE
  5
45
102
{ACAD_REACTORS
330
42
102
}
330
42
100
AcDbScale
 70
     0
300
1/64" = 1'-0"
140
0.015625
141
12.0
290
     0
  0
SCALE
  5
46
102
{ACAD_REACTORS
330
42
102
}
330
42
100
AcDbScale
 70
     0
300
1/32" = 1'-0"
140
0.03125
141
12.0
290
     0
  0
SCALE
  5
47
102
{ACAD_REACTORS
330
42
102
}
330
42
100
AcDbScale
 70
     0
300
1/16" = 1'-0"
140
0.0625
141
12.0
290
     0
  0
SCALE
  5
48
102
{ACAD_REACTORS
330
42
102
}
330
42
100
AcDbScale
 70
     0
300
3/32" = 1'-0"
140
0.09375
141
12.0
290
     0
  0
SCALE
  5
49
102
{ACAD_REACTORS
330
42
102
}
330
42
100
AcDbScale
 70
     0
300
1/8" = 1'-0"
140
0.125
141
12.0
290
     0
  0
SCALE
  5
4A
102
{ACAD_REACTORS
330
42
102
}
330
42
100
AcDbScale
 70
     0
300
3/16" = 1'-0"
140
0.1875
141
12.0
290
     0
  0
SCALE
  5
4B
102
{ACAD_REACTORS
330
42
102
}
330
42
100
AcDbScale
 70
     0
300
1/4" = 1'-0"
140
0.25
141
12.0
290
     0
  0
SCALE
  5
4C
102
{ACAD_REACTORS
330
42
102
}
330
42
100
AcDbScale
 70
     0
300
3/8" = 1'-0"
140
0.375
141
12.0
290
     0
  0
SCALE
  5
4D
102
{ACAD_REACTORS
330
42
102
}
330
42
100
AcDbScale
 70
     0
300
1/2" = 1'-0"
140
0.5
141
12.0
290
     0
  0
SCALE
  5
4E
102
{ACAD_REACTORS
330
42
102
}
330
42
100
AcDbScale
 70
     0
300
3/4" = 1'-0"
140
0.75
141
12.0
290
     0
  0
SCALE
  5
4F
102
{ACAD_REACTORS
330
42
102
}
330
42
100
AcDbScale
 70
     0
300
1" = 1'-0"
140
1.0
141
12.0
290
     0
  0
SCALE
  5
50
102
{ACAD_REACTORS
330
42
102
}
330
42
100
AcDbScale
 70
     0
300
1-1/2" = 1'-0"
140
1.5
141
12.0
290
     0
  0
SCALE
  5
51
102
{ACAD_REACTORS
330
42
102
}
330
42
100
AcDbScale
 70
     0
300
3" = 1'-0"
140
3.0
141
12.0
290
     0
  0
SCALE
  5
52
102
{ACAD_REACTORS
330
42
102
}
330
42
100
AcDbScale
 70
     0
300
6" = 1'-0"
140
6.0
141
12.0
290
     0
  0
SCALE
  5
53
102
{ACAD_REACTORS
330
42
102
}
330
42
100
AcDbScale
 70
     0
300
1'-0" = 1'-0"
140
12.0
141
12.0
290
     0
  0
TABLESTYLE
  5
65
102
{ACAD_XDICTIONARY
360
229D73
102
}
102
{ACAD_REACTORS
330
64
102
}
330
64
100
AcDbTableStyle
  3
Standard
 70
     0
 71
     0
 40
0.06
 41
0.06
280
     0
281
     0
  7
Standard
140
0.18
170
     2
 62
     0
 63
     7
283
     0
274
    -2
284
     1
 64
     0
275
    -2
285
     1
 65
     0
276
    -2
286
     1
 66
     0
277
    -2
287
     1
 67
     0
278
    -2
288
     1
 68
     0
279
    -2
289
     1
 69
     0
  7
Standard
140
0.25
170
     5
 62
     0
 63
     7
283
     0
274
    -2
284
     1
 64
     0
275
    -2
285
     1
 65
     0
276
    -2
286
     1
 66
     0
277
    -2
287
     1
 67
     0
278
    -2
288
     1
 68
     0
279
    -2
289
     1
 69
     0
  7
Standard
140
0.18
170
     5
 62
     0
 63
     7
283
     0
274
    -2
284
     1
 64
     0
275
    -2
285
     1
 65
     0
276
    -2
286
     1
 66
     0
277
    -2
287
     1
 67
     0
278
    -2
288
     1
 68
     0
279
    -2
289
     1
 69
     0
  0
VISUALSTYLE
  5
2F
102
{ACAD_XDICTIONARY
360
22AF9C
102
}
102
{ACAD_REACTORS
330
29
102
}
330
29
100
AcDbVisualStyle
  2

 70
     4
 71
     0
 72
     2
 73
     0
 90
        0
 40
-0.6
 41
-30.0
 62
     5
 63
     7
 74
     1
 91
        4
 64
     7
 65
   257
 75
     1
175
     1
 42
1.0
 92
        0
 66
   257
 43
1.0
 76
     1
 77
     6
 78
     2
 67
     7
 79
     5
170
     0
171
     0
290
     0
174
     0
 93
        1
 44
0.0
173
     0
291
     0
 45
0.0
1001
ACAD
1000
AcDbSavedByObjectVersion
1070
     0
  0
VISUALSTYLE
  5
22EE4
102
{ACAD_XDICTIONARY
360
22AFC8
102
}
102
{ACAD_REACTORS
330
29
102
}
330
29
100
AcDbVisualStyle
  2

 70
     5
 71
     0
 72
     2
 73
     1
 90
        0
 40
-0.6
 41
-30.0
 62
     5
 63
     7
 74
     1
 91
        4
 64
     7
 65
   257
 75
     1
175
     1
 42
1.0
 92
        0
 66
   257
 43
1.0
 76
     1
 77
     6
 78
     2
 67
     7
 79
     5
170
     0
171
     0
290
     0
174
     0
 93
        1
 44
0.0
173
     0
291
     0
 45
0.0
1001
ACAD
1000
AcDbSavedByObjectVersion
1070
     0
  0
VISUALSTYLE
  5
2E
102
{ACAD_XDICTIONARY
360
22AF9A
102
}
102
{ACAD_REACTORS
330
29
102
}
330
29
100
AcDbVisualStyle
  2

 70
     7
 71
     1
 72
     0
 73
     1
 90
        0
 40
-0.6
 41
-30.0
 62
     5
 63
     7
 74
     0
 91
        4
 64
     7
 65
   257
 75
     1
175
     1
 42
1.0
 92
        8
 66
     7
 43
1.0
 76
     1
 77
     6
 78
     2
 67
     7
 79
     5
170
     0
171
     0
290
     0
174
     0
 93
        1
 44
0.0
173
     0
291
     1
 45
0.0
1001
ACAD
1000
AcDbSavedByObjectVersion
1070
     0
  0
VISUALSTYLE
  5
35
102
{ACAD_XDICTIONARY
360
22AFA8
102
}
102
{ACAD_REACTORS
330
29
102
}
330
29
100
AcDbVisualStyle
  2

 70
    12
 71
     2
 72
     2
 73
     0
 90
        0
 40
-0.6
 41
-30.0
 62
     5
 63
     7
 74
     1
 91
        4
 64
     7
 65
   257
 75
     1
175
     1
 42
1.0
 92
        8
 66
     7
 43
1.0
 76
     1
 77
     6
 78
     2
 67
     7
 79
     5
170
     0
171
     0
290
     0
174
     0
 93
        1
 44
50.0
173
     0
291
     1
 45
0.0
1001
ACAD
1000
AcDbSavedByObjectVersion
1070
     0
  0
VISUALSTYLE
  5
39
102
{ACAD_XDICTIONARY
360
22AFB0
102
}
102
{ACAD_REACTORS
330
29
102
}
330
29
100
AcDbVisualStyle
  2

 70
    16
 71
     2
 72
     2
 73
     3
 90
        0
 40
-0.6
 41
-30.0
 62
     5
 63
     8
 74
     1
 91
        4
 64
     7
 65
   257
 75
     1
175
     1
 42
1.0
 92
        8
 66
     8
 43
1.0
 76
     1
 77
     6
 78
     2
 67
     7
 79
     5
170
     0
171
     0
290
     0
174
     0
 93
        1
 44
0.0
173
     0
291
     1
 45
0.0
1001
ACAD
1000
AcDbSavedByObjectVersion
1070
     0
  0
VISUALSTYLE
  5
32
102
{ACAD_XDICTIONARY
360
22AFA2
102
}
102
{ACAD_REACTORS
330
29
102
}
330
29
100
AcDbVisualStyle
  2

 70
     9
 71
     3
 72
     2
 73
     0
 90
        0
 40
-0.6
 41
-30.0
 62
     5
 63
     7
 74
     2
 91
        2
 64
     7
 65
   257
 75
     1
175
     1
 42
179.0
 92
        8
 66
     7
 43
1.0
 76
     1
 77
     6
 78
     2
 67
     7
 79
     3
170
     0
171
     0
290
     0
174
     0
 93
        1
 44
0.0
173
     0
291
     0
 45
0.0
1001
ACAD
1000
AcDbSavedByObjectVersion
1070
     0
  0
VISUALSTYLE
  5
34
102
{ACAD_XDICTIONARY
360
22AFA6
102
}
102
{ACAD_REACTORS
330
29
102
}
330
29
100
AcDbVisualStyle
  2

 70
    11
 71
     2
 72
     2
 73
     0
 90
        0
 40
-0.6
 41
-30.0
 62
     5
 63
     7
 74
     1
 91
        4
 64
     7
 65
   257
 75
     1
175
     1
 42
1.0
 92
        8
 66
     7
 43
1.0
 76
     1
 77
     6
 78
     2
 67
     7
 79
     5
170
     0
171
     0
290
     0
174
     0
 93
        1
 44
-50.0
173
     0
291
     1
 45
0.0
1001
ACAD
1000
AcDbSavedByObjectVersion
1070
     0
  0
VISUALSTYLE
  5
41
102
{ACAD_XDICTIONARY
360
22AFC0
102
}
102
{ACAD_REACTORS
330
29
102
}
330
29
100
AcDbVisualStyle
  2

 70
    22
 71
     2
 72
     2
 73
     0
 90
        0
 40
-0.6
 41
-30.0
 62
     5
 63
     7
 74
     1
 91
        4
 64
     7
 65
   257
 75
     1
175
     1
 42
1.0
 92
        8
 66
     7
 43
1.0
 76
     1
 77
     6
 78
     2
 67
     7
 79
     5
170
     0
171
     0
290
     0
174
     0
 93
        1
 44
0.0
173
     0
291
     1
 45
0.0
1001
ACAD
1000
AcDbSavedByObjectVersion
1070
     0
  0
VISUALSTYLE
  5
38
102
{ACAD_XDICTIONARY
360
22AFAE
102
}
102
{ACAD_REACTORS
330
29
102
}
330
29
100
AcDbVisualStyle
  2

 70
    15
 71
     2
 72
     2
 73
     0
 90
        0
 40
-0.6
 41
-30.0
 62
     5
 63
     7
 74
     1
 91
        4
 64
     7
 65
   257
 75
     1
175
     1
 42
1.0
 92
        8
 66
     7
 43
1.0
 76
     1
 77
     6
 78
     2
 67
     7
 79
     5
170
     0
171
     0
290
     0
174
     0
 93
        1
 44
0.0
173
     0
291
     1
 45
0.0
1001
ACAD
1000
AcDbSavedByObjectVersion
1070
     0
  0
VISUALSTYLE
  5
2A
102
{ACAD_XDICTIONARY
360
22AF92
102
}
102
{ACAD_REACTORS
330
29
102
}
330
29
100
AcDbVisualStyle
  2

 70
     0
 71
     2
 72
     1
 73
     1
 90
        2
 40
-0.6
 41
30.0
 62
     5
 63
     7
 74
     0
 91
        0
 64
     7
 65
   257
 75
     1
175
     1
 42
1.0
 92
        8
 66
     7
 43
1.0
 76
     1
 77
     6
 78
     2
 67
     7
 79
     5
170
     0
171
     0
290
     0
174
     0
 93
       13
 44
0.0
173
     0
291
     1
 45
0.0
1001
ACAD
1000
AcDbSavedByObjectVersion
1070
     0
  0
VISUALSTYLE
  5
2B
102
{ACAD_XDICTIONARY
360
22AF94
102
}
102
{ACAD_REACTORS
330
29
102
}
330
29
100
AcDbVisualStyle
  2

 70
     1
 71
     2
 72
     1
 73
     1
 90
        2
 40
-0.6
 41
30.0
 62
     5
 63
     7
 74
     1
 91
        0
 64
     7
 65
   257
 75
     1
175
     1
 42
1.0
 92
        0
 66
   257
 43
1.0
 76
     1
 77
     6
 78
     2
 67
     7
 79
     5
170
     0
171
     0
290
     0
174
     0
 93
       13
 44
0.0
173
     0
291
     1
 45
0.0
1001
ACAD
1000
AcDbSavedByObjectVersion
1070
     0
  0
VISUALSTYLE
  5
2C
102
{ACAD_XDICTIONARY
360
22AF96
102
}
102
{ACAD_REACTORS
330
29
102
}
330
29
100
AcDbVisualStyle
  2

 70
     2
 71
     2
 72
     2
 73
     1
 90
        2
 40
-0.6
 41
30.0
 62
     5
 63
     7
 74
     0
 91
        0
 64
     7
 65
   257
 75
     1
175
     1
 42
1.0
 92
        0
 66
     7
 43
1.0
 76
     1
 77
     6
 78
     2
 67
     7
 79
     5
170
     0
171
     0
290
     0
174
     0
 93
       13
 44
0.0
173
     0
291
     1
 45
0.0
1001
ACAD
1000
AcDbSavedByObjectVersion
1070
     0
  0
VISUALSTYLE
  5
2D
102
{ACAD_XDICTIONARY
360
22AF98
102
}
102
{ACAD_REACTORS
330
29
102
}
330
29
100
AcDbVisualStyle
  2

 70
     3
 71
     2
 72
     2
 73
     1
 90
        2
 40
-0.6
 41
30.0
 62
     5
 63
     7
 74
     1
 91
        0
 64
     7
 65
   257
 75
     1
175
     1
 42
1.0
 92
        0
 66
   257
 43
1.0
 76
     1
 77
     6
 78
     2
 67
     7
 79
     5
170
     0
171
     0
290
     0
174
     0
 93
       13
 44
0.0
173
     0
291
     1
 45
0.0
1001
ACAD
1000
AcDbSavedByObjectVersion
1070
     0
  0
VISUALSTYLE
  5
31
102
{ACAD_XDICTIONARY
360
22AFA0
102
}
102
{ACAD_REACTORS
330
29
102
}
330
29
100
AcDbVisualStyle
  2

 70
     6
 71
     1
 72
     2
 73
     2
 90
        0
 40
-0.6
 41
-30.0
 62
     5
 63
     7
 74
     2
 91
        2
 64
     7
 65
   257
 75
     2
175
     1
 42
40.0
 92
        0
 66
   257
 43
1.0
 76
     1
 77
     6
 78
     2
 67
     7
 79
     3
170
     0
171
     0
290
     0
174
     0
 93
        1
 44
0.0
173
     0
291
     0
 45
0.0
1001
ACAD
1000
AcDbSavedByObjectVersion
1070
     0
  0
VISUALSTYLE
  5
3F
102
{ACAD_XDICTIONARY
360
22AFBC
102
}
102
{ACAD_REACTORS
330
29
102
}
330
29
100
AcDbVisualStyle
  2

 70
    20
 71
     2
 72
     2
 73
     0
 90
        0
 40
-0.6
 41
-30.0
 62
     5
 63
     7
 74
     1
 91
        4
 64
     7
 65
   257
 75
     1
175
     1
 42
1.0
 92
       10
 66
     7
 43
1.0
 76
     1
 77
     6
 78
     2
 67
     7
 79
     5
170
     0
171
     0
290
     0
174
     0
 93
        1
 44
0.0
173
     0
291
     1
 45
0.0
1001
ACAD
1000
AcDbSavedByObjectVersion
1070
     0
  0
VISUALSTYLE
  5
37
102
{ACAD_XDICTIONARY
360
22AFAC
102
}
102
{ACAD_REACTORS
330
29
102
}
330
29
100
AcDbVisualStyle
  2

 70
    14
 71
     2
 72
     2
 73
     0
 90
        0
 40
-0.6
 41
-30.0
 62
     5
 63
     7
 74
     1
 91
        4
 64
     7
 65
   257
 75
     7
175
     7
 42
1.0
 92
        8
 66
     7
 43
1.0
 76
     1
 77
     6
 78
     2
 67
     7
 79
     5
170
     0
171
     0
290
     0
174
     0
 93
        1
 44
0.0
173
     0
291
     1
 45
0.0
1001
ACAD
1000
AcDbSavedByObjectVersion
1070
     0
  0
VISUALSTYLE
  5
40
102
{ACAD_XDICTIONARY
360
22AFBE
102
}
102
{ACAD_REACTORS
330
29
102
}
330
29
100
AcDbVisualStyle
  2

 70
    21
 71
     2
 72
     2
 73
     0
 90
        0
 40
-0.6
 41
-30.0
 62
     5
 63
     7
 74
     1
 91
        4
 64
     7
 65
   257
 75
     1
175
     1
 42
1.0
 92
        9
 66
     7
 43
1.0
 76
     1
 77
     6
 78
     2
 67
     7
 79
     5
170
     0
171
     0
290
     0
174
     0
 93
        1
 44
0.0
173
     0
291
     1
 45
0.0
1001
ACAD
1000
AcDbSavedByObjectVersion
1070
     0
  0
VISUALSTYLE
  5
33
102
{ACAD_XDICTIONARY
360
22AFA4
102
}
102
{ACAD_REACTORS
330
29
102
}
330
29
100
AcDbVisualStyle
  2

 70
     8
 71
     2
 72
     3
 73
     0
 90
        2
 40
-0.6
 41
30.0
 62
     5
 63
     7
 74
     0
 91
        0
 64
     7
 65
   257
 75
     1
175
     1
 42
1.0
 92
        8
 66
   257
 43
1.0
 76
     1
 77
     6
 78
     2
 67
     7
 79
     3
170
     0
171
     0
290
     0
174
     0
 93
       13
 44
0.0
173
     0
291
     0
 45
0.0
1001
ACAD
1000
AcDbSavedByObjectVersion
1070
     0
  0
VISUALSTYLE
  5
3E
102
{ACAD_XDICTIONARY
360
22AFBA
102
}
102
{ACAD_REACTORS
330
29
102
}
330
29
100
AcDbVisualStyle
  2

 70
    27
 71
     2
 72
     2
 73
     1
 90
        2
 40
-0.6
 41
30.0
 62
     5
 63
     7
 74
     0
 91
        4
 64
     7
 65
   257
 75
     1
175
     1
 42
1.0
 92
        8
 66
   257
 43
1.0
 76
     1
 77
     6
 78
     2
 67
     8
 79
     3
170
     0
171
     0
290
     0
174
     0
 93
        5
 44
0.0
173
     0
291
     0
 45
0.0
1001
ACAD
1000
AcDbSavedByObjectVersion
1070
     0
  0
VISUALSTYLE
  5
3D
102
{ACAD_XDICTIONARY
360
22AFB8
102
}
102
{ACAD_REACTORS
330
29
102
}
330
29
100
AcDbVisualStyle
  2

 70
    26
 71
     2
 72
     2
 73
     1
 90
        2
 40
-0.6
 41
30.0
 62
     5
 63
     7
 74
     1
 91
       10
 64
     7
 65
   257
 75
     2
175
     1
 42
1.0
 92
        8
 66
   257
 43
1.0
 76
     1
 77
     6
 78
     2
 67
     7
 79
     3
170
     0
171
     0
290
     0
174
     0
 93
        5
 44
0.0
173
     0
291
     0
 45
0.0
1001
ACAD
1000
AcDbSavedByObjectVersion
1070
     0
  0
VISUALSTYLE
  5
3A
102
{ACAD_XDICTIONARY
360
22AFB2
102
}
102
{ACAD_REACTORS
330
29
102
}
330
29
100
AcDbVisualStyle
  2

 70
    23
 71
     2
 72
     2
 73
     3
 90
        0
 40
-0.6
 41
-30.0
 62
     5
 63
     7
 74
     2
 91
        2
 64
     7
 65
     7
 75
     1
175
     1
 42
40.0
 92
        8
 66
     7
 43
1.0
 76
     1
 77
     6
 78
     2
 67
     7
 79
     3
170
     0
171
     0
290
     0
174
     0
 93
        1
 44
0.0
173
     0
291
     0
 45
0.0
1001
ACAD
1000
AcDbSavedByObjectVersion
1070
     0
  0
VISUALSTYLE
  5
3B
102
{ACAD_XDICTIONARY
360
22AFB4
102
}
102
{ACAD_REACTORS
330
29
102
}
330
29
100
AcDbVisualStyle
  2

 70
    24
 71
     1
 72
     2
 73
     2
 90
        0
 40
-0.6
 41
-30.0
 62
     5
 63
     7
 74
     2
 91
        2
 64
     7
 65
     7
 75
     1
175
     1
 42
40.0
 92
       11
 66
     7
 43
1.0
 76
     1
 77
     6
 78
     2
 67
     7
 79
     6
170
     0
171
     0
290
     0
174
     0
 93
        1
 44
0.0
173
     0
291
     0
 45
0.0
1001
ACAD
1000
AcDbSavedByObjectVersion
1070
     0
  0
VISUALSTYLE
  5
36
102
{ACAD_XDICTIONARY
360
22AFAA
102
}
102
{ACAD_REACTORS
330
29
102
}
330
29
100
AcDbVisualStyle
  2

 70
    13
 71
     2
 72
     2
 73
     0
 90
        0
 40
-0.6
 41
-30.0
 62
     5
 63
     7
 74
     1
 91
        4
 64
     7
 65
   257
 75
     1
175
     1
 42
1.0
 92
       12
 66
     7
 43
1.0
 76
     1
 77
     6
 78
     2
 67
     7
 79
     5
170
     0
171
     0
290
     0
174
     0
 93
        1
 44
0.0
173
     0
291
     1
 45
0.0
1001
ACAD
1000
AcDbSavedByObjectVersion
1070
     0
  0
VISUALSTYLE
  5
30
102
{ACAD_XDICTIONARY
360
22AF9E
102
}
102
{ACAD_REACTORS
330
29
102
}
330
29
100
AcDbVisualStyle
  2

 70
     5
 71
     0
 72
     2
 73
     0
 90
        0
 40
-0.6
 41
-30.0
 62
     5
 63
     7
 74
     1
 91
        4
 64
     7
 65
   257
 75
     1
175
     1
 42
1.0
 92
        0
 66
   257
 43
1.0
 76
     1
 77
     6
 78
     2
 67
     7
 79
     3
170
     0
171
     0
290
     0
174
     0
 93
        1
 44
0.0
173
     0
291
     0
 45
0.0
1001
ACAD
1000
AcDbSavedByObjectVersion
1070
     0
  0
VISUALSTYLE
  5
3C
102
{ACAD_XDICTIONARY
360
22AFB6
102
}
102
{ACAD_REACTORS
330
29
102
}
330
29
100
AcDbVisualStyle
  2

 70
    25
 71
     2
 72
     2
 73
     1
 90
        1
 40
0.5
 41
-30.0
 62
     5
 63
     7
 74
     1
 91
        0
 64
     7
 65
   257
 75
     1
175
     1
 42
1.0
 92
        8
 66
     7
 43
1.0
 76
     1
 77
     6
 78
     2
 67
     7
 79
     3
170
     0
171
     0
290
     0
174
     0
 93
       13
 44
0.0
173
     0
291
     0
 45
0.0
1001
ACAD
1000
AcDbSavedByObjectVersion
1070
     0
  0
DICTIONARYVAR
  5
22DBA
102
{ACAD_REACTORS
330
22DB7
102
}
330
22DB7
100
DictionaryVariables
280
     0
  1
1:1
  0
DICTIONARYVAR
  5
22DB9
102
{ACAD_REACTORS
330
22DB7
102
}
330
22DB7
100
DictionaryVariables
280
     0
  1
STANDARD
  0
DICTIONARYVAR
  5
22DB8
102
{ACAD_REACTORS
330
22DB7
102
}
330
22DB7
100
DictionaryVariables
280
     0
  1
STANDARD
  0
DICTIONARYVAR
  5
229D71
102
{ACAD_REACTORS
330
22DB7
102
}
330
22DB7
100
DictionaryVariables
280
     0
  1
1
  0
DICTIONARYVAR
  5
229D70
102
{ACAD_REACTORS
330
22DB7
102
}
330
22DB7
100
DictionaryVariables
280
     0
  1
1
  0
DICTIONARYVAR
  5
7A31F
102
{ACAD_REACTORS
330
22DB7
102
}
330
22DB7
100
DictionaryVariables
280
     0
  1
-201.059514;-1326.672515
  0
DICTIONARYVAR
  5
229D6F
102
{ACAD_REACTORS
330
22DB7
102
}
330
22DB7
100
DictionaryVariables
280
     0
  1
0
  0
DICTIONARYVAR
  5
229D6C
102
{ACAD_REACTORS
330
22DB7
102
}
330
22DB7
100
DictionaryVariables
280
     0
  1
0
  0
DICTIONARYVAR
  5
229D6D
102
{ACAD_REACTORS
330
22DB7
102
}
330
22DB7
100
DictionaryVariables
280
     0
  1
0
  0
DICTIONARYVAR
  5
229D6B
102
{ACAD_REACTORS
330
22DB7
102
}
330
22DB7
100
DictionaryVariables
280
     0
  1
2
  0
DICTIONARYVAR
  5
229D6A
102
{ACAD_REACTORS
330
22DB7
102
}
330
22DB7
100
DictionaryVariables
280
     0
  1
1
  0
DICTIONARYVAR
  5
229D6E
102
{ACAD_REACTORS
330
22DB7
102
}
330
22DB7
100
DictionaryVariables
280
     0
  1
127
  0
DICTIONARYVAR
  5
22AF89
102
{ACAD_REACTORS
330
22DB7
102
}
330
22DB7
100
DictionaryVariables
280
     0
  1
2
  0
DICTIONARY
  5
22E1C
102
{ACAD_REACTORS
330
22E11
102
}
330
22E11
100
AcDbDictionary
281
     1
  0
DICTIONARY
  5
22AFC3
330
6B
100
AcDbDictionary
280
     1
281
     1
  3
ACAD_XREC_ROUNDTRIP
360
22AFC4
  0
DICTIONARY
  5
22AFC6
330
73
100
AcDbDictionary
280
     1
281
     1
  3
ACAD_XREC_ROUNDTRIP
360
22AFC7
  0
DICTIONARY
  5
22E63
330
6F
100
AcDbDictionary
280
     1
281
     1
  3
ACAD_XREC_ROUNDTRIP
360
22AFC5
  3
ADSK_XREC_LAYOUTTHUMBNAIL
360
22E64
  0
DICTIONARY
  5
1A
330
19
100
AcDbDictionary
280
     1
281
     1
  3
ACAD_XREC_ROUNDTRIP
360
229D78
  3
BUMPTILE
360
1C
  3
DIFFUSETILE
360
1B
  3
OPACITYTILE
360
1F
  3
REFLECTIONTILE
360
1E
  3
REFRACTIONTILE
360
20
  3
SPECULARTILE
360
1D
  0
DICTIONARY
  5
12
330
11
100
AcDbDictionary
280
     1
281
     1
  3
ACAD_XREC_ROUNDTRIP
360
229D77
  3
BUMPTILE
360
14
  3
DIFFUSETILE
360
13
  3
OPACITYTILE
360
17
  3
REFLECTIONTILE
360
16
  3
REFRACTIONTILE
360
18
  3
SPECULARTILE
360
15
  0
DICTIONARY
  5
22
330
21
100
AcDbDictionary
280
     1
281
     1
  3
ACAD_XREC_ROUNDTRIP
360
229D79
  3
BUMPTILE
360
24
  3
DIFFUSETILE
360
23
  3
OPACITYTILE
360
27
  3
REFLECTIONTILE
360
26
  3
REFRACTIONTILE
360
28
  3
SPECULARTILE
360
25
  0
DICTIONARY
  5
229D73
330
65
100
AcDbDictionary
280
     1
281
     1
  3
ACAD_ROUNDTRIP_2008_TABLESTYLE_CELLSTYLEMAP
360
22AF8A
  3
ACAD_XREC_ROUNDTRIP
360
22AFC2
  0
DICTIONARY
  5
22AF9C
330
2F
100
AcDbDictionary
280
     1
281
     1
  3
ACAD_XREC_ROUNDTRIP
360
22AF9D
  0
DICTIONARY
  5
22AFC8
330
22EE4
100
AcDbDictionary
280
     1
281
     1
  3
ACAD_XREC_ROUNDTRIP
360
22AFC9
  0
DICTIONARY
  5
22AF9A
330
2E
100
AcDbDictionary
280
     1
281
     1
  3
ACAD_XREC_ROUNDTRIP
360
22AF9B
  0
DICTIONARY
  5
22AFA8
330
35
100
AcDbDictionary
280
     1
281
     1
  3
ACAD_XREC_ROUNDTRIP
360
22AFA9
  0
DICTIONARY
  5
22AFB0
330
39
100
AcDbDictionary
280
     1
281
     1
  3
ACAD_XREC_ROUNDTRIP
360
22AFB1
  0
DICTIONARY
  5
22AFA2
330
32
100
AcDbDictionary
280
     1
281
     1
  3
ACAD_XREC_ROUNDTRIP
360
22AFA3
  0
DICTIONARY
  5
22AFA6
330
34
100
AcDbDictionary
280
     1
281
     1
  3
ACAD_XREC_ROUNDTRIP
360
22AFA7
  0
DICTIONARY
  5
22AFC0
330
41
100
AcDbDictionary
280
     1
281
     1
  3
ACAD_XREC_ROUNDTRIP
360
22AFC1
  0
DICTIONARY
  5
22AFAE
330
38
100
AcDbDictionary
280
     1
281
     1
  3
ACAD_XREC_ROUNDTRIP
360
22AFAF
  0
DICTIONARY
  5
22AF92
330
2A
100
AcDbDictionary
280
     1
281
     1
  3
ACAD_XREC_ROUNDTRIP
360
22AF93
  0
DICTIONARY
  5
22AF94
330
2B
100
AcDbDictionary
280
     1
281
     1
  3
ACAD_XREC_ROUNDTRIP
360
22AF95
  0
DICTIONARY
  5
22AF96
330
2C
100
AcDbDictionary
280
     1
281
     1
  3
ACAD_XREC_ROUNDTRIP
360
22AF97
  0
DICTIONARY
  5
22AF98
330
2D
100
AcDbDictionary
280
     1
281
     1
  3
ACAD_XREC_ROUNDTRIP
360
22AF99
  0
DICTIONARY
  5
22AFA0
330
31
100
AcDbDictionary
280
     1
281
     1
  3
ACAD_XREC_ROUNDTRIP
360
22AFA1
  0
DICTIONARY
  5
22AFBC
330
3F
100
AcDbDictionary
280
     1
281
     1
  3
ACAD_XREC_ROUNDTRIP
360
22AFBD
  0
DICTIONARY
  5
22AFAC
330
37
100
AcDbDictionary
280
     1
281
     1
  3
ACAD_XREC_ROUNDTRIP
360
22AFAD
  0
DICTIONARY
  5
22AFBE
330
40
100
AcDbDictionary
280
     1
281
     1
  3
ACAD_XREC_ROUNDTRIP
360
22AFBF
  0
DICTIONARY
  5
22AFA4
330
33
100
AcDbDictionary
280
     1
281
     1
  3
ACAD_XREC_ROUNDTRIP
360
22AFA5
  0
DICTIONARY
  5
22AFBA
330
3E
100
AcDbDictionary
280
     1
281
     1
  3
ACAD_XREC_ROUNDTRIP
360
22AFBB
  0
DICTIONARY
  5
22AFB8
330
3D
100
AcDbDictionary
280
     1
281
     1
  3
ACAD_XREC_ROUNDTRIP
360
22AFB9
  0
DICTIONARY
  5
22AFB2
330
3A
100
AcDbDictionary
280
     1
281
     1
  3
ACAD_XREC_ROUNDTRIP
360
22AFB3
  0
DICTIONARY
  5
22AFB4
330
3B
100
AcDbDictionary
280
     1
281
     1
  3
ACAD_XREC_ROUNDTRIP
360
22AFB5
  0
DICTIONARY
  5
22AFAA
330
36
100
AcDbDictionary
280
     1
281
     1
  3
ACAD_XREC_ROUNDTRIP
360
22AFAB
  0
DICTIONARY
  5
22AF9E
330
30
100
AcDbDictionary
280
     1
281
     1
  3
ACAD_XREC_ROUNDTRIP
360
22AF9F
  0
DICTIONARY
  5
22AFB6
330
3C
100
AcDbDictionary
280
     1
281
     1
  3
ACAD_XREC_ROUNDTRIP
360
22AFB7
  0
XRECORD
  5
22AFC4
102
{ACAD_REACTORS
330
22AFC3
102
}
330
22AFC3
100
AcDbXrecord
280
     1
102
SHADEPLOT
 70
     0
102
SHADEPLOTRESLEVEL
 70
     2
102
SHADEPLOTCUSTOMDPI
 70
   300
  0
XRECORD
  5
22AFC7
102
{ACAD_REACTORS
330
22AFC6
102
}
330
22AFC6
100
AcDbXrecord
280
     1
102
SHADEPLOT
 70
     0
102
SHADEPLOTRESLEVEL
 70
     2
102
SHADEPLOTCUSTOMDPI
 70
   300
  0
XRECORD
  5
22AFC5
102
{ACAD_REACTORS
330
22E63
102
}
330
22E63
100
AcDbXrecord
280
     1
102
SHADEPLOT
 70
     0
102
SHADEPLOTRESLEVEL
 70
     2
102
SHADEPLOTCUSTOMDPI
 70
   300
  0
XRECORD
  5
22E64
102
{ACAD_REACTORS
330
22E63
102
}
330
22E63
100
AcDbXrecord
280
     1
310
28000000000100005A0000000100080000000000005A0000000000000000000000010000000000003028210000000000FFFFFF000000000000000000000000000000000000000000000000000000000000000000330000006600000099000000CC000000FF00000000330000333300006633000099330000CC330000FF3300
310
0000660000336600006666000099660000CC660000FF66000000990000339900006699000099990000CC990000FF99000000CC000033CC000066CC000099CC0000CCCC0000FFCC000000FF000033FF000066FF000099FF0000CCFF0000FFFF000000003300330033006600330099003300CC003300FF003300003333003333
310
33006633330099333300CC333300FF33330000663300336633006666330099663300CC663300FF66330000993300339933006699330099993300CC993300FF99330000CC330033CC330066CC330099CC3300CCCC3300FFCC330000FF330033FF330066FF330099FF3300CCFF3300FFFF330000006600330066006600660099
310
006600CC006600FF00660000336600333366006633660099336600CC336600FF33660000666600336666006666660099666600CC666600FF66660000996600339966006699660099996600CC996600FF99660000CC660033CC660066CC660099CC6600CCCC6600FFCC660000FF660033FF660066FF660099FF6600CCFF6600
310
FFFF660000009900330099006600990099009900CC009900FF00990000339900333399006633990099339900CC339900FF33990000669900336699006666990099669900CC669900FF66990000999900339999006699990099999900CC999900FF99990000CC990033CC990066CC990099CC9900CCCC9900FFCC990000FF99
310
0033FF990066FF990099FF9900CCFF9900FFFF99000000CC003300CC006600CC009900CC00CC00CC00FF00CC000033CC003333CC006633CC009933CC00CC33CC00FF33CC000066CC003366CC006666CC009966CC00CC66CC00FF66CC000099CC003399CC006699CC009999CC00CC99CC00FF99CC0000CCCC0033CCCC0066CC
310
CC0099CCCC00CCCCCC00FFCCCC0000FFCC0033FFCC0066FFCC0099FFCC00CCFFCC00FFFFCC000000FF003300FF006600FF009900FF00CC00FF00FF00FF000033FF003333FF006633FF009933FF00CC33FF00FF33FF000066FF003366FF006666FF009966FF00CC66FF00FF66FF000099FF003399FF006699FF009999FF00CC
310
99FF00FF99FF0000CCFF0033CCFF0066CCFF0099CCFF00CCCCFF00FFCCFF0000FFFF0033FFFF0066FFFF0099FFFF00CCFFFF00FFFFFF00000000000D0D0D001A1A1A00282828003535350043434300505050005D5D5D006B6B6B00787878008686860093939300A1A1A100AEAEAE00BBBBBB00C9C9C900D6D6D600E4E4E400
310
F1F1F100FFFFFF000000000000000000000000000000000000000000000000000000000000000000000000000000000000000000000000000000000000000000000000000000000000000000000000000000000000000000000000000000000000000000000000000000000000000000000000000000000000000000000000
310
00000000000000000000000000000000000000000000000000000000000000000000C3C3C3C3C3C3C3C3C3C3C3C3C3C3C3C3C3C3C3C3C3C3C3C3C3C3C3C3C3C3000000000000000000000000000000000000000000000000000000000000000000000000000000000000000000000000000000000000000000000000000000
310
00000000000000000000000000000000000000000000000000000000000000000000000000000000000000000000000000000000000000000000000000000000000000000000000000000000000000000000000000000000000000000000000000000000000000000000000000000000000000000000000000000000000000
310
00000000000000000000000000000000000000000000000000000000C3C3C3C3C3C3C3C3000000000000000000000000000000000000000000000000000000000000C3C3C3C3C3C3C3C30000000000000000000000000000000000000000000000000000000000000000000000000000000000000000000000000000000000
310
00000000000000000000000000000000000000000000000000000000000000000000000000000000000000000000000000000000000000000000000000000000000000000000000000000000000000000000000000000000000000000000000000000000000000000000000000000000000000000000000000000000000000
310
000000000000000000000000000000000000000000000000000000C3C3C3C30000000000000000000000000000000000000000000000000000000000000000000000000000000000000000C3C3C3C3000000000000000000000000000000000000000000000000000000000000000000000000000000000000000000000000
310
00000000000000000000000000000000000000000000000000000000000000000000000000000000000000000000000000000000000000000000000000000000000000000000000000000000000000000000000000000000000000000000000000000000000000000000000000000000000000000000000000000000000000
310
0000000000000000000000000000000000000000000000000000C3C3C3C30000000000000000000000000000000000000000000000000000000000000000000000000000000000000000000000000000C3C3C3C300000000000000000000000000000000000000000000000000000000000000000000000000000000000000
310
00000000000000000000000000000000000000000000000000000000000000000000000000000000000000000000000000000000000000000000000000000000000000000000000000000000000000000000000000000000000000000000000000000000000000000000000000000000000000000000000000000000000000
310
0000000000000000000000000000000000000000000000000000C3C3C30000000000000000000000000000000000000000000000000000000000000000000000000000000000000000000000000000000000000000C3C3C3000000000000000000000000000000000000000000000000000000000000000000000000000000
310
00000000000000000000000000000000000000000000000000000000000000000000000000000000000000000000000000000000000000000000000000000000000000000000000000000000000000000000000000000000000000000000000000000000000000000000000000000000000000000000000000000000000000
310
000000000000000000000000000000000000000000000000000000C30000000000000000000000000000000000000000000000000000000000000000000000000000000000000000000000000000000000000000000000000000C3000000000000000000000000000000000000000000000000000000000000000000000000
310
00000000000000000000000000000000000000000000000000000000000000000000000000000000000000000000000000000000000000000000000000000000000000000000000000000000000000000000000000000000000000000000000000000000000000000000000000000000000000000000000000000000000000
310
000000000000000000000000000000000000000000000000000000C3C300000000000000000000000000000000000000000000000000000000000000000000000000000000000000000000000000000000000000000000000000000000C3C30000000000000000000000000000000000000000000000000000000000000000
310
00000000000000000000000000000000000000000000000000000000000000000000000000000000000000000000000000000000000000000000000000000000000000000000000000000000000000000000000000000000000000000000000000000000000000000000000000000000000000000000000000000000000000
310
00000000000000000000000000000000000000000000000000000000C30000000000000000000000000000000000000000000000000000000000000000000000000000000000000000000000000000000000000000000000000000000000000000C30000000000000000000000000000000000000000000000000000000000
310
00000000000000000000000000000000000000000000000000000000000000000000000000000000000000000000000000000000000000000000000000000000000000000000000000000000000000000000000000000000000000000000000000000000000000000000000000000000000000000000000000000000000000
310
0000000000000000000000000000000000000000000000000000000000C300000000000000000000000000000000000000000000000000000000000000000000000000000000000000000000000000000000000000000000000000000000000000000000C30000000000000000000000000000000000000000000000000000
310
00000000000000000000000000000000000000000000000000000000000000000000000000000000000000000000000000000000000000000000000000000000000000000000000000000000000000000000000000000000000000000000000000000000000000000000000000000000000000000000000000000000000000
310
000000000000000000000000000000000000000000000000000000000000C3000000000000000000000000000000000000000000000000000000000000000000000000000000000000000000000000000000000000000000000000000000000000000000000000C30000000000000000000000000000000000000000000000
310
00000000000000000000000000000000000000000000000000000000000000000000000000000000000000000000000000000000000000000000000000000000000000000000000000000000000000000000000000000000000000000000000000000000000000000000000000000000000000000000000000000000000000
310
000000000000000000000000000000000000000000000000000000000000C3C30000000000000000000000000000000000000000000000000000000000000000000000000000000000000000000000000000000000000000000000000000000000000000000000000000C3C300000000000000000000000000000000000000
310
00000000000000000000000000000000000000000000000000000000000000000000000000000000000000000000000000000000000000000000000000000000000000000000000000000000000000000000000000000000000000000000000000000000000000000000000000000000000000000000000000000000000000
310
00000000000000000000000000000000000000000000000000000000000000C3C300000000000000000000000000000000000000000000000000000000000000000000000000000000000000000000000000000000000000000000000000000000000000000000000000000000C3C300000000000000000000000000000000
310
00000000000000000000000000000000000000000000000000000000000000000000000000000000000000000000000000000000000000000000000000000000000000000000000000000000000000000000000000000000000000000000000000000000000000000000000000000000000000000000000000000000000000
310
000000000000000000000000000000000000000000000000000000000000000000C3000000000000000000000000000000000000000000000000000000000000000000000000000000000000000000000000000000000000000000000000000000000000000000000000000000000000C30000000000000000000000000000
310
00000000000000000000000000000000000000000000000000000000000000000000000000000000000000000000000000000000000000000000000000000000000000000000000000000000000000000000000000000000000000000000000000000000000000000000000000000000000000000000000000000000000000
310
000000000000000000000000000000000000000000000000000000000000000000C3C30000000000000000000000000000000000000000000000000000000000000000000000000000000000000000000000000000000000000000000000000000000000000000000000000000000000000000C3C300000000000000000000
310
00000000000000000000000000000000000000000000000000000000000000000000000000000000000000000000000000000000000000000000000000000000000000000000000000000000000000000000000000000000000000000000000000000000000000000000000000000000000000000000000000000000000000
310
0000000000000000000000000000000000000000000000000000000000000000000000C300000000000000000000000000000000000000000000000000000000000000000000000000000000000000000000000000000000000000000000000000000000000000000000000000000000000000000000C30000000000000000
310
00000000000000000000000000000000000000000000000000000000000000000000000000000000000000000000000000000000000000000000000000000000000000000000000000000000000000000000000000000000000000000000000000000000000000000000000000000000000000000000000000000000000000
310
000000000000000000000000000000000000000000000000000000000000000000000000C3000000000000000000000000000000000000000000000000000000000000000000000000000000000000000000000000000000000000000000000000000000000000000000000000000000000000000000000000C30000000000
310
00000000000000000000000000000000000000000000000000000000000000000000000000000000000000000000000000000000000000000000000000000000000000000000000000000000000000000000000000000000000000000000000000000000000000000000000000000000000000000000000000000000000000
310
00000000000000000000000000000000000000000000000000000000000000000000000000C30000000000000000000000000000000000000000000000000000000000000000000000000000000000000000000000000000000000000000000000000000000000000000000000000000000000000000000000000000C30000
310
00000000000000000000000000000000000000000000000000000000000000000000000000000000000000000000000000000000000000000000000000000000000000000000000000000000000000000000000000000000000000000000000000000000000000000000000000000000000000000000000000000000000000
310
0000000000000000000000000000000000000000000000000000000000000000000000000000C3C30000000000000000000000000000000000000000000000000000000000000000000000000000000000000000000000000000000000000000000000000000000000000000000000000000000000000000000000000000C3
310
C3000000000000000000000000000000000000000000000000000000000000000000000000000000000000000000000000000000000000000000000000000000000000000000000000000000000000000000000000000000000000000000000000000000000000000000000000000000000000000000000000000000000000
310
00000000000000000000000000000000000000000000000000000000000000000000000000000000C30000000000000000000000000000000000000000000000000000000000000000000000000000000000000000000000000000000000000000000000000000000000000000000000000000000000000000000000000000
310
0000C300000000000000000000000000000000000000000000000000000000000000000000000000000000000000000000000000000000000000000000000000000000000000000000000000000000000000000000000000000000000000000000000000000000000000000000000000000000000000000000000000000000
310
0000000000000000000000000000000000000000000000000000000000000000000000000000000000C300000000000000000000000000000000000000000000000000000000000000000000000000000000000000000000000000000000000000000000000000000000000000000000000000000000000000000000000000
310
0000000000C300000000000000000000000000000000000000000000000000000000000000000000000000000000000000000000000000000000000000000000000000000000000000000000000000000000000000000000000000000000000000000000000000000000000000000000000000000000000000000000000000
310
00000000000000000000000000000000000000000000000000000000000000000000000000000000000000C30000000000000000000000000000000000000000000000000000000000000000000000000000000000000000000000000000000000000000000000000000000000000000000000000000000000000000000000
310
00000000000000C30000000000000000000000000000000000000000000000000000000000000000000000000000000000000000000000000000000000000000000000000000000000000000000000000000000000000000000000000000000000000000000000000000000000000000000000000000000000000000000000
310
0000000000000000000000000000000000000000000000000000000000000000000000000000000000000000C3C3000000000000000000000000000000000000000000000000000000000000000000000000000000000000000000000000000000000000000000000000000000000000000000000000000000000000000000
310
000000000000000000C3C30000000000000000000000000000000000000000000000000000000000000000000000000000000000000000000000000000000000000000000000000000000000000000000000000000000000000000000000000000000000000000000000000000000000000000000000000000000000000000
310
00000000000000000000000000000000000000000000000000000000000000000000000000000000000000000000C30000000000000000000000000000000000000000000000000000000000000000000000000000000000000000000000000000000000000000000000000000000000000000000000000000000000000000
310
000000000000000000000000C3000000000000000000000000000000000000000000000000000000000000000000000000000000000000000000000000000000000000000000000000000000000000000000000000000000000000000000000000000000000000000000000000000000000000000000000000000000000000
310
000000000000000000000000000000000000000000000000000000000000000000000000000000000000000000000000C3000000000000000000000000000000000000000000000000000000000000000000000000000000000000000000000000000000000000000000000000000000000000000000000000000000000000
310
0000000000000000000000000000C300000000000000000000000000000000000000000000000000000000000000000000000000000000000000000000000000000000000000000000000000000000000000000000000000000000000000000000000000000000000000000000000000000000000000000000000000000000
310
00000000000000000000000000000000000000000000000000000000000000000000000000000000000000000000000000C30000000000000000000000000000000000000000000000000000000000000000000000000000000000000000000000000000000000000000000000000000000000000000000000000000000000
310
0000000000000000000000000000000000C300000000000000000000000000000000000000000000000000000000000000000000000000000000000000000000000000000000000000000000000000000000000000000000000000000000000000000000000000000000000000000000000000000000000000000000000000
310
000000000000000000000000000000000000000000000000000000000000000000000000000000000000000000000000000000C3000000000000000000000000000000000000000000000000000000000000000000000000000000000000000000000000000000000000000000000000000000000000000000000000000000
310
00000000000000000000000000000000000000C30000000000000000000000000000000000000000000000000000000000000000000000000000000000000000000000000000000000000000000000000000000000000000000000000000000000000000000000000000000000000000000000000000000000000000000000
310
0000000000000000000000000000000000000000000000000000000000000000000000000000000000000000000000000000000000C300000000000000000000000000000000000000000000000000000000000000000000000000000000000000000000000000000000000000000000000000000000000000000000000000
310
00000000000000000000000000000000000000000000C30000000000000000000000000000000000000000000000000000000000000000000000000000000000000000000000000000000000000000000000000000000000000000000000000000000000000000000000000000000000000000000000000000000000000000
310
000000000000000000000000000000000000000000000000000000000000000000000000000000000000000000000000000000000000C3000000000000000000000000000000000000000000000000000000000000000000000000000000000000000000000000000000000000000000000000000000000000000000000000
310
000000000000000000000000000000000000000000000000C3000000000000000000000000000000000000000000000000000000000000000000000000000000000000000000000000000000000000000000000000000000000000000000000000000000000000000000000000000000000000000000000000000000000000
310
0000000000000000000000000000000000000000000000000000000000000000000000000000000000000000000000000000000000000000C300000000000000000000000000000000000000000000000000000000000000000000000000000000000000000000000000000000000000000000000000000000000000000000
310
0000000000000000000000000000000000000000000000000000C300000000000000000000000000000000000000000000000000000000000000000000000000000000000000000000000000000000000000000000000000000000000000000000000000000000000000000000000000000000000000000000000000000000
310
00000000000000000000000000000000000000000000000000000000000000000000000000000000000000000000000000000000000000000000C30000000000000000000000000000000000000000000000000000000000000000000000000000000000000000000000000000000000000000000000000000000000000000
310
00000000000000000000000000000000000000000000000000000000C30000000000000000000000000000000000000000000000000000000000000000000000000000000000000000000000000000000000000000000000000000000000000000000000000000000000000000000000000000000000000000000000000000
310
000000000000000000000000000000000000000000000000000000000000000000000000000000000000000000000000000000000000000000000000C3000000000000000000000000000000000000000000000000000000000000000000000000000000000000000000000000000000000000000000000000000000000000
310
000000000000000000000000000000000000000000000000000000000000C3000000000000000000000000000000000000000000000000000000000000000000000000000000000000000000000000000000000000000000000000000000000000000000000000000000000000000000000000000000000000000000000000
310
0000000000000000000000000000000000000000000000000000000000000000000000000000000000000000000000000000000000000000000000000000C30000000000000000000000000000000000000000000000000000000000DCDCDCDCDCDCDCDCDCDCDCDCDCDCDCDCDCDCDCDCDCDCDCDCDCDCDCDCDCDCDCDCDCDCDC
310
DCDCDC0000000000000000000000000000000000000000000000000000000000C300000000000000000000000000000000000000000000000000000000000000000000000000000000000000000000000000000000000000000000000000000000000000000000000000000000000000000000000000000000000000000000
310
000000000000000000000000000000000000000000000000000000000000000000000000000000000000000000000000000000000000000000000000000000C3C30000000000000000000000000000000000000000000000000000000000DC0000000000000000000000000000000000000000000000000000000000000000
310
00000000DC0000000000000000000000000000000000000000000000000000000000C3C300000000000000000000000000000000000000000000000000000000000000000000000000000000000000000000000000000000000000000000000000000000000000000000000000000000000000000000000000000000000000
310
0000000000000000000000000000000000000000000000000000000000000000000000000000000000000000000000000000000000000000000000000000000000C3000000000000000000000000000000000000000000000000000000000000DC000000000000000000000000000000000000000000000000000000000000
310
000000000000DC000000000000000000000000000000000000000000000000000000000000C30000000000000000000000000000000000000000000000000000000000000000000000000000000000000000000000000000000000000000000000000000000000000000000000000000000000000000000000000000000000
310
00000000000000000000000000000000000000000000000000000000000000000000000000000000000000000000000000000000000000000000000000000000000000C3000000000000000000000000000000000000000000000000000000000000DC00000000000000000000000000000000000000000000000000000000
310
0000000000000000DC000000000000000000000000000000000000000000000000000000000000C3000000000000000000000000000000000000000000000000000000000000000000000000000000000000000000000000000000000000000000000000000000000000000000000000000000000000000000000000000000
310
000000000000000000000000000000000000000000000000000000000000000000000000000000000000000000000000000000000000000000000000000000000000000000C3000000000000000000000000000000000000000000000000000000000000DC0000000000000000000000000000000000000000000000000000
310
00000000000000000000DC000000000000000000000000000000000000000000000000000000000000C300000000000000000000000000000000000000000000000000000000000000000000000000000000000000000000000000000000000000000000000000000000000000000000000000000000000000000000000000
310
0000000000000000000000000000000000000000000000000000000000000000000000000000000000000000000000000000000000000000000000000000000000000000000000C3000000000000000000000000000000000000000000000000000000000000DC000000002D2D2D2D2D2D2D2D2D2D2D2D2D2D2D2D2D2D2D2D
310
2D2D2D2D2DDC2D2D00000000DC000000000000000000000000000000000000000000000000000000000000C30000000000000000000000000000000000000000000000000000000000000000000000000000000000000000000000000000000000000000000000000000000000000000000000000000000000000000000000
310
00000000000000000000000000000000000000000000000000000000000000000000000000000000000000000000000000000000000000000000000000000000000000000000000000C3000000000000000000000000000000000000000000000000000000000000DC000000002D2D2D2D2D2D2D2D2D2D2D2D2D2D2D2D2D2D
310
2D2D2D2D2D2D2D2D2D2D00000000DC000000000000000000000000000000000000000000000000000000000000C3000000000000000000000000000000000000000000000000000000000000000000000000000000000000000000000000000000000000000000000000000000000000000000000000000000000000000000
310
000000000000000000000000000000000000000000000000000000000000000000000000000000000000000000000000000000000000000000000000000000000000000000000000000000C3000000000000000000000000000000000000000000000000000000000000DC000000002D2D2D2D2D2D2D2D2D2D2D2D2D2D2D2D
310
2D2D2D2D2D2D2D2D2D2D2D2D00000000DC000000000000000000000000000000000000000000000000000000000000C300000000000000000000000000000000000000000000000000000000000000000000000000000000000000000000000000000000000000000000000000000000000000000000000000000000000000
310
0000000000000000000000000000000000000000000000000000000000000000000000000000000000000000000000000000000000000000000000000000000000000000000000000000000000C3000000000000000000000000000000000000000000000000000000000000DC000000002D2D2D2D2D2D2D2D2D2D2D2D2D2D
310
2D2D2D2D2D2D2D2D2D2D2D2D2D2D00000000DC000000000000000000000000000000000000000000000000000000000000C30000000000000000000000000000000000000000000000000000000000000000000000000000000000000000000000000000000000000000000000000000000000000000000000000000000000
310
00000000000000000000000000000000000000000000000000000000000000000000000000000000000000000000000000000000000000000000000000000000000000000000000000000000000000C3000000000000000000000000000000000000000000000000000000000000DC000000002D2D2D2D2D2D2D2D2D2D2D2D
310
2D2D2D2D2D2D2D2D2D2D2D2D2D2D2D2D00000000DC000000000000000000000000000000000000000000000000000000000000C3000000000000000000000000000000000000000000000000000000000000000000000000000000000000000000000000000000000000000000000000000000000000000000000000000000
310
000000000000000000000000000000000000000000000000000000000000000000000000000000000000000000000000000000000000000000000000000000000000000000000000000000000000000000C3000000000000000000000000000000000000000000000000000000000000DC000000002D2D2D2D2D2D2D2D2D2D
310
2D2D2D2D2D2D2D2D2D2D2D2D2D2D2D2D2D2D00000000DC000000000000000000000000000000000000000000000000000000000000C300000000000000000000000000000000000000000000000000000000000000000000000000000000000000000000000000000000000000000000000000000000000000000000000000
310
0000000000000000000000000000000000000000000000000000000000000000000000000000000000000000000000000000000000000000000000000000000000000000000000000000000000000000000000C3000000000000000000000000000000000000000000000000000000000000DC000000002D2D2D2D2D2D2D2D
310
2D2D2D2D2D2D2D2D2D2D2D2D2D2D2D2D2D2D2D2D00000000DC000000000000000000000000000000000000000000000000000000000000C30000000000000000000000000000000000000000000000000000000000000000000000000000000000000000000000000000000000000000000000000000000000000000000000
310
00000000000000000000000000000000000000000000000000000000000000000000000000000000000000000000000000000000000000000000000000000000000000000000000000000000000000000000000000C3000000000000000000000000000000000000000000000000000000000000DC000000002D2D2D2D2D2D
310
2D2D2D2D2D2D2D2D2D2D2D2D2D2D2D2D2D2D2D2D2D2D00000000DC000000000000000000000000000000000000000000000000000000000000C3000000000000000000000000000000000000000000000000000000000000000000000000000000000000000000000000000000000000000000000000000000000000000000
310
000000000000000000000000000000000000000000000000000000000000000000000000000000000000000000000000000000000000000000000000000000000000000000000000000000000000000000000000000000C3000000000000000000000000000000000000000000000000000000000000DC000000002D2D2D2D
310
2D2D2D2D2D2D2D2D2D2D2D2D2D2D2D2D2D2D2D2D2D2D2D2D00000000DC000000000000000000000000000000000000000000000000000000000000C300000000000000000000000000000000000000000000000000000000000000000000000000000000000000000000000000000000000000000000000000000000000000
310
0000000000000000000000000000000000000000000000000000000000000000000000000000000000000000000000000000000000000000000000000000000000000000000000000000000000000000000000000000000000C3000000000000000000000000000000000000000000000000000000000000DC000000002D2D
310
2D2D2D2D2D2D2D2D2D2D2D2D2D2D2D2D2D2D2D2D2D2D2D2D2D2D00000000DC000000000000000000000000000000000000000000000000000000000000C30000000000000000000000000000000000000000000000000000000000000000000000000000000000000000000000000000000000000000000000000000000000
310
00000000000000000000000000000000000000000000000000000000000000000000000000000000000000000000000000000000000000000000000000000000000000000000000000000000000000000000000000000000000000C3000000000000000000000000000000000000000000000000000000000000DC00000000
310
2D2D2D2D2D2D2D2D2D2D2D2D2D2D2D2D2D2D2D2D2D2D2D2D2D2D2D2D00000000DC000000000000000000000000000000000000000000000000000000000000C3000000000000000000000000000000000000000000000000000000000000000000000000000000000000000000000000000000000000000000000000000000
310
000000000000000000000000000000000000000000000000000000000000000000000000000000000000000000000000000000000000000000000000000000000000000000000000000000000000000000000000000000000000000000C3000000000000000000000000000000000000000000000000000000000000DC0000
310
00002D2D2D2D2D2D2D2D2D2D2D2D2D2D2D2D2D2D2D2D2D2D2D2D2D2D2D2D00000000DC000000000000000000000000000000000000000000000000000000000000C300000000000000000000000000000000000000000000000000000000000000000000000000000000000000000000000000000000000000000000000000
310
0000000000000000000000000000000000000000000000000000000000000000000000000000000000000000000000000000000000000000000000000000000000000000000000000000000000000000000000000000000000000000000000C3000000000000000000000000000000000000000000000000000000000000DC
310
000000002D2D2D2D2D2D2D2D2D2D2D2D2D2D2D2D2D2D2D2D2D2D2D2D2D2D2D2D00000000DC000000000000000000000000000000000000000000000000000000000000C30000000000000000000000000000000000000000000000000000000000000000000000000000000000000000000000000000000000000000000000
310
00000000000000000000000000000000000000000000000000000000000000000000000000000000000000000000000000000000000000000000000000000000000000000000000000000000000000000000000000000000000000000000000000C30000000000000000000000000000000000000000000000000000000000
310
00DC000000002D2D2D2D2D2D2D2D2D2D2D2D2D2D2D2D2D2D2D2D2D2D2D2D2D2D2D2D00000000DC000000000000000000000000000000000000000000000000000000000000C3000000000000000000000000000000000000000000000000000000000000000000000000000000000000000000000000000000000000000000
310
000000000000000000000000000000000000000000000000000000000000000000000000000000000000000000000000000000000000000000000000000000000000000000000000000000000000000000000000000000000000000000000000000000C3000000000000000000000000000000000000000000000000000000
310
000000DC000000002D2D2D2D2D2D2D2D2D2D2D2D2D2D2D2D2D2D2D2D2D2D2D2D2D2D2D2D00000000DC000000000000000000000000000000000000000000000000000000000000C300000000000000000000000000000000000000000000000000000000000000000000000000000000000000000000000000000000000000
310
0000000000000000000000000000000000000000000000000000000000000000000000000000000000000000000000000000000000000000000000000000000000000000000000000000000000000000000000000000000000000000000000000000000000C300000000000000000000000000000000000000000000000000
310
0000000000DC00000000DC2D2D2D2D2D2D2D2D2D2D2D2D2D2D2D2D2D2D2D2D2D2D2D2D2D2D2D00000000DC000000000000000000000000000000000000000000000000000000000000C30000000000000000000000000000000000000000000000000000000000000000000000000000000000000000000000000000000000
310
00000000000000000000000000000000000000000000000000000000000000000000000000000000000000000000000000000000000000000000000000000000000000000000000000000000000000000000000000000000000000000000000000000000000000C30000000000000000000000000000000000000000000000
310
00000000000000DC00000000DC2D2D2D2D2D2D2D2D2D2D2D2D2D2D2D2D2D2D2D2D2D2D2D2D2D2D2D00000000DC000000000000000000000000000000000000000000000000000000000000C3000000000000000000000000000000000000000000000000000000000000000000000000000000000000000000000000000000
310
000000000000000000000000000000000000000000000000000000000000000000000000000000000000000000000000000000000000000000000000000000000000000000000000000000000000000000000000000000000000000000000000000000000000000000C3000000000000000000000000000000000000000000
310
000000000000000000DC00000000DCDCDCDC2D2D2D2D2D2D2D2D2D2D2D2D2D2D2D2D2D2D2D2D2D2D2DDC00000000DC000000000000000000000000000000000000000000000000000000000000C300000000000000000000000000000000000000000000000000000000000000000000000000000000000000000000000000
310
0000000000000000000000000000000000000000000000000000000000000000000000000000000000000000000000000000000000000000000000000000000000000000000000000000000000000000000000000000000000000000000000000000000000000000000000C300000000000000000000000000000000000000
310
0000000000000000000000DC000000000000000000000000000000000000000000000000000000000000000000000000DC000000000000000000000000000000000000000000000000000000000000C30000000000000000000000000000000000000000000000000000000000000000000000000000000000000000000000
310
00000000000000000000000000000000000000000000000000000000000000000000000000000000000000000000000000000000000000000000000000000000000000000000000000000000000000000000000000000000000000000000000000000000000000000000000000C30000000000000000000000000000000000
310
00000000000000000000000000DC000000000000000000000000000000000000000000000000000000000000000000000000DC000000000000000000000000000000000000000000000000000000000000C3000000000000000000000000000000000000000000000000000000000000000000000000000000000000000000
310
000000000000000000000000000000000000000000000000000000000000000000000000000000000000000000000000000000000000000000000000000000000000000000000000000000000000000000000000000000000000000000000000000000000000000000000000000000C3000000000000000000000000000000
310
000000000000000000000000000000DC000000000000000000000000000000000000000000000000000000000000000000000000DC000000000000000000000000000000000000000000000000000000000000C300000000000000000000000000000000000000000000000000000000000000000000000000000000000000
310
0000000000000000000000000000000000000000000000000000000000000000000000000000000000000000000000000000000000000000000000000000000000000000000000000000000000000000000000000000000000000000000000000000000000000000000000000000000000C3C3000000000000000000000000
310
0000000000000000000000000000000000DC000000000000000000000000000000000000000000000000000000000000000000000000DC0000000000000000000000000000000000000000000000000000000000C3C30000000000000000000000000000000000000000000000000000000000000000000000000000000000
310
0000000000000000000000000000000000000000000000000000000000000000000000000000000000000000000000000000000000000000000000000000000000000000000000000000000000000000000000000000000000000000000000000000000000000000000000000000000000000000C300000000000000000000
310
00000000000000000000000000000000000000DCDCDCDCDCDCDCDCDCDCDCDCDCDCDCDCDCDCDCDCDCDCDCDCDCDCDCDCDCDCDCDCDCDCDCDCDCDC0000000000000000000000000000000000000000000000000000000000C300000000000000000000000000000000000000000000000000000000000000000000000000000000
310
00000000000000000000000000000000000000000000000000000000000000000000000000000000000000000000000000000000000000000000000000000000000000000000000000000000000000000000000000000000000000000000000000000000000000000000000000000000000000000000C30000000000000000
310
00000000000000000000000000000000000000000000000000000000000000000000000000000000000000000000000000000000000000000000000000000000000000000000000000000000000000000000000000000000C30000000000000000000000000000000000000000000000000000000000000000000000000000
310
000000000000000000000000000000000000000000000000000000000000000000000000000000000000000000000000000000000000000000000000000000000000000000000000000000000000000000000000000000000000000000000000000000000000000000000000000000000000000000000000C3000000000000
310
000000000000000000000000000000000000000000000000000000000000000000000000000000000000000000000000000000000000000000000000000000000000000000000000000000000000000000000000000000000000C3000000000000000000000000000000000000000000000000000000000000000000000000
310
0000000000000000000000000000000000000000000000000000000000000000000000000000000000000000000000000000000000000000000000000000000000000000000000000000000000000000000000000000000000000000000000000000000000000000000000000000000000000000000000000000C300000000
310
0000000000000000000000000000000000000000000000000000000000000000000000000000000000000000000000000000000000000000000000000000000000000000000000000000000000000000000000000000000000000000C300000000000000000000000000000000000000000000000000000000000000000000
310
00000000000000000000000000000000000000000000000000000000000000000000000000000000000000000000000000000000000000000000000000000000000000000000000000000000000000000000000000000000000000000000000000000000000000000000000000000000000000000000000000000000C30000
310
00000000000000000000000000000000000000000000000000000000000000000000000000000000000000000000000000000000000000000000000000000000000000000000000000000000000000000000000000000000000000000000C30000000000000000000000000000000000000000000000000000000000000000
310
00000000000000000000000000000000000000000000000000000000000000000000000000000000000000000000000000000000000000000000000000000000000000000000000000000000000000000000000000000000000000000000000000000000000000000000000000000000000000000000000000000000000000
310
C30000000000000000000000000000000000000000000000000000000000000000000000000000000000000000000000000000000000000000000000000000000000000000000000000000000000000000000000000000000000000000000000C3000000000000000000000000000000000000000000000000000000000000
310
00000000000000000000000000000000000000000000000000000000000000000000000000000000000000000000000000000000000000000000000000000000000000000000000000000000000000000000000000000000000000000000000000000000000000000000000000000000000000000000000000000000000000
310
0000C300000000000000000000000000000000000000000000000000000000000000000000000000000000000000000000000000000000000000000000000000000000000000000000000000000000000000000000000000000000000000000000C30000000000000000000000000000000000000000000000000000000000
310
00000000000000000000000000000000000000000000000000000000000000000000000000000000000000000000000000000000000000000000000000000000000000000000000000000000000000000000000000000000000000000000000000000000000000000000000000000000000000000000000000000000000000
310
00000000C300000000000000000000000000000000000000000000000000000000000000000000000000000000000000000000000000000000000000000000000000000000000000000000000000000000000000000000000000000000000000000000C3000000000000000000000000000000000000000000000000000000
310
00000000000000000000000000000000000000000000000000000000000000000000000000000000000000000000000000000000000000000000000000000000000000000000000000000000000000000000000000000000000000000000000000000000000000000000000000000000000000000000000000000000000000
310
00000000000000C30000000000000000000000000000000000000000000000000000000000000000000000000000000000000000000000000000000000000000000000000000000000000000000000000000000000000000000000000000000000000000C30000000000000000000000000000000000000000000000000000
310
00000000000000000000000000000000000000000000000000000000000000000000000000000000000000000000000000000000000000000000000000000000000000000000000000000000000000000000000000000000000000000000000000000000000000000000000000000000000000000000000000000000000000
310
000000000000000000C30000000000000000000000000000000000000000000000000000000000000000000000000000000000000000000000000000000000000000000000000000000000000000000000000000000000000000000000000000000000000000C3000000000000000000000000000000000000000000000000
310
00000000000000000000000000000000000000000000000000000000000000000000000000000000000000000000000000000000000000000000000000000000000000000000000000000000000000000000000000000000000000000000000000000000000000000000000000000000000000000000000000000000000000
310
0000000000000000000000C3C3000000000000000000000000000000000000000000000000000000000000000000000000000000000000000000000000000000000000000000000000000000000000000000000000000000000000000000000000000000000000C3C300000000000000000000000000000000000000000000
310
00000000000000000000000000000000000000000000000000000000000000000000000000000000000000000000000000000000000000000000000000000000000000000000000000000000000000000000000000000000000000000000000000000000000000000000000000000000000000000000000000000000000000
310
0000000000000000000000000000C3000000000000000000000000000000000000000000000000000000000000000000000000000000000000000000000000000000000000000000000000000000000000000000000000000000000000000000000000000000000000C3000000000000000000000000000000000000000000
310
00000000000000000000000000000000000000000000000000000000000000000000000000000000000000000000000000000000000000000000000000000000000000000000000000000000000000000000000000000000000000000000000000000000000000000000000000000000000000000000000000000000000000
310
00000000000000000000000000000000C3000000000000000000000000000000000000000000000000000000000000000000000000000000000000000000000000000000000000000000000000000000000000000000000000000000000000000000000000000000000000C300000000000000000000000000000000000000
310
00000000000000000000000000000000000000000000000000000000000000000000000000000000000000000000000000000000000000000000000000000000000000000000000000000000000000000000000000000000000000000000000000000000000000000000000000000000000000000000000000000000000000
310
00000000000000000000000000000000000000C300000000000000000000000000000000000000000000000000000000000000000000000000000000000000000000000000000000000000000000000000000000000000000000000000000000000000000000000000000000C3000000000000000000000000000000000000
310
00000000000000000000000000000000000000000000000000000000000000000000000000000000000000000000000000000000000000000000000000000000000000000000000000000000000000000000000000000000000000000000000000000000000000000000000000000000000000000000000000000000000000
310
000000000000000000000000000000000000000000C3C30000000000000000000000000000000000000000000000000000000000000000000000000000000000000000000000000000000000000000000000000000000000000000000000000000000000000000000000000000C3C300000000000000000000000000000000
310
00000000000000000000000000000000000000000000000000000000000000000000000000000000000000000000000000000000000000000000000000000000000000000000000000000000000000000000000000000000000000000000000000000000000000000000000000000000000000000000000000000000000000
310
000000000000000000000000000000000000000000000000C30000000000000000000000000000000000000000000000000000000000000000000000000000000000000000000000000000000000000000000000000000000000000000000000000000000000000000000000000000C3000000000000000000000000000000
310
00000000000000000000000000000000000000000000000000000000000000000000000000000000000000000000000000000000000000000000000000000000000000000000000000000000000000000000000000000000000000000000000000000000000000000000000000000000000000000000000000000000000000
310
000000000000000000000000000000000000000000000000000000C3000000000000000000000000000000000000000000000000000000000000000000000000000000000000000000000000000000000000000000000000000000000000000000000000000000000000000000000000C30000000000000000000000000000
310
00000000000000000000000000000000000000000000000000000000000000000000000000000000000000000000000000000000000000000000000000000000000000000000000000000000000000000000000000000000000000000000000000000000000000000000000000000000000000000000000000000000000000
310
000000000000000000000000000000000000000000000000000000000000C300000000000000000000000000000000000000000000000000000000000000000000000000000000000000000000000000000000000000000000000000000000000000000000000000000000000000000000C300000000000000000000000000
310
00000000000000000000000000000000000000000000000000000000000000000000000000000000000000000000000000000000000000000000000000000000000000000000000000000000000000000000000000000000000000000000000000000000000000000000000000000000000000000000000000000000000000
310
0000000000000000000000000000000000000000000000000000000000000000C3C30000000000000000000000000000000000000000000000000000000000000000000000000000000000000000000000000000000000000000000000000000000000000000000000000000000000000000C3C30000000000000000000000
310
00000000000000000000000000000000000000000000000000000000000000000000000000000000000000000000000000000000000000000000000000000000000000000000000000000000000000000000000000000000000000000000000000000000000000000000000000000000000000000000000000000000000000
310
000000000000000000000000000000000000000000000000000000000000000000000000C3000000000000000000000000000000000000000000000000000000000000000000000000000000000000000000000000000000000000000000000000000000000000000000000000000000000000C30000000000000000000000
310
00000000000000000000000000000000000000000000000000000000000000000000000000000000000000000000000000000000000000000000000000000000000000000000000000000000000000000000000000000000000000000000000000000000000000000000000000000000000000000000000000000000000000
310
0000000000000000000000000000000000000000000000000000000000000000000000000000C3C300000000000000000000000000000000000000000000000000000000000000000000000000000000000000000000000000000000000000000000000000000000000000000000000000000000C3C3000000000000000000
310
00000000000000000000000000000000000000000000000000000000000000000000000000000000000000000000000000000000000000000000000000000000000000000000000000000000000000000000000000000000000000000000000000000000000000000000000000000000000000000000000000000000000000
310
0000000000000000000000000000000000000000000000000000000000000000000000000000000000C3C30000000000000000000000000000000000000000000000000000000000000000000000000000000000000000000000000000000000000000000000000000000000000000000000000000C3C30000000000000000
310
00000000000000000000000000000000000000000000000000000000000000000000000000000000000000000000000000000000000000000000000000000000000000000000000000000000000000000000000000000000000000000000000000000000000000000000000000000000000000000000000000000000000000
310
000000000000000000000000000000000000000000000000000000000000000000000000000000000000000000C3000000000000000000000000000000000000000000000000000000000000000000000000000000000000000000000000000000000000000000000000000000000000000000000000C30000000000000000
310
00000000000000000000000000000000000000000000000000000000000000000000000000000000000000000000000000000000000000000000000000000000000000000000000000000000000000000000000000000000000000000000000000000000000000000000000000000000000000000000000000000000000000
310
000000000000000000000000000000000000000000000000000000000000000000000000000000000000000000000000C300000000000000000000000000000000000000000000000000000000000000000000000000000000000000000000000000000000000000000000000000000000000000000000C300000000000000
310
00000000000000000000000000000000000000000000000000000000000000000000000000000000000000000000000000000000000000000000000000000000000000000000000000000000000000000000000000000000000000000000000000000000000000000000000000000000000000000000000000000000000000
310
000000000000000000000000000000000000000000000000000000000000000000000000000000000000000000000000000000C30000000000000000000000000000000000000000000000000000000000000000000000000000000000000000000000000000000000000000000000000000000000000000C3000000000000
310
00000000000000000000000000000000000000000000000000000000000000000000000000000000000000000000000000000000000000000000000000000000000000000000000000000000000000000000000000000000000000000000000000000000000000000000000000000000000000000000000000000000000000
310
000000000000000000000000000000000000000000000000000000000000000000000000000000000000000000000000000000000000C3C300000000000000000000000000000000000000000000000000000000000000000000000000000000000000000000000000000000000000000000000000000000C3C30000000000
310
00000000000000000000000000000000000000000000000000000000000000000000000000000000000000000000000000000000000000000000000000000000000000000000000000000000000000000000000000000000000000000000000000000000000000000000000000000000000000000000000000000000000000
310
00000000000000000000000000000000000000000000000000000000000000000000000000000000000000000000000000000000000000000000C30000000000000000000000000000000000000000000000000000000000000000000000000000000000000000000000000000000000000000000000000000C30000000000
310
00000000000000000000000000000000000000000000000000000000000000000000000000000000000000000000000000000000000000000000000000000000000000000000000000000000000000000000000000000000000000000000000000000000000000000000000000000000000000000000000000000000000000
310
00000000000000000000000000000000000000000000000000000000000000000000000000000000000000000000000000000000000000000000000000C3C3C30000000000000000000000000000000000000000000000000000000000000000000000000000000000000000000000000000000000000000C3C3C300000000
310
00000000000000000000000000000000000000000000000000000000000000000000000000000000000000000000000000000000000000000000000000000000000000000000000000000000000000000000000000000000000000000000000000000000000000000000000000000000000000000000000000000000000000
310
0000000000000000000000000000000000000000000000000000000000000000000000000000000000000000000000000000000000000000000000000000000000C3C3C3C30000000000000000000000000000000000000000000000000000000000000000000000000000000000000000000000000000C3C3C3C300000000
310
00000000000000000000000000000000000000000000000000000000000000000000000000000000000000000000000000000000000000000000000000000000000000000000000000000000000000000000000000000000000000000000000000000000000000000000000000000000000000000000000000000000000000
310
00000000000000000000000000000000000000000000000000000000000000000000000000000000000000000000000000000000000000000000000000000000000000000000C3C3C3C30000000000000000000000000000000000000000000000000000000000000000000000000000000000000000C3C3C3C30000000000
310
00000000000000000000000000000000000000000000000000000000000000000000000000000000000000000000000000000000000000000000000000000000000000000000000000000000000000000000000000000000000000000000000000000000000000000000000000000000000000000000000000000000000000
310
000000000000000000000000000000000000000000000000000000000000000000000000000000000000000000000000000000000000000000000000000000000000000000000000000000C3C3C3C3C3C3C3C3000000000000000000000000000000000000000000000000000000000000C3C3C3C3C3C3C3C3000000000000
310
00000000000000000000000000000000000000000000000000000000000000000000000000000000000000000000000000000000000000000000000000000000000000000000000000000000000000000000000000000000000000000000000000000000000000000000000000000000000000000000000000000000000000
310
00000000000000000000000000000000000000000000000000000000000000000000000000000000000000000000000000000000000000000000000000000000000000000000000000000000000000000000000000C3C3C3C3C3C3C3C3C3C3C3C3C3C3C3C3C3C3C3C3C3C3C3C3C3C3C3C3C3C3000000000000000000000000
310
0000000000000000000000000000000000000000000000000000000000000000000000000000000000000000000000000000000000000000000000000000000000000000000000000000000000000000000000000000000000000000000000000000000000
  0
XRECORD
  5
229D78
102
{ACAD_REACTORS
330
1A
102
}
330
1A
100
AcDbXrecord
280
     1
102
MATERIAL
148
0.0
149
0.0
149
0.0
 93
        0
 94
      127
282
     0
 72
     0
 77
     0
171
     0
175
     0
179
     0
273
     0
  0
XRECORD
  5
1C
102
{ACAD_REACTORS
330
1A
102
}
330
1A
100
AcDbXrecord
280
     1
270
     1
271
     1
  0
XRECORD
  5
1B
102
{ACAD_REACTORS
330
1A
102
}
330
1A
100
AcDbXrecord
280
     1
270
     1
271
     1
  0
XRECORD
  5
1F
102
{ACAD_REACTORS
330
1A
102
}
330
1A
100
AcDbXrecord
280
     1
270
     1
271
     1
  0
XRECORD
  5
1E
102
{ACAD_REACTORS
330
1A
102
}
330
1A
100
AcDbXrecord
280
     1
270
     1
271
     1
  0
XRECORD
  5
20
102
{ACAD_REACTORS
330
1A
102
}
330
1A
100
AcDbXrecord
280
     1
270
     1
271
     1
  0
XRECORD
  5
1D
102
{ACAD_REACTORS
330
1A
102
}
330
1A
100
AcDbXrecord
280
     1
270
     1
271
     1
  0
XRECORD
  5
229D77
102
{ACAD_REACTORS
330
12
102
}
330
12
100
AcDbXrecord
280
     1
102
MATERIAL
148
0.0
149
0.0
149
0.0
 93
        0
 94
      127
282
     0
 72
     0
 77
     0
171
     0
175
     0
179
     0
273
     0
  0
XRECORD
  5
14
102
{ACAD_REACTORS
330
12
102
}
330
12
100
AcDbXrecord
280
     1
270
     1
271
     1
  0
XRECORD
  5
13
102
{ACAD_REACTORS
330
12
102
}
330
12
100
AcDbXrecord
280
     1
270
     1
271
     1
  0
XRECORD
  5
17
102
{ACAD_REACTORS
330
12
102
}
330
12
100
AcDbXrecord
280
     1
270
     1
271
     1
  0
XRECORD
  5
16
102
{ACAD_REACTORS
330
12
102
}
330
12
100
AcDbXrecord
280
     1
270
     1
271
     1
  0
XRECORD
  5
18
102
{ACAD_REACTORS
330
12
102
}
330
12
100
AcDbXrecord
280
     1
270
     1
271
     1
  0
XRECORD
  5
15
102
{ACAD_REACTORS
330
12
102
}
330
12
100
AcDbXrecord
280
     1
270
     1
271
     1
  0
XRECORD
  5
229D79
102
{ACAD_REACTORS
330
22
102
}
330
22
100
AcDbXrecord
280
     1
102
MATERIAL
148
0.0
149
0.0
149
0.0
 93
        0
 94
      127
282
     0
 72
     0
 77
     0
171
     0
175
     0
179
     0
273
     0
  0
XRECORD
  5
24
102
{ACAD_REACTORS
330
22
102
}
330
22
100
AcDbXrecord
280
     1
270
     1
271
     1
  0
XRECORD
  5
23
102
{ACAD_REACTORS
330
22
102
}
330
22
100
AcDbXrecord
280
     1
270
     1
271
     1
  0
XRECORD
  5
27
102
{ACAD_REACTORS
330
22
102
}
330
22
100
AcDbXrecord
280
     1
270
     1
271
     1
  0
XRECORD
  5
26
102
{ACAD_REACTORS
330
22
102
}
330
22
100
AcDbXrecord
280
     1
270
     1
271
     1
  0
XRECORD
  5
28
102
{ACAD_REACTORS
330
22
102
}
330
22
100
AcDbXrecord
280
     1
270
     1
271
     1
  0
XRECORD
  5
25
102
{ACAD_REACTORS
330
22
102
}
330
22
100
AcDbXrecord
280
     1
270
     1
271
     1
  0
CELLSTYLEMAP
  5
22AF8A
102
{ACAD_REACTORS
330
229D73
102
}
330
229D73
100
AcDbCellStyleMap
 90
        3
300
CELLSTYLE
  1
TABLEFORMAT_BEGIN
 90
        5
170
     1
 91
        0
 92
    32768
 62
   257
 93
        1
300
CONTENTFORMAT
  1
CONTENTFORMAT_BEGIN
 90
        0
 91
        0
 92
      512
 93
        0
300

 40
0.0
140
1.0
 94
        5
 62
     0
340
55
144
0.25
309
CONTENTFORMAT_END
171
     1
301
MARGIN
  1
CELLMARGIN_BEGIN
 40
0.06
 40
0.06
 40
0.06
 40
0.06
 40
0.18
 40
0.18
309
CELLMARGIN_END
 94
        6
 95
        1
302
GRIDFORMAT
  1
GRIDFORMAT_BEGIN
 90
        0
 91
        1
 62
     0
 92
       -2
340
0
 93
        0
 40
0.045
309
GRIDFORMAT_END
 95
        2
302
GRIDFORMAT
  1
GRIDFORMAT_BEGIN
 90
        0
 91
        1
 62
     0
 92
       -2
340
0
 93
        0
 40
0.045
309
GRIDFORMAT_END
 95
        4
302
GRIDFORMAT
  1
GRIDFORMAT_BEGIN
 90
        0
 91
        1
 62
     0
 92
       -2
340
0
 93
        0
 40
0.045
309
GRIDFORMAT_END
 95
        8
302
GRIDFORMAT
  1
GRIDFORMAT_BEGIN
 90
        0
 91
        1
 62
     0
 92
       -2
340
0
 93
        0
 40
0.045
309
GRIDFORMAT_END
 95
       16
302
GRIDFORMAT
  1
GRIDFORMAT_BEGIN
 90
        0
 91
        1
 62
     0
 92
       -2
340
0
 93
        0
 40
0.045
309
GRIDFORMAT_END
 95
       32
302
GRIDFORMAT
  1
GRIDFORMAT_BEGIN
 90
        0
 91
        1
 62
     0
 92
       -2
340
0
 93
        0
 40
0.045
309
GRIDFORMAT_END
309
TABLEFORMAT_END
  1
CELLSTYLE_BEGIN
 90
        1
 91
        1
300
_TITLE
309
CELLSTYLE_END
300
CELLSTYLE
  1
TABLEFORMAT_BEGIN
 90
        5
170
     1
 91
        0
 92
        0
 62
   257
 93
        1
300
CONTENTFORMAT
  1
CONTENTFORMAT_BEGIN
 90
        0
 91
        0
 92
      512
 93
        0
300

 40
0.0
140
1.0
 94
        5
 62
     0
340
55
144
0.18
309
CONTENTFORMAT_END
171
     1
301
MARGIN
  1
CELLMARGIN_BEGIN
 40
0.06
 40
0.06
 40
0.06
 40
0.06
 40
0.18
 40
0.18
309
CELLMARGIN_END
 94
        6
 95
        1
302
GRIDFORMAT
  1
GRIDFORMAT_BEGIN
 90
        0
 91
        1
 62
     0
 92
       -2
340
0
 93
        0
 40
0.045
309
GRIDFORMAT_END
 95
        2
302
GRIDFORMAT
  1
GRIDFORMAT_BEGIN
 90
        0
 91
        1
 62
     0
 92
       -2
340
0
 93
        0
 40
0.045
309
GRIDFORMAT_END
 95
        4
302
GRIDFORMAT
  1
GRIDFORMAT_BEGIN
 90
        0
 91
        1
 62
     0
 92
       -2
340
0
 93
        0
 40
0.045
309
GRIDFORMAT_END
 95
        8
302
GRIDFORMAT
  1
GRIDFORMAT_BEGIN
 90
        0
 91
        1
 62
     0
 92
       -2
340
0
 93
        0
 40
0.045
309
GRIDFORMAT_END
 95
       16
302
GRIDFORMAT
  1
GRIDFORMAT_BEGIN
 90
        0
 91
        1
 62
     0
 92
       -2
340
0
 93
        0
 40
0.045
309
GRIDFORMAT_END
 95
       32
302
GRIDFORMAT
  1
GRIDFORMAT_BEGIN
 90
        0
 91
        1
 62
     0
 92
       -2
340
0
 93
        0
 40
0.045
309
GRIDFORMAT_END
309
TABLEFORMAT_END
  1
CELLSTYLE_BEGIN
 90
        2
 91
        1
300
_HEADER
309
CELLSTYLE_END
300
CELLSTYLE
  1
TABLEFORMAT_BEGIN
 90
        5
170
     1
 91
        0
 92
        0
 62
   257
 93
        1
300
CONTENTFORMAT
  1
CONTENTFORMAT_BEGIN
 90
        0
 91
        0
 92
      512
 93
        0
300

 40
0.0
140
1.0
 94
        2
 62
     0
340
55
144
0.18
309
CONTENTFORMAT_END
171
     1
301
MARGIN
  1
CELLMARGIN_BEGIN
 40
0.06
 40
0.06
 40
0.06
 40
0.06
 40
0.18
 40
0.18
309
CELLMARGIN_END
 94
        6
 95
        1
302
GRIDFORMAT
  1
GRIDFORMAT_BEGIN
 90
        0
 91
        1
 62
     0
 92
       -2
340
0
 93
        0
 40
0.045
309
GRIDFORMAT_END
 95
        2
302
GRIDFORMAT
  1
GRIDFORMAT_BEGIN
 90
        0
 91
        1
 62
     0
 92
       -2
340
0
 93
        0
 40
0.045
309
GRIDFORMAT_END
 95
        4
302
GRIDFORMAT
  1
GRIDFORMAT_BEGIN
 90
        0
 91
        1
 62
     0
 92
       -2
340
0
 93
        0
 40
0.045
309
GRIDFORMAT_END
 95
        8
302
GRIDFORMAT
  1
GRIDFORMAT_BEGIN
 90
        0
 91
        1
 62
     0
 92
       -2
340
0
 93
        0
 40
0.045
309
GRIDFORMAT_END
 95
       16
302
GRIDFORMAT
  1
GRIDFORMAT_BEGIN
 90
        0
 91
        1
 62
     0
 92
       -2
340
0
 93
        0
 40
0.045
309
GRIDFORMAT_END
 95
       32
302
GRIDFORMAT
  1
GRIDFORMAT_BEGIN
 90
        0
 91
        1
 62
     0
 92
       -2
340
0
 93
        0
 40
0.045
309
GRIDFORMAT_END
309
TABLEFORMAT_END
  1
CELLSTYLE_BEGIN
 90
        3
 91
        2
300
_DATA
309
CELLSTYLE_END
  0
XRECORD
  5
22AFC2
102
{ACAD_REACTORS
330
229D73
102
}
330
229D73
100
AcDbXrecord
280
     1
102
ACAD_ROUNDTRIP_PRE2007_TABLESTYLE
 90
      512
 91
        0
  1

 92
      512
 93
        0
  2

 94
      512
 95
        0
  3

  0
XRECORD
  5
22AF9D
102
{ACAD_REACTORS
330
22AF9C
102
}
330
22AF9C
100
AcDbXrecord
280
     1
102
RTVSPropertyOp0
 70
     1
102
RTVSPropertyOp1
 70
     1
102
RTVSPropertyOp2
 70
     1
102
RTVSPropertyOp3
 70
     1
102
RTVSPropertyOp4
 70
     1
102
RTVSPropertyOp5
 70
     1
102
RTVSPropertyOp6
 70
     1
102
RTVSPropertyOp7
 70
     1
102
RTVSPropertyOp8
 70
     1
102
RTVSPropertyOp9
 70
     1
102
RTVSPropertyOp10
 70
     1
102
RTVSPropertyOp11
 70
     1
102
RTVSPropertyOp12
 70
     1
102
RTVSPropertyOp13
 70
     1
102
RTVSPropertyOp14
 70
     1
102
RTVSPropertyOp15
 70
     1
102
RTVSPropertyOp16
 70
     1
102
RTVSPropertyOp17
 70
     1
102
RTVSPropertyOp18
 70
     1
102
RTVSPropertyOp19
 70
     1
102
RTVSPropertyOp20
 70
     1
102
RTVSPropertyOp21
 70
     1
102
RTVSPropertyOp22
 70
     1
102
RTVSPropertyOp23
 70
     1
102
RTVSPropertyOp24
 70
     1
102
RTVSPropertyOp25
 70
     1
102
RTVSPropertyOp26
 70
     1
102
RTVSPropertyOp27
 70
     1
102
RTVSPropertyOp28
 70
     1
102
RTVSPropertyOp29
 70
     1
102
RTVSPropertyOp30
 70
     1
102
RTVSPropertyOp31
 70
     1
102
RTVSPropertyOp32
 70
     1
  0
XRECORD
  5
22AFC9
102
{ACAD_REACTORS
330
22AFC8
102
}
330
22AFC8
100
AcDbXrecord
280
     1
102
RTVSPropertyOp0
 70
     1
102
RTVSPropertyOp1
 70
     1
102
RTVSPropertyOp2
 70
     1
102
RTVSPropertyOp3
 70
     1
102
RTVSPropertyOp4
 70
     1
102
RTVSPropertyOp5
 70
     1
102
RTVSPropertyOp6
 70
     1
102
RTVSPropertyOp7
 70
     1
102
RTVSPropertyOp8
 70
     1
102
RTVSPropertyOp9
 70
     1
102
RTVSPropertyOp10
 70
     1
102
RTVSPropertyOp11
 70
     1
102
RTVSPropertyOp12
 70
     1
102
RTVSPropertyOp13
 70
     1
102
RTVSPropertyOp14
 70
     1
102
RTVSPropertyOp15
 70
     1
102
RTVSPropertyOp16
 70
     1
102
RTVSPropertyOp17
 70
     1
102
RTVSPropertyOp18
 70
     1
102
RTVSPropertyOp19
 70
     1
102
RTVSPropertyOp20
 70
     1
102
RTVSPropertyOp21
 70
     1
102
RTVSPropertyOp22
 70
     1
102
RTVSPropertyOp23
 70
     1
102
RTVSPropertyOp24
 70
     1
102
RTVSPropertyOp25
 70
     1
102
RTVSPropertyOp26
 70
     1
102
RTVSPropertyOp27
 70
     1
102
RTVSPropertyOp28
 70
     1
102
RTVSPropertyOp29
 70
     1
102
RTVSPropertyOp30
 70
     1
102
RTVSPropertyOp31
 70
     1
102
RTVSPropertyOp32
 70
     1
  0
XRECORD
  5
22AF9B
102
{ACAD_REACTORS
330
22AF9A
102
}
330
22AF9A
100
AcDbXrecord
280
     1
102
RTVSPropertyOp0
 70
     1
102
RTVSPropertyOp1
 70
     1
102
RTVSPropertyOp2
 70
     1
102
RTVSPropertyOp3
 70
     1
102
RTVSPropertyOp4
 70
     1
102
RTVSPropertyOp5
 70
     1
102
RTVSPropertyOp6
 70
     1
102
RTVSPropertyOp7
 70
     1
102
RTVSPropertyOp8
 70
     1
102
RTVSPropertyOp9
 70
     1
102
RTVSPropertyOp10
 70
     1
102
RTVSPropertyOp11
 70
     1
102
RTVSPropertyOp12
 70
     1
102
RTVSPropertyOp13
 70
     1
102
RTVSPropertyOp14
 70
     1
102
RTVSPropertyOp15
 70
     1
102
RTVSPropertyOp16
 70
     1
102
RTVSPropertyOp17
 70
     1
102
RTVSPropertyOp18
 70
     1
102
RTVSPropertyOp19
 70
     1
102
RTVSPropertyOp20
 70
     1
102
RTVSPropertyOp21
 70
     1
102
RTVSPropertyOp22
 70
     1
102
RTVSPropertyOp23
 70
     1
102
RTVSPropertyOp24
 70
     1
102
RTVSPropertyOp25
 70
     1
102
RTVSPropertyOp26
 70
     1
102
RTVSPropertyOp27
 70
     1
102
RTVSPropertyOp28
 70
     1
102
RTVSPropertyOp29
 70
     1
102
RTVSPropertyOp30
 70
     1
102
RTVSPropertyOp31
 70
     1
102
RTVSPropertyOp32
 70
     1
  0
XRECORD
  5
22AFA9
102
{ACAD_REACTORS
330
22AFA8
102
}
330
22AFA8
100
AcDbXrecord
280
     1
102
RTVSPropertyOp0
 70
     1
102
RTVSPropertyOp1
 70
     1
102
RTVSPropertyOp2
 70
     1
102
RTVSPropertyOp3
 70
     1
102
RTVSPropertyOp4
 70
     1
102
RTVSPropertyOp5
 70
     1
102
RTVSPropertyOp6
 70
     1
102
RTVSPropertyOp7
 70
     1
102
RTVSPropertyOp8
 70
     1
102
RTVSPropertyOp9
 70
     1
102
RTVSPropertyOp10
 70
     1
102
RTVSPropertyOp11
 70
     1
102
RTVSPropertyOp12
 70
     1
102
RTVSPropertyOp13
 70
     1
102
RTVSPropertyOp14
 70
     1
102
RTVSPropertyOp15
 70
     1
102
RTVSPropertyOp16
 70
     1
102
RTVSPropertyOp17
 70
     1
102
RTVSPropertyOp18
 70
     1
102
RTVSPropertyOp19
 70
     1
102
RTVSPropertyOp20
 70
     1
102
RTVSPropertyOp21
 70
     1
102
RTVSPropertyOp22
 70
     1
102
RTVSPropertyOp23
 70
     1
102
RTVSPropertyOp24
 70
     1
102
RTVSPropertyOp25
 70
     1
102
RTVSPropertyOp26
 70
     1
102
RTVSPropertyOp27
 70
     1
102
RTVSPropertyOp28
 70
     1
102
RTVSPropertyOp29
 70
     1
102
RTVSPropertyOp30
 70
     1
102
RTVSPropertyOp31
 70
     1
102
RTVSPropertyOp32
 70
     1
  0
XRECORD
  5
22AFB1
102
{ACAD_REACTORS
330
22AFB0
102
}
330
22AFB0
100
AcDbXrecord
280
     1
102
RTVSPropertyOp0
 70
     1
102
RTVSPropertyOp1
 70
     1
102
RTVSPropertyOp2
 70
     1
102
RTVSPropertyOp3
 70
     1
102
RTVSPropertyOp4
 70
     1
102
RTVSPropertyOp5
 70
     1
102
RTVSPropertyOp6
 70
     1
102
RTVSPropertyOp7
 70
     1
102
RTVSPropertyOp8
 70
     1
102
RTVSPropertyOp9
 70
     1
102
RTVSPropertyOp10
 70
     1
102
RTVSPropertyOp11
 70
     1
102
RTVSPropertyOp12
 70
     1
102
RTVSPropertyOp13
 70
     1
102
RTVSPropertyOp14
 70
     1
102
RTVSPropertyOp15
 70
     1
102
RTVSPropertyOp16
 70
     1
102
RTVSPropertyOp17
 70
     1
102
RTVSPropertyOp18
 70
     1
102
RTVSPropertyOp19
 70
     1
102
RTVSPropertyOp20
 70
     1
102
RTVSPropertyOp21
 70
     1
102
RTVSPropertyOp22
 70
     1
102
RTVSPropertyOp23
 70
     1
102
RTVSPropertyOp24
 70
     1
102
RTVSPropertyOp25
 70
     1
102
RTVSPropertyOp26
 70
     1
102
RTVSPropertyOp27
 70
     1
102
RTVSPropertyOp28
 70
     1
102
RTVSPropertyOp29
 70
     1
102
RTVSPropertyOp30
 70
     1
102
RTVSPropertyOp31
 70
     1
102
RTVSPropertyOp32
 70
     1
  0
XRECORD
  5
22AFA3
102
{ACAD_REACTORS
330
22AFA2
102
}
330
22AFA2
100
AcDbXrecord
280
     1
102
RTVSPropertyOp0
 70
     1
102
RTVSPropertyOp1
 70
     1
102
RTVSPropertyOp2
 70
     1
102
RTVSPropertyOp3
 70
     1
102
RTVSPropertyOp4
 70
     1
102
RTVSPropertyOp5
 70
     1
102
RTVSPropertyOp6
 70
     1
102
RTVSPropertyOp7
 70
     1
102
RTVSPropertyOp8
 70
     1
102
RTVSPropertyOp9
 70
     1
102
RTVSPropertyOp10
 70
     1
102
RTVSPropertyOp11
 70
     1
102
RTVSPropertyOp12
 70
     1
102
RTVSPropertyOp13
 70
     1
102
RTVSPropertyOp14
 70
     1
102
RTVSPropertyOp15
 70
     1
102
RTVSPropertyOp16
 70
     1
102
RTVSPropertyOp17
 70
     1
102
RTVSPropertyOp18
 70
     1
102
RTVSPropertyOp19
 70
     1
102
RTVSPropertyOp20
 70
     1
102
RTVSPropertyOp21
 70
     1
102
RTVSPropertyOp22
 70
     1
102
RTVSPropertyOp23
 70
     1
102
RTVSPropertyOp24
 70
     1
102
RTVSPropertyOp25
 70
     1
102
RTVSPropertyOp26
 70
     1
102
RTVSPropertyOp27
 70
     1
102
RTVSPropertyOp28
 70
     1
102
RTVSPropertyOp29
 70
     1
102
RTVSPropertyOp30
 70
     1
102
RTVSPropertyOp31
 70
     1
102
RTVSPropertyOp32
 70
     1
  0
XRECORD
  5
22AFA7
102
{ACAD_REACTORS
330
22AFA6
102
}
330
22AFA6
100
AcDbXrecord
280
     1
102
RTVSPropertyOp0
 70
     1
102
RTVSPropertyOp1
 70
     1
102
RTVSPropertyOp2
 70
     1
102
RTVSPropertyOp3
 70
     1
102
RTVSPropertyOp4
 70
     1
102
RTVSPropertyOp5
 70
     1
102
RTVSPropertyOp6
 70
     1
102
RTVSPropertyOp7
 70
     1
102
RTVSPropertyOp8
 70
     1
102
RTVSPropertyOp9
 70
     1
102
RTVSPropertyOp10
 70
     1
102
RTVSPropertyOp11
 70
     1
102
RTVSPropertyOp12
 70
     1
102
RTVSPropertyOp13
 70
     1
102
RTVSPropertyOp14
 70
     1
102
RTVSPropertyOp15
 70
     1
102
RTVSPropertyOp16
 70
     1
102
RTVSPropertyOp17
 70
     1
102
RTVSPropertyOp18
 70
     1
102
RTVSPropertyOp19
 70
     1
102
RTVSPropertyOp20
 70
     1
102
RTVSPropertyOp21
 70
     1
102
RTVSPropertyOp22
 70
     1
102
RTVSPropertyOp23
 70
     1
102
RTVSPropertyOp24
 70
     1
102
RTVSPropertyOp25
 70
     1
102
RTVSPropertyOp26
 70
     1
102
RTVSPropertyOp27
 70
     1
102
RTVSPropertyOp28
 70
     1
102
RTVSPropertyOp29
 70
     1
102
RTVSPropertyOp30
 70
     1
102
RTVSPropertyOp31
 70
     1
102
RTVSPropertyOp32
 70
     1
  0
XRECORD
  5
22AFC1
102
{ACAD_REACTORS
330
22AFC0
102
}
330
22AFC0
100
AcDbXrecord
280
     1
102
RTVSPropertyOp0
 70
     0
102
RTVSPropertyOp1
 70
     0
102
RTVSPropertyOp2
 70
     0
102
RTVSPropertyOp3
 70
     0
102
RTVSPropertyOp4
 70
     0
102
RTVSPropertyOp5
 70
     0
102
RTVSPropertyOp6
 70
     0
102
RTVSPropertyOp7
 70
     0
102
RTVSPropertyOp8
 70
     0
102
RTVSPropertyOp9
 70
     0
102
RTVSPropertyOp10
 70
     0
102
RTVSPropertyOp11
 70
     0
102
RTVSPropertyOp12
 70
     0
102
RTVSPropertyOp13
 70
     0
102
RTVSPropertyOp14
 70
     2
102
RTVSPropertyOp15
 70
     0
102
RTVSPropertyOp16
 70
     0
102
RTVSPropertyOp17
 70
     0
102
RTVSPropertyOp18
 70
     0
102
RTVSPropertyOp19
 70
     0
102
RTVSPropertyOp20
 70
     0
102
RTVSPropertyOp21
 70
     0
102
RTVSPropertyOp22
 70
     0
102
RTVSPropertyOp23
 70
     0
102
RTVSPropertyOp24
 70
     0
102
RTVSPropertyOp25
 70
     0
102
RTVSPropertyOp26
 70
     0
102
RTVSPropertyOp27
 70
     0
102
RTVSPropertyOp28
 70
     1
102
RTVSPropertyOp29
 70
     1
102
RTVSPropertyOp30
 70
     1
102
RTVSPropertyOp31
 70
     1
102
RTVSPropertyOp32
 70
     1
  0
XRECORD
  5
22AFAF
102
{ACAD_REACTORS
330
22AFAE
102
}
330
22AFAE
100
AcDbXrecord
280
     1
102
RTVSPropertyOp0
 70
     1
102
RTVSPropertyOp1
 70
     1
102
RTVSPropertyOp2
 70
     1
102
RTVSPropertyOp3
 70
     1
102
RTVSPropertyOp4
 70
     1
102
RTVSPropertyOp5
 70
     1
102
RTVSPropertyOp6
 70
     1
102
RTVSPropertyOp7
 70
     1
102
RTVSPropertyOp8
 70
     1
102
RTVSPropertyOp9
 70
     1
102
RTVSPropertyOp10
 70
     1
102
RTVSPropertyOp11
 70
     1
102
RTVSPropertyOp12
 70
     1
102
RTVSPropertyOp13
 70
     1
102
RTVSPropertyOp14
 70
     1
102
RTVSPropertyOp15
 70
     1
102
RTVSPropertyOp16
 70
     1
102
RTVSPropertyOp17
 70
     1
102
RTVSPropertyOp18
 70
     1
102
RTVSPropertyOp19
 70
     1
102
RTVSPropertyOp20
 70
     1
102
RTVSPropertyOp21
 70
     1
102
RTVSPropertyOp22
 70
     1
102
RTVSPropertyOp23
 70
     1
102
RTVSPropertyOp24
 70
     1
102
RTVSPropertyOp25
 70
     1
102
RTVSPropertyOp26
 70
     1
102
RTVSPropertyOp27
 70
     1
102
RTVSPropertyOp28
 70
     1
102
RTVSPropertyOp29
 70
     1
102
RTVSPropertyOp30
 70
     1
102
RTVSPropertyOp31
 70
     1
102
RTVSPropertyOp32
 70
     1
  0
XRECORD
  5
22AF93
102
{ACAD_REACTORS
330
22AF92
102
}
330
22AF92
100
AcDbXrecord
280
     1
102
RTVSPropertyOp0
 70
     1
102
RTVSPropertyOp1
 70
     1
102
RTVSPropertyOp2
 70
     1
102
RTVSPropertyOp3
 70
     1
102
RTVSPropertyOp4
 70
     1
102
RTVSPropertyOp5
 70
     1
102
RTVSPropertyOp6
 70
     1
102
RTVSPropertyOp7
 70
     1
102
RTVSPropertyOp8
 70
     1
102
RTVSPropertyOp9
 70
     1
102
RTVSPropertyOp10
 70
     1
102
RTVSPropertyOp11
 70
     1
102
RTVSPropertyOp12
 70
     1
102
RTVSPropertyOp13
 70
     1
102
RTVSPropertyOp14
 70
     1
102
RTVSPropertyOp15
 70
     1
102
RTVSPropertyOp16
 70
     1
102
RTVSPropertyOp17
 70
     1
102
RTVSPropertyOp18
 70
     1
102
RTVSPropertyOp19
 70
     1
102
RTVSPropertyOp20
 70
     1
102
RTVSPropertyOp21
 70
     1
102
RTVSPropertyOp22
 70
     1
102
RTVSPropertyOp23
 70
     1
102
RTVSPropertyOp24
 70
     1
102
RTVSPropertyOp25
 70
     1
102
RTVSPropertyOp26
 70
     1
102
RTVSPropertyOp27
 70
     1
102
RTVSPropertyOp28
 70
     1
102
RTVSPropertyOp29
 70
     1
102
RTVSPropertyOp30
 70
     1
102
RTVSPropertyOp31
 70
     1
102
RTVSPropertyOp32
 70
     1
  0
XRECORD
  5
22AF95
102
{ACAD_REACTORS
330
22AF94
102
}
330
22AF94
100
AcDbXrecord
280
     1
102
RTVSPropertyOp0
 70
     1
102
RTVSPropertyOp1
 70
     1
102
RTVSPropertyOp2
 70
     1
102
RTVSPropertyOp3
 70
     1
102
RTVSPropertyOp4
 70
     1
102
RTVSPropertyOp5
 70
     1
102
RTVSPropertyOp6
 70
     1
102
RTVSPropertyOp7
 70
     1
102
RTVSPropertyOp8
 70
     1
102
RTVSPropertyOp9
 70
     1
102
RTVSPropertyOp10
 70
     1
102
RTVSPropertyOp11
 70
     1
102
RTVSPropertyOp12
 70
     1
102
RTVSPropertyOp13
 70
     1
102
RTVSPropertyOp14
 70
     1
102
RTVSPropertyOp15
 70
     1
102
RTVSPropertyOp16
 70
     1
102
RTVSPropertyOp17
 70
     1
102
RTVSPropertyOp18
 70
     1
102
RTVSPropertyOp19
 70
     1
102
RTVSPropertyOp20
 70
     1
102
RTVSPropertyOp21
 70
     1
102
RTVSPropertyOp22
 70
     1
102
RTVSPropertyOp23
 70
     1
102
RTVSPropertyOp24
 70
     1
102
RTVSPropertyOp25
 70
     1
102
RTVSPropertyOp26
 70
     1
102
RTVSPropertyOp27
 70
     1
102
RTVSPropertyOp28
 70
     1
102
RTVSPropertyOp29
 70
     1
102
RTVSPropertyOp30
 70
     1
102
RTVSPropertyOp31
 70
     1
102
RTVSPropertyOp32
 70
     1
  0
XRECORD
  5
22AF97
102
{ACAD_REACTORS
330
22AF96
102
}
330
22AF96
100
AcDbXrecord
280
     1
102
RTVSPropertyOp0
 70
     1
102
RTVSPropertyOp1
 70
     1
102
RTVSPropertyOp2
 70
     1
102
RTVSPropertyOp3
 70
     1
102
RTVSPropertyOp4
 70
     1
102
RTVSPropertyOp5
 70
     1
102
RTVSPropertyOp6
 70
     1
102
RTVSPropertyOp7
 70
     1
102
RTVSPropertyOp8
 70
     1
102
RTVSPropertyOp9
 70
     1
102
RTVSPropertyOp10
 70
     1
102
RTVSPropertyOp11
 70
     1
102
RTVSPropertyOp12
 70
     1
102
RTVSPropertyOp13
 70
     1
102
RTVSPropertyOp14
 70
     1
102
RTVSPropertyOp15
 70
     1
102
RTVSPropertyOp16
 70
     1
102
RTVSPropertyOp17
 70
     1
102
RTVSPropertyOp18
 70
     1
102
RTVSPropertyOp19
 70
     1
102
RTVSPropertyOp20
 70
     1
102
RTVSPropertyOp21
 70
     1
102
RTVSPropertyOp22
 70
     1
102
RTVSPropertyOp23
 70
     1
102
RTVSPropertyOp24
 70
     1
102
RTVSPropertyOp25
 70
     1
102
RTVSPropertyOp26
 70
     1
102
RTVSPropertyOp27
 70
     1
102
RTVSPropertyOp28
 70
     1
102
RTVSPropertyOp29
 70
     1
102
RTVSPropertyOp30
 70
     1
102
RTVSPropertyOp31
 70
     1
102
RTVSPropertyOp32
 70
     1
  0
XRECORD
  5
22AF99
102
{ACAD_REACTORS
330
22AF98
102
}
330
22AF98
100
AcDbXrecord
280
     1
102
RTVSPropertyOp0
 70
     1
102
RTVSPropertyOp1
 70
     1
102
RTVSPropertyOp2
 70
     1
102
RTVSPropertyOp3
 70
     1
102
RTVSPropertyOp4
 70
     1
102
RTVSPropertyOp5
 70
     1
102
RTVSPropertyOp6
 70
     1
102
RTVSPropertyOp7
 70
     1
102
RTVSPropertyOp8
 70
     1
102
RTVSPropertyOp9
 70
     1
102
RTVSPropertyOp10
 70
     1
102
RTVSPropertyOp11
 70
     1
102
RTVSPropertyOp12
 70
     1
102
RTVSPropertyOp13
 70
     1
102
RTVSPropertyOp14
 70
     1
102
RTVSPropertyOp15
 70
     1
102
RTVSPropertyOp16
 70
     1
102
RTVSPropertyOp17
 70
     1
102
RTVSPropertyOp18
 70
     1
102
RTVSPropertyOp19
 70
     1
102
RTVSPropertyOp20
 70
     1
102
RTVSPropertyOp21
 70
     1
102
RTVSPropertyOp22
 70
     1
102
RTVSPropertyOp23
 70
     1
102
RTVSPropertyOp24
 70
     1
102
RTVSPropertyOp25
 70
     1
102
RTVSPropertyOp26
 70
     1
102
RTVSPropertyOp27
 70
     1
102
RTVSPropertyOp28
 70
     1
102
RTVSPropertyOp29
 70
     1
102
RTVSPropertyOp30
 70
     1
102
RTVSPropertyOp31
 70
     1
102
RTVSPropertyOp32
 70
     1
  0
XRECORD
  5
22AFA1
102
{ACAD_REACTORS
330
22AFA0
102
}
330
22AFA0
100
AcDbXrecord
280
     1
102
RTVSPropertyOp0
 70
     1
102
RTVSPropertyOp1
 70
     1
102
RTVSPropertyOp2
 70
     1
102
RTVSPropertyOp3
 70
     1
102
RTVSPropertyOp4
 70
     1
102
RTVSPropertyOp5
 70
     1
102
RTVSPropertyOp6
 70
     1
102
RTVSPropertyOp7
 70
     1
102
RTVSPropertyOp8
 70
     1
102
RTVSPropertyOp9
 70
     1
102
RTVSPropertyOp10
 70
     1
102
RTVSPropertyOp11
 70
     1
102
RTVSPropertyOp12
 70
     1
102
RTVSPropertyOp13
 70
     1
102
RTVSPropertyOp14
 70
     1
102
RTVSPropertyOp15
 70
     1
102
RTVSPropertyOp16
 70
     1
102
RTVSPropertyOp17
 70
     1
102
RTVSPropertyOp18
 70
     1
102
RTVSPropertyOp19
 70
     1
102
RTVSPropertyOp20
 70
     1
102
RTVSPropertyOp21
 70
     1
102
RTVSPropertyOp22
 70
     1
102
RTVSPropertyOp23
 70
     1
102
RTVSPropertyOp24
 70
     1
102
RTVSPropertyOp25
 70
     1
102
RTVSPropertyOp26
 70
     1
102
RTVSPropertyOp27
 70
     1
102
RTVSPropertyOp28
 70
     1
102
RTVSPropertyOp29
 70
     1
102
RTVSPropertyOp30
 70
     1
102
RTVSPropertyOp31
 70
     1
102
RTVSPropertyOp32
 70
     1
  0
XRECORD
  5
22AFBD
102
{ACAD_REACTORS
330
22AFBC
102
}
330
22AFBC
100
AcDbXrecord
280
     1
102
RTVSPropertyOp0
 70
     0
102
RTVSPropertyOp1
 70
     0
102
RTVSPropertyOp2
 70
     0
102
RTVSPropertyOp3
 70
     0
102
RTVSPropertyOp4
 70
     0
102
RTVSPropertyOp5
 70
     0
102
RTVSPropertyOp6
 70
     0
102
RTVSPropertyOp7
 70
     0
102
RTVSPropertyOp8
 70
     0
102
RTVSPropertyOp9
 70
     0
102
RTVSPropertyOp10
 70
     0
102
RTVSPropertyOp11
 70
     0
102
RTVSPropertyOp12
 70
     0
102
RTVSPropertyOp13
 70
     0
102
RTVSPropertyOp14
 70
     2
102
RTVSPropertyOp15
 70
     0
102
RTVSPropertyOp16
 70
     0
102
RTVSPropertyOp17
 70
     0
102
RTVSPropertyOp18
 70
     0
102
RTVSPropertyOp19
 70
     0
102
RTVSPropertyOp20
 70
     0
102
RTVSPropertyOp21
 70
     0
102
RTVSPropertyOp22
 70
     0
102
RTVSPropertyOp23
 70
     0
102
RTVSPropertyOp24
 70
     0
102
RTVSPropertyOp25
 70
     0
102
RTVSPropertyOp26
 70
     0
102
RTVSPropertyOp27
 70
     0
102
RTVSPropertyOp28
 70
     1
102
RTVSPropertyOp29
 70
     1
102
RTVSPropertyOp30
 70
     1
102
RTVSPropertyOp31
 70
     1
102
RTVSPropertyOp32
 70
     1
  0
XRECORD
  5
22AFAD
102
{ACAD_REACTORS
330
22AFAC
102
}
330
22AFAC
100
AcDbXrecord
280
     1
102
RTVSPropertyOp0
 70
     1
102
RTVSPropertyOp1
 70
     1
102
RTVSPropertyOp2
 70
     1
102
RTVSPropertyOp3
 70
     1
102
RTVSPropertyOp4
 70
     1
102
RTVSPropertyOp5
 70
     1
102
RTVSPropertyOp6
 70
     1
102
RTVSPropertyOp7
 70
     1
102
RTVSPropertyOp8
 70
     1
102
RTVSPropertyOp9
 70
     1
102
RTVSPropertyOp10
 70
     1
102
RTVSPropertyOp11
 70
     1
102
RTVSPropertyOp12
 70
     1
102
RTVSPropertyOp13
 70
     1
102
RTVSPropertyOp14
 70
     1
102
RTVSPropertyOp15
 70
     1
102
RTVSPropertyOp16
 70
     1
102
RTVSPropertyOp17
 70
     1
102
RTVSPropertyOp18
 70
     1
102
RTVSPropertyOp19
 70
     1
102
RTVSPropertyOp20
 70
     1
102
RTVSPropertyOp21
 70
     1
102
RTVSPropertyOp22
 70
     1
102
RTVSPropertyOp23
 70
     1
102
RTVSPropertyOp24
 70
     1
102
RTVSPropertyOp25
 70
     1
102
RTVSPropertyOp26
 70
     1
102
RTVSPropertyOp27
 70
     1
102
RTVSPropertyOp28
 70
     1
102
RTVSPropertyOp29
 70
     1
102
RTVSPropertyOp30
 70
     1
102
RTVSPropertyOp31
 70
     1
102
RTVSPropertyOp32
 70
     1
  0
XRECORD
  5
22AFBF
102
{ACAD_REACTORS
330
22AFBE
102
}
330
22AFBE
100
AcDbXrecord
280
     1
102
RTVSPropertyOp0
 70
     0
102
RTVSPropertyOp1
 70
     0
102
RTVSPropertyOp2
 70
     0
102
RTVSPropertyOp3
 70
     0
102
RTVSPropertyOp4
 70
     0
102
RTVSPropertyOp5
 70
     0
102
RTVSPropertyOp6
 70
     0
102
RTVSPropertyOp7
 70
     0
102
RTVSPropertyOp8
 70
     0
102
RTVSPropertyOp9
 70
     0
102
RTVSPropertyOp10
 70
     0
102
RTVSPropertyOp11
 70
     0
102
RTVSPropertyOp12
 70
     0
102
RTVSPropertyOp13
 70
     0
102
RTVSPropertyOp14
 70
     2
102
RTVSPropertyOp15
 70
     0
102
RTVSPropertyOp16
 70
     0
102
RTVSPropertyOp17
 70
     0
102
RTVSPropertyOp18
 70
     0
102
RTVSPropertyOp19
 70
     0
102
RTVSPropertyOp20
 70
     0
102
RTVSPropertyOp21
 70
     0
102
RTVSPropertyOp22
 70
     0
102
RTVSPropertyOp23
 70
     0
102
RTVSPropertyOp24
 70
     0
102
RTVSPropertyOp25
 70
     0
102
RTVSPropertyOp26
 70
     0
102
RTVSPropertyOp27
 70
     0
102
RTVSPropertyOp28
 70
     1
102
RTVSPropertyOp29
 70
     1
102
RTVSPropertyOp30
 70
     1
102
RTVSPropertyOp31
 70
     1
102
RTVSPropertyOp32
 70
     1
  0
XRECORD
  5
22AFA5
102
{ACAD_REACTORS
330
22AFA4
102
}
330
22AFA4
100
AcDbXrecord
280
     1
102
RTVSPropertyOp0
 70
     1
102
RTVSPropertyOp1
 70
     1
102
RTVSPropertyOp2
 70
     1
102
RTVSPropertyOp3
 70
     1
102
RTVSPropertyOp4
 70
     1
102
RTVSPropertyOp5
 70
     1
102
RTVSPropertyOp6
 70
     1
102
RTVSPropertyOp7
 70
     1
102
RTVSPropertyOp8
 70
     1
102
RTVSPropertyOp9
 70
     1
102
RTVSPropertyOp10
 70
     1
102
RTVSPropertyOp11
 70
     1
102
RTVSPropertyOp12
 70
     1
102
RTVSPropertyOp13
 70
     1
102
RTVSPropertyOp14
 70
     1
102
RTVSPropertyOp15
 70
     1
102
RTVSPropertyOp16
 70
     1
102
RTVSPropertyOp17
 70
     1
102
RTVSPropertyOp18
 70
     1
102
RTVSPropertyOp19
 70
     1
102
RTVSPropertyOp20
 70
     1
102
RTVSPropertyOp21
 70
     1
102
RTVSPropertyOp22
 70
     1
102
RTVSPropertyOp23
 70
     1
102
RTVSPropertyOp24
 70
     1
102
RTVSPropertyOp25
 70
     1
102
RTVSPropertyOp26
 70
     1
102
RTVSPropertyOp27
 70
     1
102
RTVSPropertyOp28
 70
     1
102
RTVSPropertyOp29
 70
     1
102
RTVSPropertyOp30
 70
     1
102
RTVSPropertyOp31
 70
     1
102
RTVSPropertyOp32
 70
     1
  0
XRECORD
  5
22AFBB
102
{ACAD_REACTORS
330
22AFBA
102
}
330
22AFBA
100
AcDbXrecord
280
     1
102
RTVSPropertyOp0
 70
     1
102
RTVSPropertyOp1
 70
     1
102
RTVSPropertyOp2
 70
     1
102
RTVSPropertyOp3
 70
     1
102
RTVSPropertyOp4
 70
     1
102
RTVSPropertyOp5
 70
     1
102
RTVSPropertyOp6
 70
     1
102
RTVSPropertyOp7
 70
     1
102
RTVSPropertyOp8
 70
     1
102
RTVSPropertyOp9
 70
     1
102
RTVSPropertyOp10
 70
     1
102
RTVSPropertyOp11
 70
     1
102
RTVSPropertyOp12
 70
     1
102
RTVSPropertyOp13
 70
     1
102
RTVSPropertyOp14
 70
     1
102
RTVSPropertyOp15
 70
     1
102
RTVSPropertyOp16
 70
     1
102
RTVSPropertyOp17
 70
     1
102
RTVSPropertyOp18
 70
     1
102
RTVSPropertyOp19
 70
     1
102
RTVSPropertyOp20
 70
     1
102
RTVSPropertyOp21
 70
     1
102
RTVSPropertyOp22
 70
     1
102
RTVSPropertyOp23
 70
     1
102
RTVSPropertyOp24
 70
     1
102
RTVSPropertyOp25
 70
     1
102
RTVSPropertyOp26
 70
     1
102
RTVSPropertyOp27
 70
     1
102
RTVSPropertyOp28
 70
     1
102
RTVSPropertyOp29
 70
     1
102
RTVSPropertyOp30
 70
     1
102
RTVSPropertyOp31
 70
     1
102
RTVSPropertyOp32
 70
     1
  0
XRECORD
  5
22AFB9
102
{ACAD_REACTORS
330
22AFB8
102
}
330
22AFB8
100
AcDbXrecord
280
     1
102
RTVSPropertyOp0
 70
     1
102
RTVSPropertyOp1
 70
     1
102
RTVSPropertyOp2
 70
     1
102
RTVSPropertyOp3
 70
     1
102
RTVSPropertyOp4
 70
     1
102
RTVSPropertyOp5
 70
     1
102
RTVSPropertyOp6
 70
     1
102
RTVSPropertyOp7
 70
     1
102
RTVSPropertyOp8
 70
     1
102
RTVSPropertyOp9
 70
     1
102
RTVSPropertyOp10
 70
     1
102
RTVSPropertyOp11
 70
     1
102
RTVSPropertyOp12
 70
     1
102
RTVSPropertyOp13
 70
     1
102
RTVSPropertyOp14
 70
     1
102
RTVSPropertyOp15
 70
     1
102
RTVSPropertyOp16
 70
     1
102
RTVSPropertyOp17
 70
     1
102
RTVSPropertyOp18
 70
     1
102
RTVSPropertyOp19
 70
     1
102
RTVSPropertyOp20
 70
     1
102
RTVSPropertyOp21
 70
     1
102
RTVSPropertyOp22
 70
     1
102
RTVSPropertyOp23
 70
     1
102
RTVSPropertyOp24
 70
     1
102
RTVSPropertyOp25
 70
     1
102
RTVSPropertyOp26
 70
     1
102
RTVSPropertyOp27
 70
     1
102
RTVSPropertyOp28
 70
     1
102
RTVSPropertyOp29
 70
     1
102
RTVSPropertyOp30
 70
     1
102
RTVSPropertyOp31
 70
     1
102
RTVSPropertyOp32
 70
     1
  0
XRECORD
  5
22AFB3
102
{ACAD_REACTORS
330
22AFB2
102
}
330
22AFB2
100
AcDbXrecord
280
     1
102
RTVSPropertyOp0
 70
     1
102
RTVSPropertyOp1
 70
     1
102
RTVSPropertyOp2
 70
     1
102
RTVSPropertyOp3
 70
     1
102
RTVSPropertyOp4
 70
     1
102
RTVSPropertyOp5
 70
     1
102
RTVSPropertyOp6
 70
     1
102
RTVSPropertyOp7
 70
     1
102
RTVSPropertyOp8
 70
     1
102
RTVSPropertyOp9
 70
     1
102
RTVSPropertyOp10
 70
     1
102
RTVSPropertyOp11
 70
     1
102
RTVSPropertyOp12
 70
     1
102
RTVSPropertyOp13
 70
     1
102
RTVSPropertyOp14
 70
     1
102
RTVSPropertyOp15
 70
     1
102
RTVSPropertyOp16
 70
     1
102
RTVSPropertyOp17
 70
     1
102
RTVSPropertyOp18
 70
     1
102
RTVSPropertyOp19
 70
     1
102
RTVSPropertyOp20
 70
     1
102
RTVSPropertyOp21
 70
     1
102
RTVSPropertyOp22
 70
     1
102
RTVSPropertyOp23
 70
     1
102
RTVSPropertyOp24
 70
     1
102
RTVSPropertyOp25
 70
     1
102
RTVSPropertyOp26
 70
     1
102
RTVSPropertyOp27
 70
     1
102
RTVSPropertyOp28
 70
     1
102
RTVSPropertyOp29
 70
     1
102
RTVSPropertyOp30
 70
     1
102
RTVSPropertyOp31
 70
     1
102
RTVSPropertyOp32
 70
     1
  0
XRECORD
  5
22AFB5
102
{ACAD_REACTORS
330
22AFB4
102
}
330
22AFB4
100
AcDbXrecord
280
     1
102
RTVSPropertyOp0
 70
     1
102
RTVSPropertyOp1
 70
     1
102
RTVSPropertyOp2
 70
     1
102
RTVSPropertyOp3
 70
     1
102
RTVSPropertyOp4
 70
     1
102
RTVSPropertyOp5
 70
     1
102
RTVSPropertyOp6
 70
     1
102
RTVSPropertyOp7
 70
     1
102
RTVSPropertyOp8
 70
     1
102
RTVSPropertyOp9
 70
     1
102
RTVSPropertyOp10
 70
     1
102
RTVSPropertyOp11
 70
     1
102
RTVSPropertyOp12
 70
     1
102
RTVSPropertyOp13
 70
     1
102
RTVSPropertyOp14
 70
     1
102
RTVSPropertyOp15
 70
     1
102
RTVSPropertyOp16
 70
     1
102
RTVSPropertyOp17
 70
     1
102
RTVSPropertyOp18
 70
     1
102
RTVSPropertyOp19
 70
     1
102
RTVSPropertyOp20
 70
     1
102
RTVSPropertyOp21
 70
     1
102
RTVSPropertyOp22
 70
     1
102
RTVSPropertyOp23
 70
     1
102
RTVSPropertyOp24
 70
     1
102
RTVSPropertyOp25
 70
     1
102
RTVSPropertyOp26
 70
     1
102
RTVSPropertyOp27
 70
     1
102
RTVSPropertyOp28
 70
     1
102
RTVSPropertyOp29
 70
     1
102
RTVSPropertyOp30
 70
     1
102
RTVSPropertyOp31
 70
     1
102
RTVSPropertyOp32
 70
     1
  0
XRECORD
  5
22AFAB
102
{ACAD_REACTORS
330
22AFAA
102
}
330
22AFAA
100
AcDbXrecord
280
     1
102
RTVSPropertyOp0
 70
     1
102
RTVSPropertyOp1
 70
     1
102
RTVSPropertyOp2
 70
     1
102
RTVSPropertyOp3
 70
     1
102
RTVSPropertyOp4
 70
     1
102
RTVSPropertyOp5
 70
     1
102
RTVSPropertyOp6
 70
     1
102
RTVSPropertyOp7
 70
     1
102
RTVSPropertyOp8
 70
     1
102
RTVSPropertyOp9
 70
     1
102
RTVSPropertyOp10
 70
     1
102
RTVSPropertyOp11
 70
     1
102
RTVSPropertyOp12
 70
     1
102
RTVSPropertyOp13
 70
     1
102
RTVSPropertyOp14
 70
     1
102
RTVSPropertyOp15
 70
     1
102
RTVSPropertyOp16
 70
     1
102
RTVSPropertyOp17
 70
     1
102
RTVSPropertyOp18
 70
     1
102
RTVSPropertyOp19
 70
     1
102
RTVSPropertyOp20
 70
     1
102
RTVSPropertyOp21
 70
     1
102
RTVSPropertyOp22
 70
     1
102
RTVSPropertyOp23
 70
     1
102
RTVSPropertyOp24
 70
     1
102
RTVSPropertyOp25
 70
     1
102
RTVSPropertyOp26
 70
     1
102
RTVSPropertyOp27
 70
     1
102
RTVSPropertyOp28
 70
     1
102
RTVSPropertyOp29
 70
     1
102
RTVSPropertyOp30
 70
     1
102
RTVSPropertyOp31
 70
     1
102
RTVSPropertyOp32
 70
     1
  0
XRECORD
  5
22AF9F
102
{ACAD_REACTORS
330
22AF9E
102
}
330
22AF9E
100
AcDbXrecord
280
     1
102
RTVSPropertyOp0
 70
     1
102
RTVSPropertyOp1
 70
     1
102
RTVSPropertyOp2
 70
     1
102
RTVSPropertyOp3
 70
     1
102
RTVSPropertyOp4
 70
     1
102
RTVSPropertyOp5
 70
     1
102
RTVSPropertyOp6
 70
     1
102
RTVSPropertyOp7
 70
     1
102
RTVSPropertyOp8
 70
     1
102
RTVSPropertyOp9
 70
     1
102
RTVSPropertyOp10
 70
     1
102
RTVSPropertyOp11
 70
     1
102
RTVSPropertyOp12
 70
     1
102
RTVSPropertyOp13
 70
     1
102
RTVSPropertyOp14
 70
     1
102
RTVSPropertyOp15
 70
     1
102
RTVSPropertyOp16
 70
     1
102
RTVSPropertyOp17
 70
     1
102
RTVSPropertyOp18
 70
     1
102
RTVSPropertyOp19
 70
     1
102
RTVSPropertyOp20
 70
     1
102
RTVSPropertyOp21
 70
     1
102
RTVSPropertyOp22
 70
     1
102
RTVSPropertyOp23
 70
     1
102
RTVSPropertyOp24
 70
     1
102
RTVSPropertyOp25
 70
     1
102
RTVSPropertyOp26
 70
     1
102
RTVSPropertyOp27
 70
     1
102
RTVSPropertyOp28
 70
     1
102
RTVSPropertyOp29
 70
     1
102
RTVSPropertyOp30
 70
     1
102
RTVSPropertyOp31
 70
     1
102
RTVSPropertyOp32
 70
     1
  0
XRECORD
  5
22AFB7
102
{ACAD_REACTORS
330
22AFB6
102
}
330
22AFB6
100
AcDbXrecord
280
     1
102
RTVSPropertyOp0
 70
     1
102
RTVSPropertyOp1
 70
     1
102
RTVSPropertyOp2
 70
     1
102
RTVSPropertyOp3
 70
     1
102
RTVSPropertyOp4
 70
     1
102
RTVSPropertyOp5
 70
     1
102
RTVSPropertyOp6
 70
     1
102
RTVSPropertyOp7
 70
     1
102
RTVSPropertyOp8
 70
     1
102
RTVSPropertyOp9
 70
     1
102
RTVSPropertyOp10
 70
     1
102
RTVSPropertyOp11
 70
     1
102
RTVSPropertyOp12
 70
     1
102
RTVSPropertyOp13
 70
     1
102
RTVSPropertyOp14
 70
     1
102
RTVSPropertyOp15
 70
     1
102
RTVSPropertyOp16
 70
     1
102
RTVSPropertyOp17
 70
     1
102
RTVSPropertyOp18
 70
     1
102
RTVSPropertyOp19
 70
     1
102
RTVSPropertyOp20
 70
     1
102
RTVSPropertyOp21
 70
     1
102
RTVSPropertyOp22
 70
     1
102
RTVSPropertyOp23
 70
     1
102
RTVSPropertyOp24
 70
     1
102
RTVSPropertyOp25
 70
     1
102
RTVSPropertyOp26
 70
     1
102
RTVSPropertyOp27
 70
     1
102
RTVSPropertyOp28
 70
     1
102
RTVSPropertyOp29
 70
     1
102
RTVSPropertyOp30
 70
     1
102
RTVSPropertyOp31
 70
     1
102
RTVSPropertyOp32
 70
     1
  0
ENDSEC
  0
EOF
