  0
SECTION
  2
HEADER
  9
$ACADVER
  1
AC1015
  9
$ACADMAINTVER
 70
    20
  9
$DWGCODEPAGE
  3
ANSI_1250
  9
$INSBASE
 10
0.0
 20
0.0
 30
0.0
  9
$EXTMIN
 10
35135.53868960372
 20
1493.652093257859
 30
-0.0015258207003583
  9
$EXTMAX
 10
39189.78430212449
 20
5545.711120837708
 30
0.0000000349246037
  9
$LIMMIN
 10
0.0
 20
0.0
  9
$LIMMAX
 10
420.0
 20
297.0
  9
$ORTHOMODE
 70
     1
  9
$REGENMODE
 70
     1
  9
$FILLMODE
 70
     1
  9
$QTEXTMODE
 70
     0
  9
$MIRRTEXT
 70
     0
  9
$LTSCALE
 40
1.0
  9
$ATTMODE
 70
     1
  9
$TEXTSIZE
 40
0.2
  9
$TRACEWID
 40
0.05
  9
$TEXTSTYLE
  7
Standard
  9
$CLAYER
  8
0
  9
$CELTYPE
  6
ByLayer
  9
$CECOLOR
 62
   256
  9
$CELTSCALE
 40
1.0
  9
$DISPSILH
 70
     0
  9
$DIMSCALE
 40
1.0
  9
$DIMASZ
 40
1.799999999999999
  9
$DIMEXO
 40
0.0625
  9
$DIMDLI
 40
0.38
  9
$DIMRND
 40
0.0
  9
$DIMDLE
 40
0.0
  9
$DIMEXE
 40
0.18
  9
$DIMTP
 40
0.0
  9
$DIMTM
 40
0.0
  9
$DIMTXT
 40
0.3499999940395355
  9
$DIMCEN
 40
0.09
  9
$DIMTSZ
 40
0.0
  9
$DIMTOL
 70
     0
  9
$DIMLIM
 70
     0
  9
$DIMTIH
 70
     1
  9
$DIMTOH
 70
     1
  9
$DIMSE1
 70
     0
  9
$DIMSE2
 70
     0
  9
$DIMTAD
 70
     0
  9
$DIMZIN
 70
     0
  9
$DIMBLK
  1

  9
$DIMASO
 70
     1
  9
$DIMSHO
 70
     1
  9
$DIMPOST
  1

  9
$DIMAPOST
  1

  9
$DIMALT
 70
     0
  9
$DIMALTD
 70
     2
  9
$DIMALTF
 40
25.4
  9
$DIMLFAC
 40
1.0
  9
$DIMTOFL
 70
     0
  9
$DIMTVP
 40
0.0
  9
$DIMTIX
 70
     0
  9
$DIMSOXD
 70
     0
  9
$DIMSAH
 70
     0
  9
$DIMBLK1
  1

  9
$DIMBLK2
  1

  9
$DIMSTYLE
  2
Standard
  9
$DIMCLRD
 70
     0
  9
$DIMCLRE
 70
     0
  9
$DIMCLRT
 70
     0
  9
$DIMTFAC
 40
1.0
  9
$DIMGAP
 40
0.09
  9
$DIMJUST
 70
     0
  9
$DIMSD1
 70
     0
  9
$DIMSD2
 70
     0
  9
$DIMTOLJ
 70
     1
  9
$DIMTZIN
 70
     0
  9
$DIMALTZ
 70
     0
  9
$DIMALTTZ
 70
     0
  9
$DIMUPT
 70
     0
  9
$DIMDEC
 70
     4
  9
$DIMTDEC
 70
     4
  9
$DIMALTU
 70
     2
  9
$DIMALTTD
 70
     2
  9
$DIMTXSTY
  7
Standard
  9
$DIMAUNIT
 70
     0
  9
$DIMADEC
 70
     0
  9
$DIMALTRND
 40
0.0
  9
$DIMAZIN
 70
     0
  9
$DIMDSEP
 70
    46
  9
$DIMATFIT
 70
     3
  9
$DIMFRAC
 70
     0
  9
$DIMLDRBLK
  1

  9
$DIMLUNIT
 70
     2
  9
$DIMLWD
 70
    -2
  9
$DIMLWE
 70
    -2
  9
$DIMTMOVE
 70
     0
  9
$LUNITS
 70
     2
  9
$LUPREC
 70
     2
  9
$SKETCHINC
 40
0.1
  9
$FILLETRAD
 40
10.0
  9
$AUNITS
 70
     0
  9
$AUPREC
 70
     0
  9
$MENU
  1
.
  9
$ELEVATION
 40
0.0
  9
$PELEVATION
 40
0.0
  9
$THICKNESS
 40
0.0
  9
$LIMCHECK
 70
     0
  9
$CHAMFERA
 40
0.0
  9
$CHAMFERB
 40
0.0
  9
$CHAMFERC
 40
0.0
  9
$CHAMFERD
 40
0.0
  9
$SKPOLY
 70
     0
  9
$TDCREATE
 40
2458022.861501852
  9
$TDUCREATE
 40
2458022.778168519
  9
$TDUPDATE
 40
2458667.563414445
  9
$TDUUPDATE
 40
2458667.480081111
  9
$TDINDWG
 40
1.5687743981
  9
$TDUSRTIMER
 40
1.5687743981
  9
$USRTIMER
 70
     1
  9
$ANGBASE
 50
0.0
  9
$ANGDIR
 70
     0
  9
$PDMODE
 70
     0
  9
$PDSIZE
 40
0.0
  9
$PLINEWID
 40
0.0
  9
$SPLFRAME
 70
     0
  9
$SPLINETYPE
 70
     6
  9
$SPLINESEGS
 70
     8
  9
$HANDSEED
  5
22FF7D
  9
$SURFTAB1
 70
     6
  9
$SURFTAB2
 70
     6
  9
$SURFTYPE
 70
     6
  9
$SURFU
 70
     6
  9
$SURFV
 70
     6
  9
$UCSBASE
  2

  9
$UCSNAME
  2

  9
$UCSORG
 10
0.0
 20
0.0
 30
0.0
  9
$UCSXDIR
 10
1.0
 20
0.0
 30
0.0
  9
$UCSYDIR
 10
0.0
 20
1.0
 30
0.0
  9
$UCSORTHOREF
  2

  9
$UCSORTHOVIEW
 70
     0
  9
$UCSORGTOP
 10
0.0
 20
0.0
 30
0.0
  9
$UCSORGBOTTOM
 10
0.0
 20
0.0
 30
0.0
  9
$UCSORGLEFT
 10
0.0
 20
0.0
 30
0.0
  9
$UCSORGRIGHT
 10
0.0
 20
0.0
 30
0.0
  9
$UCSORGFRONT
 10
0.0
 20
0.0
 30
0.0
  9
$UCSORGBACK
 10
0.0
 20
0.0
 30
0.0
  9
$PUCSBASE
  2

  9
$PUCSNAME
  2

  9
$PUCSORG
 10
0.0
 20
0.0
 30
0.0
  9
$PUCSXDIR
 10
1.0
 20
0.0
 30
0.0
  9
$PUCSYDIR
 10
0.0
 20
1.0
 30
0.0
  9
$PUCSORTHOREF
  2

  9
$PUCSORTHOVIEW
 70
     0
  9
$PUCSORGTOP
 10
0.0
 20
0.0
 30
0.0
  9
$PUCSORGBOTTOM
 10
0.0
 20
0.0
 30
0.0
  9
$PUCSORGLEFT
 10
0.0
 20
0.0
 30
0.0
  9
$PUCSORGRIGHT
 10
0.0
 20
0.0
 30
0.0
  9
$PUCSORGFRONT
 10
0.0
 20
0.0
 30
0.0
  9
$PUCSORGBACK
 10
0.0
 20
0.0
 30
0.0
  9
$USERI1
 70
     0
  9
$USERI2
 70
     0
  9
$USERI3
 70
     0
  9
$USERI4
 70
     0
  9
$USERI5
 70
     0
  9
$USERR1
 40
0.0
  9
$USERR2
 40
0.0
  9
$USERR3
 40
0.0
  9
$USERR4
 40
0.0
  9
$USERR5
 40
0.0
  9
$WORLDVIEW
 70
     1
  9
$SHADEDGE
 70
     3
  9
$SHADEDIF
 70
    70
  9
$TILEMODE
 70
     1
  9
$MAXACTVP
 70
    64
  9
$PINSBASE
 10
0.0
 20
0.0
 30
0.0
  9
$PLIMCHECK
 70
     0
  9
$PEXTMIN
 10
0.0
 20
0.0
 30
0.0
  9
$PEXTMAX
 10
420.0
 20
297.0
 30
0.0
  9
$PLIMMIN
 10
0.0
 20
0.0
  9
$PLIMMAX
 10
420.0
 20
297.0
  9
$UNITMODE
 70
     0
  9
$VISRETAIN
 70
     1
  9
$PLINEGEN
 70
     0
  9
$PSLTSCALE
 70
     1
  9
$TREEDEPTH
 70
  3020
  9
$CMLSTYLE
  2
Standard
  9
$CMLJUST
 70
     0
  9
$CMLSCALE
 40
1.0
  9
$PROXYGRAPHICS
 70
     1
  9
$MEASUREMENT
 70
     1
  9
$CELWEIGHT
370
    -1
  9
$ENDCAPS
280
     0
  9
$JOINSTYLE
280
     0
  9
$LWDISPLAY
290
     0
  9
$INSUNITS
 70
     4
  9
$HYPERLINKBASE
  1

  9
$STYLESHEET
  1
MONOCHROME.CTB
  9
$XEDIT
290
     1
  9
$CEPSNTYPE
380
     0
  9
$PSTYLEMODE
290
     1
  9
$FINGERPRINTGUID
  2
{EE324C07-26EA-43F5-BF4C-34F6154CD393}
  9
$VERSIONGUID
  2
{96EB28AA-9F7E-4C52-923D-9F4330AFE676}
  9
$EXTNAMES
290
     1
  9
$PSVPSCALE
 40
0.0
  9
$OLESTARTUP
290
     0
  0
ENDSEC
  0
SECTION
  2
CLASSES
  0
CLASS
  1
ACDBDICTIONARYWDFLT
  2
AcDbDictionaryWithDefault
  3
ObjectDBX Classes
 90
        0
280
     0
281
     0
  0
CLASS
  1
MATERIAL
  2
AcDbMaterial
  3
ObjectDBX Classes
 90
     1153
280
     0
281
     0
  0
CLASS
  1
VISUALSTYLE
  2
AcDbVisualStyle
  3
ObjectDBX Classes
 90
     4095
280
     0
281
     0
  0
CLASS
  1
SCALE
  2
AcDbScale
  3
ObjectDBX Classes
 90
     1153
280
     0
281
     0
  0
CLASS
  1
TABLESTYLE
  2
AcDbTableStyle
  3
ObjectDBX Classes
 90
     4095
280
     0
281
     0
  0
CLASS
  1
MLEADERSTYLE
  2
AcDbMLeaderStyle
  3
ACDB_MLEADERSTYLE_CLASS
 90
     4095
280
     0
281
     0
  0
CLASS
  1
DICTIONARYVAR
  2
AcDbDictionaryVar
  3
ObjectDBX Classes
 90
        0
280
     0
281
     0
  0
CLASS
  1
ACME_DOCUMENT
  2
AcMeDbDoc
  3
AcMeServices
 90
     1024
280
     0
281
     0
  0
CLASS
  1
AMGSETTINGSOBJ
  2
AmgSettingsObj
  3
"AcadM|Product Description: AutoCAD Mechanical|Company: Autodesk, Inc."
 90
     1024
280
     0
281
     0
  0
CLASS
  1
ACMESCOPE
  2
AcMeScope
  3
AcMeServices
 90
     1024
280
     0
281
     0
  0
CLASS
  1
ACMECOMMANDHISTORY
  2
AcMeCommandHistory
  3
AcMeServices
 90
     1024
280
     0
281
     0
  0
CLASS
  1
ACIMSYSVARMAN
  2
AcImSysVarManager
  3
AcMeServices
 90
     1024
280
     0
281
     0
  0
CLASS
  1
ACIMINTSYSVAR
  2
AcImIntSysVar
  3
AcMeServices
 90
     1024
280
     0
281
     0
  0
CLASS
  1
ACMESTATEMGR
  2
AcMeStateMgr
  3
AcMeServices
 90
     1024
280
     0
281
     0
  0
CLASS
  1
ACDBENTITYCACHE
  2
AcMeEntityCache
  3
AcMeServices
 90
     1024
280
     0
281
     0
  0
CLASS
  1
ACGREFMASTER
  2
AcGrefMaster
  3
AcAttribServices
 90
     1024
280
     0
281
     0
  0
CLASS
  1
AM_DRAWING_MGR
  2
AcDmDwgMgr
  3
AcMechDwgViewMgmt
 90
     1024
280
     0
281
     0
  0
CLASS
  1
AM_DWG_DOCUMENT
  2
AcDmDwgDocument
  3
AcMechDwgViewMgmt
 90
     1024
280
     0
281
     0
  0
CLASS
  1
AM_DWG_SHEET
  2
AcDmSheet
  3
AcMechDwgViewMgmt
 90
     1024
280
     0
281
     0
  0
CLASS
  1
AM_VIEWDIMPARMAP
  2
AcDmViewDimParMap
  3
AcMechDwgViewMgmt
 90
     1024
280
     0
281
     0
  0
CLASS
  1
AMDTINTERNALREACTOR
  2
AmdtInternalReactor
  3
AcMeServices
 90
     1024
280
     0
281
     0
  0
CLASS
  1
ACIMREALSYSVAR
  2
AcImRealSysVar
  3
AcMeServices
 90
     1024
280
     0
281
     0
  0
CLASS
  1
AM_DWGMGR_NAME
  2
AcDmDwgMgrName
  3
AcMechDwgViewMgmt
 90
     1024
280
     0
281
     0
  0
CLASS
  1
ACME_DATABASE
  2
AcMeDbDatabase
  3
AcMeServices
 90
     1024
280
     0
281
     0
  0
CLASS
  1
ACRFINSADJUSTERMGR
  2
AcRfInsAdjusterMgr
  3
AcMeServices
 90
     1024
280
     0
281
     0
  0
CLASS
  1
ACGREFACADMASTER
  2
AcGrefacadMaster
  3
AcGrefServices
 90
     1024
280
     0
281
     0
  0
CLASS
  1
AMDTMENUSTATEMGR
  2
AmdtMenuStateMgr
  3
McadcomServices
 90
     1024
280
     0
281
     0
  0
CLASS
  1
AMDTMCOMMENUSTATE
  2
AmdtMcomMenuState
  3
McadcomServices
 90
     1024
280
     0
281
     0
  0
CLASS
  1
AMIMASTER
  2
AmiMaster
  3
AmiServices
 90
     1024
280
     0
281
     0
  0
CLASS
  1
MAPIAMMOUDLE
  2
MApiAmModule
  3
MApiAmServices
 90
     1024
280
     0
281
     0
  0
CLASS
  1
ACIMSTRSYSVAR
  2
AcImStrSysVar
  3
AcMeServices
 90
     1024
280
     0
281
     0
  0
CLASS
  1
AMDTDMMENUSTATE
  2
AmdtDmMenuState
  3
AcMechDwgViewMgmt
 90
     1024
280
     0
281
     0
  0
CLASS
  1
AMDTAMMENUSTATE
  2
AmdtAmMenuState
  3
DesignerAssemblies
 90
     1024
280
     0
281
     0
  0
CLASS
  1
ACAMPROJECT
  2
AcAmProject
  3
DesignerAssemblies
 90
     1024
280
     0
281
     0
  0
CLASS
  1
ACAMGRCOMPDEF
  2
AcAmGrCompDef
  3
DesignerAssemblies
 90
     1024
280
     0
281
     0
  0
CLASS
  1
ACAMCOMPDEF
  2
AcAmCompDef
  3
DesignerAssemblies
 90
     1024
280
     0
281
     0
  0
CLASS
  1
ACAMCOMPDEFMGR
  2
AcAmCompDefMgr
  3
DesignerAssemblies
 90
     1024
280
     0
281
     0
  0
CLASS
  1
AMCONTEXTMGR
  2
AcAmContextMgr
  3
DesignerAssemblies
 90
     1024
280
     0
281
     0
  0
CLASS
  1
ACAMCONTEXTMODELER
  2
AcAmContextModeler
  3
DesignerAssemblies
 90
     1024
280
     0
281
     0
  0
CLASS
  1
ACMDATADICTIONARY
  2
AcmDataDictionary
  3
"AcmSymBB|Product Description: AutoCAD Mechanical|Company: Autodesk, Inc."
 90
     1024
280
     0
281
     0
  0
CLASS
  1
ACAMGRCOMPDEFSET
  2
AcAmGrCompDefSet
  3
DesignerAssemblies
 90
     1024
280
     0
281
     0
  0
CLASS
  1
AMDTBROWSERDBTAB
  2
AmdtBrowserDbTab
  3
McadcomServices
 90
     1024
280
     0
281
     0
  0
CLASS
  1
CBROWSERAPPOBJECT
  2
CBrowserAppObject
  3
McadcomServices
 90
     1024
280
     0
281
     0
  0
CLASS
  1
DM_PLACEHOLDER
  2
AcDmSelsetPlaceholder
  3
AcMechDwgViewMgmt
 90
     1024
280
     0
281
     0
  0
CLASS
  1
EXACXREFPANELOBJECT
  2
ExAcXREFPanelObject
  3
EXAC_ESW
 90
     1025
280
     0
281
     0
  0
CLASS
  1
NPOCOLLECTION
  2
AcDbImpNonPersistentObjectsCollection
  3
ObjectDBX Classes
 90
     1153
280
     0
281
     0
  0
CLASS
  1
ACMSTANDARDISO
  2
AcmStandardISO
  3
"Amdt_StdImp|Product Description: AutoCAD Mechanical|Company: Autodesk, Inc."
 90
     1024
280
     0
281
     0
  0
CLASS
  1
AMDTEDGESTANDARDISO13715
  2
AmdtEdgeStdISO13715
  3
"Amdt_StdImp|Product Description: AutoCAD Mechanical|Company: Autodesk, Inc."
 90
     1024
280
     0
281
     0
  0
CLASS
  1
ACMSURFSTANDARDISO2002
  2
AcmSurfTextStdISO2002
  3
"Amdt_StdImp|Product Description: AutoCAD Mechanical|Company: Autodesk, Inc."
 90
     1024
280
     0
281
     0
  0
CLASS
  1
ACMFCFSTANDARDISO
  2
AcmFCFStdISO
  3
"Amdt_StdImp|Product Description: AutoCAD Mechanical|Company: Autodesk, Inc."
 90
     1024
280
     0
281
     0
  0
CLASS
  1
ACMWELDSTANDARDISO
  2
AcmWeldingStdISO
  3
"Amdt_StdImp|Product Description: AutoCAD Mechanical|Company: Autodesk, Inc."
 90
     1024
280
     0
281
     0
  0
CLASS
  1
ACMIDSTANDARDISO
  2
AcmIdStdISO
  3
"Amdt_StdImp|Product Description: AutoCAD Mechanical|Company: Autodesk, Inc."
 90
     1024
280
     0
281
     0
  0
CLASS
  1
ACMDATUMSTANDARDISO
  2
AcmDatumStdISO
  3
"Amdt_StdImp|Product Description: AutoCAD Mechanical|Company: Autodesk, Inc."
 90
     1024
280
     0
281
     0
  0
CLASS
  1
ACMBOMSTANDARDISO
  2
AcmBOMStdISO
  3
"Amdt_StdImp|Product Description: AutoCAD Mechanical|Company: Autodesk, Inc."
 90
     1024
280
     0
281
     0
  0
CLASS
  1
ACMDETAILSTANDARDISO
  2
AmdtDetailSymStdISO
  3
"Amdt_StdImp|Product Description: AutoCAD Mechanical|Company: Autodesk, Inc."
 90
     1024
280
     0
281
     0
  0
CLASS
  1
ACMSECTIONSTANDARDISO2001
  2
AmdtSectionSymStdISO2001
  3
"Amdt_StdImp|Product Description: AutoCAD Mechanical|Company: Autodesk, Inc."
 90
     1024
280
     0
281
     0
  0
CLASS
  1
ACMCENTERLINESTANDARDISO
  2
AmdtCenterLineStdISO
  3
"Amdt_StdImp|Product Description: AutoCAD Mechanical|Company: Autodesk, Inc."
 90
     1024
280
     0
281
     0
  0
CLASS
  1
ACMTHREADLINESTANDARDISO
  2
AmdtThreadLineStdISO
  3
"Amdt_StdImp|Product Description: AutoCAD Mechanical|Company: Autodesk, Inc."
 90
     1024
280
     0
281
     0
  0
CLASS
  1
ACMNOTESTANDARDISO
  2
AmdtNoteStdISO
  3
"Amdt_StdImp|Product Description: AutoCAD Mechanical|Company: Autodesk, Inc."
 90
     1024
280
     0
281
     0
  0
CLASS
  1
ACMTAPERSTANDARDISO
  2
AcmTaperStdISO
  3
"Amdt_StdImp|Product Description: AutoCAD Mechanical|Company: Autodesk, Inc."
 90
     1024
280
     0
281
     0
  0
CLASS
  1
ACMANOOTATIONVIEWSTANDARDISO
  2
AmdtAnViewStdISO
  3
"Amdt_StdImp|Product Description: AutoCAD Mechanical|Company: Autodesk, Inc."
 90
     1024
280
     0
281
     0
  0
CLASS
  1
ACAMGLAYSTD
  2
AcAmgLayStd
  3
"AmgLay|Product Description: AutoCAD Mechanical|Company: Autodesk, Inc."
 90
     1024
280
     0
281
     0
  0
CLASS
  1
ACAMGDIMSTD
  2
AcAmgDimStd
  3
"AmgDim|Product Description: AutoCAD Mechanical|Company: Autodesk, Inc."
 90
     1024
280
     0
281
     0
  0
CLASS
  1
AMGOBJPROPCFG
  2
AmgObjPropCfg
  3
"AmgLay|Product Description: AutoCAD Mechanical|Company: Autodesk, Inc."
 90
     1025
280
     0
281
     0
  0
CLASS
  1
ACAMGHOLECHARTSTDISO
  2
AcAmgHoleChartStdISO
  3
AmgDim|Product Description: AutoCAD Mechanical|Company: Autodesk, Inc.
 90
     1024
280
     0
281
     0
  0
CLASS
  1
ACAMGTITLESTD
  2
AcAmgTitleStd
  3
"AmgTitle|Product Description: AutoCAD Mechanical|Company: Autodesk, Inc."
 90
     4095
280
     0
281
     0
  0
CLASS
  1
AMDTNOTETEMPLATEDB
  2
AmdtNoteTemplateDB
  3
AcmSymBB|Product Description: AutoCAD Mechanical|Company: Autodesk, Inc.
 90
     1024
280
     0
281
     0
  0
CLASS
  1
ACAMGFILTERDAT
  2
AcAmgFilterDat
  3
"AcadM|Product Description: AutoCAD Mechanical|Company: Autodesk, Inc."
 90
    33792
280
     0
281
     0
  0
CLASS
  1
CAMSSTRUCTBTNSTATE
  2
StructBtnState
  3
DesignerAssemblies
 90
     1024
280
     0
281
     0
  0
CLASS
  1
SORTENTSTABLE
  2
AcDbSortentsTable
  3
ObjectDBX Classes
 90
        0
280
     0
281
     0
  0
CLASS
  1
CELLSTYLEMAP
  2
AcDbCellStyleMap
  3
ObjectDBX Classes
 90
     1152
280
     0
281
     0
  0
CLASS
  1
ACDBPLACEHOLDER
  2
AcDbPlaceHolder
  3
ObjectDBX Classes
 90
        0
280
     0
281
     0
  0
CLASS
  1
LAYOUT
  2
AcDbLayout
  3
ObjectDBX Classes
 90
        0
280
     0
281
     0
  0
ENDSEC
  0
SECTION
  2
TABLES
  0
TABLE
  2
VPORT
  5
8
330
0
100
AcDbSymbolTable
 70
     1
  0
VPORT
  5
57
330
8
100
AcDbSymbolTableRecord
100
AcDbViewportTableRecord
  2
*Active
 70
     0
 10
0.0
 20
0.0
 11
1.0
 21
1.0
 12
37162.66149586411
 22
3519.681607047784
 13
0.0
 23
0.0
 14
1.0
 24
1.0
 15
0.0
 25
0.0
 16
0.0
 26
0.0
 36
1.0
 17
0.0
 27
0.0
 37
0.0
 40
4082.260709772991
 41
2.837064676616915
 42
50.0
 43
0.0
 44
0.0
 50
0.0
 51
0.0
 71
     0
 72
   100
 73
     1
 74
     1
 75
     0
 76
     0
 77
     0
 78
     0
281
     0
 65
     0
110
0.0
120
0.0
130
0.0
111
1.0
121
0.0
131
0.0
112
0.0
122
1.0
132
0.0
 79
     0
146
0.0
  0
ENDTAB
  0
TABLE
  2
LTYPE
  5
5
330
0
100
AcDbSymbolTable
 70
    14
  0
LTYPE
  5
5B
330
5
100
AcDbSymbolTableRecord
100
AcDbLinetypeTableRecord
  2
ByBlock
 70
     0
  3

 72
    65
 73
     0
 40
0.0
  0
LTYPE
  5
5C
330
5
100
AcDbSymbolTableRecord
100
AcDbLinetypeTableRecord
  2
ByLayer
 70
     0
  3

 72
    65
 73
     0
 40
0.0
  0
LTYPE
  5
5D
330
5
100
AcDbSymbolTableRecord
100
AcDbLinetypeTableRecord
  2
Continuous
 70
     0
  3
Solid line
 72
    65
 73
     0
 40
0.0
  0
LTYPE
  5
86
330
5
100
AcDbSymbolTableRecord
100
AcDbLinetypeTableRecord
  2
CENTER
 70
     0
  3
Center ____ _ ____ _ ____ _ ____ _ ____ _ ____
 72
    65
 73
     4
 40
50.8
 49
31.75
 74
     0
 49
-6.349999999999997
 74
     0
 49
6.349999999999997
 74
     0
 49
-6.349999999999997
 74
     0
  0
LTYPE
  5
93
330
5
100
AcDbSymbolTableRecord
100
AcDbLinetypeTableRecord
  2
HIDDEN
 70
     0
  3
Hidden __ __ __ __ __ __ __ __ __ __ __ __ __ _
 72
    65
 73
     2
 40
9.524999999999996
 49
6.349999999999997
 74
     0
 49
-3.174999999999998
 74
     0
  0
LTYPE
  5
97
330
5
100
AcDbSymbolTableRecord
100
AcDbLinetypeTableRecord
  2
PHANTOM2
 70
     0
  3
Phantom (.5x) ___ _ _ ___ _ _ ___ _ _ ___ _ _
 72
    65
 73
     6
 40
31.75
 49
15.875
 74
     0
 49
-3.174999999999998
 74
     0
 49
3.174999999999998
 74
     0
 49
-3.174999999999998
 74
     0
 49
3.174999999999998
 74
     0
 49
-3.174999999999998
 74
     0
  0
LTYPE
  5
22E32
330
5
100
AcDbSymbolTableRecord
100
AcDbLinetypeTableRecord
  2
AM_ISO02W050
 70
     0
  3
__ __ __ __ __ __ __ __ __ __ __ __ __ __ __
 72
    65
 73
     2
 40
7.5
 49
6.0
 74
     0
 49
-1.5
 74
     0
  0
LTYPE
  5
22E33
330
5
100
AcDbSymbolTableRecord
100
AcDbLinetypeTableRecord
  2
AM_ISO08W050
 70
     0
  3
____ . ____ . ____ . ____ . ____ . ____ . ____
 72
    65
 73
     4
 40
18.0
 49
12.0
 74
     0
 49
-1.5
 74
     0
 49
3.0
 74
     0
 49
-1.5
 74
     0
  0
LTYPE
  5
22E34
330
5
100
AcDbSymbolTableRecord
100
AcDbLinetypeTableRecord
  2
AM_ISO09W050
 70
     0
  3
_____ . . _____ . . _____ . . ____ .. ____
 72
    65
 73
     6
 40
22.5
 49
12.0
 74
     0
 49
-1.5
 74
     0
 49
3.0
 74
     0
 49
-1.5
 74
     0
 49
3.0
 74
     0
 49
-1.5
 74
     0
  0
LTYPE
  5
22E35
330
5
100
AcDbSymbolTableRecord
100
AcDbLinetypeTableRecord
  2
Amconstr
 70
     0
  3
_______________________
 72
    65
 73
     2
 40
9999.0
 49
9999.0
 74
     0
 49
0.0
 74
     0
  0
LTYPE
  5
22E36
330
5
100
AcDbSymbolTableRecord
100
AcDbLinetypeTableRecord
  2
AM_ISO08W050x2
 70
     0
  3
__ . __ . __ . __ . __ . __
 72
    65
 73
     4
 40
9.0
 49
6.0
 74
     0
 49
-0.75
 74
     0
 49
1.5
 74
     0
 49
-0.75
 74
     0
  0
LTYPE
  5
22E37
330
5
100
AcDbSymbolTableRecord
100
AcDbLinetypeTableRecord
  2
AM_ISO02W050x2
 70
     0
  3
 _ _ _ _ _ _ _ _ _ _ _ _
 72
    65
 73
     2
 40
3.75
 49
3.0
 74
     0
 49
-0.75
 74
     0
  0
LTYPE
  5
22E3A
330
5
100
AcDbSymbolTableRecord
100
AcDbLinetypeTableRecord
  2
Amzigzag
 70
     0
  3
/\/-/\/-/\/-/\/-/\/-/\/
 72
    65
 73
     2
 40
11.0001
 49
0.0001
 74
     4
 75
   136
340
22E39
 46
0.04
 50
0.0
 44
0.0
 45
0.0
 49
-11.0
 74
     0
  0
LTYPE
  5
22E49
330
5
100
AcDbSymbolTableRecord
100
AcDbLinetypeTableRecord
  2
ACISOWELD
 70
     0
  3
_ _ _ _ _
 72
    65
 73
     2
 40
2.0
 49
2.0
 74
     0
 49
-1.0
 74
     0
  0
LTYPE
  5
22E4A
330
5
100
AcDbSymbolTableRecord
100
AcDbLinetypeTableRecord
  2
ACISOTGB
 70
     0
  3
__ . . __ . .
 72
    65
 73
     6
 40
9.0
 49
4.0
 74
     0
 49
-1.0
 74
     0
 49
1.0
 74
     0
 49
-1.0
 74
     0
 49
1.0
 74
     0
 49
-1.0
 74
     0
  0
LTYPE
  5
22E4B
330
5
100
AcDbSymbolTableRecord
100
AcDbLinetypeTableRecord
  2
ACISOTGL
 70
     0
  3
_ _ _ _ _
 72
    65
 73
     2
 40
3.0
 49
2.0
 74
     0
 49
-1.0
 74
     0
  0
ENDTAB
  0
TABLE
  2
LAYER
  5
2
102
{ACAD_XDICTIONARY
360
22E5D
102
}
330
0
100
AcDbSymbolTable
 70
     3
  0
LAYER
  5
54
330
2
100
AcDbSymbolTableRecord
100
AcDbLayerTableRecord
  2
0
 70
     0
 62
     7
  6
Continuous
370
    -3
390
F
  0
LAYER
  5
C4
330
2
100
AcDbSymbolTableRecord
100
AcDbLayerTableRecord
  2
Widoczne (ISO)
 70
     0
 62
     7
  6
Continuous
370
    50
390
F
  0
LAYER
  5
22CA6
330
2
100
AcDbSymbolTableRecord
100
AcDbLayerTableRecord
  2
Defpoints
 70
     0
 62
     7
  6
Continuous
290
     0
370
    -3
390
F
  0
ENDTAB
  0
TABLE
  2
STYLE
  5
3
330
0
100
AcDbSymbolTable
 70
     3
  0
STYLE
  5
55
330
3
100
AcDbSymbolTableRecord
100
AcDbTextStyleTableRecord
  2
Standard
 70
     0
 40
0.0
 41
1.0
 50
0.0
 71
     0
 42
0.2
  3
tahoma.ttf
  4

1001
ACAD
1000
Tahoma
1071
      256
  0
STYLE
  5
22E39
330
3
100
AcDbSymbolTableRecord
100
AcDbTextStyleTableRecord
  2

 70
     1
 40
0.0
 41
1.0
 50
0.0
 71
     0
 42
0.2
  3
genltshp.shx
  4

  0
STYLE
  5
22E48
330
3
100
AcDbSymbolTableRecord
100
AcDbTextStyleTableRecord
  2
ACISOGDT
 70
     0
 40
0.0
 41
1.0
 50
0.0
 71
     0
 42
0.2
  3
amgdt.shx
  4

  0
ENDTAB
  0
TABLE
  2
VIEW
  5
6
330
0
100
AcDbSymbolTable
 70
     0
  0
ENDTAB
  0
TABLE
  2
UCS
  5
7
330
0
100
AcDbSymbolTable
 70
     0
  0
ENDTAB
  0
TABLE
  2
APPID
  5
9
330
0
100
AcDbSymbolTable
 70
    32
  0
APPID
  5
56
330
9
100
AcDbSymbolTableRecord
100
AcDbRegAppTableRecord
  2
ACAD
 70
     0
  0
APPID
  5
5E
330
9
100
AcDbSymbolTableRecord
100
AcDbRegAppTableRecord
  2
AcadAnnotative
 70
     0
  0
APPID
  5
15C
330
9
100
AcDbSymbolTableRecord
100
AcDbRegAppTableRecord
  2
AcadAnnoPO
 70
     0
  0
APPID
  5
22DC8
330
9
100
AcDbSymbolTableRecord
100
AcDbRegAppTableRecord
  2
MCAD_NO_VIS
 70
     0
  0
APPID
  5
22DC9
330
9
100
AcDbSymbolTableRecord
100
AcDbRegAppTableRecord
  2
ACAD_TEMP_GRAPHIC
 70
     0
  0
APPID
  5
22DF4
330
9
100
AcDbSymbolTableRecord
100
AcDbRegAppTableRecord
  2
AD_DRAW
 70
     0
  0
APPID
  5
22DF7
330
9
100
AcDbSymbolTableRecord
100
AcDbRegAppTableRecord
  2
ACATTRIBSERVICES
 70
     0
  0
APPID
  5
22E10
330
9
100
AcDbSymbolTableRecord
100
AcDbRegAppTableRecord
  2
DESIGNERASSEMBLIES
 70
     0
  0
APPID
  5
22E15
330
9
100
AcDbSymbolTableRecord
100
AcDbRegAppTableRecord
  2
ACADM_DIM_EDIT
 70
     0
  0
APPID
  5
22E16
330
9
100
AcDbSymbolTableRecord
100
AcDbRegAppTableRecord
  2
AMDT_DM_ADJ
 70
     0
  0
APPID
  5
22E2F
330
9
100
AcDbSymbolTableRecord
100
AcDbRegAppTableRecord
  2
ACAD_DSTYLE_DIMJAG
 70
     0
  0
APPID
  5
22E30
330
9
100
AcDbSymbolTableRecord
100
AcDbRegAppTableRecord
  2
ACAD_DSTYLE_DIMBREAK
 70
     0
  0
APPID
  5
22E7B
330
9
100
AcDbSymbolTableRecord
100
AcDbRegAppTableRecord
  2
AcAecLayerStandard
 70
     0
  0
APPID
  5
22E98
330
9
100
AcDbSymbolTableRecord
100
AcDbRegAppTableRecord
  2
ACAD_DSTYLE_DIMINSPECT
 70
     0
  0
APPID
  5
22EAE
330
9
100
AcDbSymbolTableRecord
100
AcDbRegAppTableRecord
  2
GENIUS_GENDTOL_13
 70
     0
  0
APPID
  5
22EAF
330
9
100
AcDbSymbolTableRecord
100
AcDbRegAppTableRecord
  2
ACAD_EXEMPT_FROM_CAD_STANDARDS
 70
     0
  0
APPID
  5
22EE2
330
9
100
AcDbSymbolTableRecord
100
AcDbRegAppTableRecord
  2
ACAD_PSEXT
 70
     0
  0
APPID
  5
22EE3
330
9
100
AcDbSymbolTableRecord
100
AcDbRegAppTableRecord
  2
ACAD_NAV_VCDISPLAY
 70
     0
  0
APPID
  5
2D66B
330
9
100
AcDbSymbolTableRecord
100
AcDbRegAppTableRecord
  2
GENIUS_GENODEF_13
 70
     0
  0
APPID
  5
2D66C
330
9
100
AcDbSymbolTableRecord
100
AcDbRegAppTableRecord
  2
GENIUS_GENOBJ-N-FIL_13
 70
     0
  0
APPID
  5
7909A
330
9
100
AcDbSymbolTableRecord
100
AcDbRegAppTableRecord
  2
GENIUS_GENOBJ-N-HTC_13
 70
     0
  0
APPID
  5
7909B
330
9
100
AcDbSymbolTableRecord
100
AcDbRegAppTableRecord
  2
GENIUS_GENHATCH_13
 70
     0
  0
APPID
  5
79290
330
9
100
AcDbSymbolTableRecord
100
AcDbRegAppTableRecord
  2
GRADIENTCOLOR1ACI
 70
     0
  0
APPID
  5
79291
330
9
100
AcDbSymbolTableRecord
100
AcDbRegAppTableRecord
  2
GRADIENTCOLOR2ACI
 70
     0
  0
APPID
  5
CEBC3
330
9
100
AcDbSymbolTableRecord
100
AcDbRegAppTableRecord
  2
GENIUS_GENREC_14
 70
     0
  0
APPID
  5
CEBC4
330
9
100
AcDbSymbolTableRecord
100
AcDbRegAppTableRecord
  2
GENIUS_GENOBJ-N-REC_13
 70
     0
  0
APPID
  5
1A6BF3
330
9
100
AcDbSymbolTableRecord
100
AcDbRegAppTableRecord
  2
ACAD_DSTYLE_DIMRADIAL_EXTENSION
 70
     0
  0
APPID
  5
21D500
330
9
100
AcDbSymbolTableRecord
100
AcDbRegAppTableRecord
  2
ACAD_MLEADERVER
 70
     0
  0
APPID
  5
21D506
330
9
100
AcDbSymbolTableRecord
100
AcDbRegAppTableRecord
  2
ACAD_DSTYLE_DIMARC_LENGTH_SYMBOL
 70
     0
  0
APPID
  5
21D507
330
9
100
AcDbSymbolTableRecord
100
AcDbRegAppTableRecord
  2
ACAD_DSTYLE_DIM_LINETYPE
 70
     0
  0
APPID
  5
21D508
330
9
100
AcDbSymbolTableRecord
100
AcDbRegAppTableRecord
  2
ACAD_DSTYLE_DIM_EXT1_LINETYPE
 70
     0
  0
APPID
  5
21D509
330
9
100
AcDbSymbolTableRecord
100
AcDbRegAppTableRecord
  2
ACAD_DSTYLE_DIM_EXT2_LINETYPE
 70
     0
  0
ENDTAB
  0
TABLE
  2
DIMSTYLE
  5
A
330
0
100
AcDbSymbolTable
 70
     8
100
AcDbDimStyleTable
 71
     1
340
58
  0
DIMSTYLE
105
58
330
A
100
AcDbSymbolTableRecord
100
AcDbDimStyleTableRecord
  2
Standard
 70
     0
340
55
  0
DIMSTYLE
105
22E2E
102
{ACAD_REACTORS
330
21D808
102
}
330
A
100
AcDbSymbolTableRecord
100
AcDbDimStyleTableRecord
  2
AM_ISO
 70
     0
  4
"
 41
3.5
 42
1.0
 43
10.0
 44
1.0
 47
0.1
 48
0.1
 73
     0
 74
     0
 77
     1
 78
     8
 79
     2
140
3.5
141
0.0
143
0.0393701
146
0.71
147
1.5
172
     1
176
   256
177
   256
178
     2
271
     2
272
     3
274
     4
283
     0
284
     8
340
55
371
    -1
372
    -1
1001
ACAD_DSTYLE_DIMJAG
1070
   388
1040
1.5
1001
ACAD_DSTYLE_DIMBREAK
1070
   391
1040
3.75
1001
ACAD_DSTYLE_DIMARC_LENGTH_SYMBOL
1070
   379
1070
     1
1001
ACAD_DSTYLE_DIM_LINETYPE
1070
   380
1005
5B
1001
ACAD_DSTYLE_DIM_EXT1_LINETYPE
1070
   381
1005
5B
1001
ACAD_DSTYLE_DIM_EXT2_LINETYPE
1070
   382
1005
5B
  0
DIMSTYLE
105
22E3B
330
A
100
AcDbSymbolTableRecord
100
AcDbDimStyleTableRecord
  2
AM_ISO$3
 70
     0
  4
"
 41
3.5
 42
1.0
 43
10.0
 44
1.0
 47
0.1
 48
0.1
 73
     0
 77
     1
 78
     8
 79
     2
140
3.5
141
0.0
143
0.0393701
146
0.71
147
1.5
176
   256
177
   256
178
     2
271
     2
272
     3
274
     4
283
     0
284
     8
288
     1
289
     0
340
55
371
    -1
372
    -1
1001
ACAD_DSTYLE_DIMBREAK
1070
   391
1040
3.75
1001
ACAD_DSTYLE_DIMJAG
1070
   388
1040
1.5
1001
ACAD_DSTYLE_DIMARC_LENGTH_SYMBOL
1070
   379
1070
     1
1001
ACAD_DSTYLE_DIM_LINETYPE
1070
   380
1005
5B
1001
ACAD_DSTYLE_DIM_EXT1_LINETYPE
1070
   381
1005
5B
1001
ACAD_DSTYLE_DIM_EXT2_LINETYPE
1070
   382
1005
5B
  0
DIMSTYLE
105
22E3C
330
A
100
AcDbSymbolTableRecord
100
AcDbDimStyleTableRecord
  2
AM_ISO$4
 70
     0
  4
"
 41
3.5
 42
1.0
 43
10.0
 44
1.0
 47
0.1
 48
0.1
 73
     0
 77
     1
 78
     8
 79
     2
140
3.5
141
0.0
143
0.0393701
146
0.71
147
1.5
176
   256
177
   256
178
     2
271
     2
272
     3
274
     4
283
     0
284
     8
288
     1
289
     0
340
55
371
    -1
372
    -1
1001
ACAD_DSTYLE_DIMBREAK
1070
   391
1040
3.75
1001
ACAD_DSTYLE_DIMJAG
1070
   388
1040
1.5
1001
ACAD_DSTYLE_DIMARC_LENGTH_SYMBOL
1070
   379
1070
     1
1001
ACAD_DSTYLE_DIM_LINETYPE
1070
   380
1005
5B
1001
ACAD_DSTYLE_DIM_EXT1_LINETYPE
1070
   381
1005
5B
1001
ACAD_DSTYLE_DIM_EXT2_LINETYPE
1070
   382
1005
5B
  0
DIMSTYLE
105
22E3D
330
A
100
AcDbSymbolTableRecord
100
AcDbDimStyleTableRecord
  2
AM_ISO$6
 70
     0
  4
"
 41
3.5
 42
1.0
 43
10.0
 44
1.0
 47
0.1
 48
0.1
 73
     0
 74
     0
 78
     8
 79
     2
140
3.5
141
0.0
143
0.0393701
146
0.71
147
1.5
172
     1
176
   256
177
   256
178
     2
271
     2
272
     3
274
     4
283
     0
284
     8
340
55
371
    -1
372
    -1
1001
ACAD_DSTYLE_DIMBREAK
1070
   391
1040
3.75
1001
ACAD_DSTYLE_DIMJAG
1070
   388
1040
1.5
1001
ACAD_DSTYLE_DIMARC_LENGTH_SYMBOL
1070
   379
1070
     1
1001
ACAD_DSTYLE_DIM_LINETYPE
1070
   380
1005
5B
1001
ACAD_DSTYLE_DIM_EXT1_LINETYPE
1070
   381
1005
5B
1001
ACAD_DSTYLE_DIM_EXT2_LINETYPE
1070
   382
1005
5B
  0
DIMSTYLE
105
22E3E
330
A
100
AcDbSymbolTableRecord
100
AcDbDimStyleTableRecord
  2
AM_ISO$7
 70
     0
  4
"
 41
3.5
 42
1.0
 43
10.0
 44
1.0
 47
0.1
 48
0.1
 73
     0
 74
     0
 77
     1
 78
     8
 79
     2
140
3.5
141
0.0
143
0.0393701
146
0.71
147
1.5
172
     1
176
   256
177
   256
178
     2
271
     2
272
     3
274
     4
283
     0
284
     8
340
55
371
    -1
372
    -1
1001
ACAD_DSTYLE_DIMBREAK
1070
   391
1040
3.75
1001
ACAD_DSTYLE_DIMJAG
1070
   388
1040
1.5
1001
ACAD_DSTYLE_DIMARC_LENGTH_SYMBOL
1070
   379
1070
     1
1001
ACAD_DSTYLE_DIM_LINETYPE
1070
   380
1005
5B
1001
ACAD_DSTYLE_DIM_EXT1_LINETYPE
1070
   381
1005
5B
1001
ACAD_DSTYLE_DIM_EXT2_LINETYPE
1070
   382
1005
5B
  0
DIMSTYLE
105
22E3F
330
A
100
AcDbSymbolTableRecord
100
AcDbDimStyleTableRecord
  2
AM_ISO$SF
 70
     0
  4
"
 41
3.5
 42
1.0
 43
10.0
 44
1.0
 47
0.1
 48
0.1
 73
     0
 74
     0
 75
     1
 76
     1
 77
     1
 78
     8
 79
     2
140
3.5
141
0.0
143
0.0393701
146
0.71
147
1.5
172
     1
176
   256
177
   256
178
     2
271
     2
272
     3
274
     4
283
     0
284
     8
340
55
371
    -1
372
    -1
1001
ACAD_DSTYLE_DIMBREAK
1070
   391
1040
3.75
1001
ACAD_DSTYLE_DIMJAG
1070
   388
1040
1.5
1001
ACAD_DSTYLE_DIMARC_LENGTH_SYMBOL
1070
   379
1070
     1
1001
ACAD_DSTYLE_DIM_LINETYPE
1070
   380
1005
5B
1001
ACAD_DSTYLE_DIM_EXT1_LINETYPE
1070
   381
1005
5B
1001
ACAD_DSTYLE_DIM_EXT2_LINETYPE
1070
   382
1005
5B
  0
DIMSTYLE
105
22E44
330
A
100
AcDbSymbolTableRecord
100
AcDbDimStyleTableRecord
  2
AM_ISO$SH
 70
     0
  4
"
 41
3.5
 42
1.0
 43
10.0
 44
1.0
 47
0.1
 48
0.1
 73
     0
 74
     0
 75
     1
 76
     1
 77
     1
 78
     8
 79
     2
140
3.5
141
0.0
143
0.0393701
144
2.0
146
0.71
147
1.5
172
     1
173
     1
176
   256
177
   256
178
     2
271
     2
272
     3
274
     4
283
     0
284
     8
340
55
343
22E40
371
    -1
372
    -1
1001
ACAD_DSTYLE_DIMBREAK
1070
   391
1040
3.75
1001
ACAD_DSTYLE_DIMJAG
1070
   388
1040
1.5
1001
ACAD_DSTYLE_DIMARC_LENGTH_SYMBOL
1070
   379
1070
     1
1001
ACAD_DSTYLE_DIM_LINETYPE
1070
   380
1005
5B
1001
ACAD_DSTYLE_DIM_EXT1_LINETYPE
1070
   381
1005
5B
1001
ACAD_DSTYLE_DIM_EXT2_LINETYPE
1070
   382
1005
5B
  0
ENDTAB
  0
TABLE
  2
BLOCK_RECORD
  5
1
330
0
100
AcDbSymbolTable
 70
     4
  0
BLOCK_RECORD
  5
6C
102
{ACAD_XDICTIONARY
360
2D669
102
}
330
1
100
AcDbSymbolTableRecord
100
AcDbBlockTableRecord
  2
*Model_Space
340
6F
  0
BLOCK_RECORD
  5
68
330
1
100
AcDbSymbolTableRecord
100
AcDbBlockTableRecord
  2
*Paper_Space
340
6B
  0
BLOCK_RECORD
  5
70
330
1
100
AcDbSymbolTableRecord
100
AcDbBlockTableRecord
  2
*Paper_Space0
340
73
  0
BLOCK_RECORD
  5
22E40
330
1
100
AcDbSymbolTableRecord
100
AcDbBlockTableRecord
  2
GENAXEH
340
0
  0
BLOCK_RECORD
  5
21D8C1
102
{ACAD_XDICTIONARY
360
22FD92
102
}
330
1
100
AcDbSymbolTableRecord
100
AcDbBlockTableRecord
  2
gggr
340
0
310
2800000020000000200000000100080000000000000400000000000000000000000000000000000000000000000080000080000000808000800000008000800080800000C0C0C000C0DCC000F0CAA6000020400000206000002080000020A0000020C0000020E00000400000004020000040400000406000004080000040A0
310
000040C0000040E00000600000006020000060400000606000006080000060A0000060C0000060E00000800000008020000080400000806000008080000080A0000080C0000080E00000A0000000A0200000A0400000A0600000A0800000A0A00000A0C00000A0E00000C0000000C0200000C0400000C0600000C0800000C0
310
A00000C0C00000C0E00000E0000000E0200000E0400000E0600000E0800000E0A00000E0C00000E0E00040000000400020004000400040006000400080004000A0004000C0004000E00040200000402020004020400040206000402080004020A0004020C0004020E000404000004040200040404000404060004040800040
310
40A0004040C0004040E00040600000406020004060400040606000406080004060A0004060C0004060E00040800000408020004080400040806000408080004080A0004080C0004080E00040A0000040A0200040A0400040A0600040A0800040A0A00040A0C00040A0E00040C0000040C0200040C0400040C0600040C08000
310
40C0A00040C0C00040C0E00040E0000040E0200040E0400040E0600040E0800040E0A00040E0C00040E0E00080000000800020008000400080006000800080008000A0008000C0008000E00080200000802020008020400080206000802080008020A0008020C0008020E00080400000804020008040400080406000804080
310
008040A0008040C0008040E00080600000806020008060400080606000806080008060A0008060C0008060E00080800000808020008080400080806000808080008080A0008080C0008080E00080A0000080A0200080A0400080A0600080A0800080A0A00080A0C00080A0E00080C0000080C0200080C0400080C0600080C0
310
800080C0A00080C0C00080C0E00080E0000080E0200080E0400080E0600080E0800080E0A00080E0C00080E0E000C0000000C0002000C0004000C0006000C0008000C000A000C000C000C000E000C0200000C0202000C0204000C0206000C0208000C020A000C020C000C020E000C0400000C0402000C0404000C0406000C0
310
408000C040A000C040C000C040E000C0600000C0602000C0604000C0606000C0608000C060A000C060C000C060E000C0800000C0802000C0804000C0806000C0808000C080A000C080C000C080E000C0A00000C0A02000C0A04000C0A06000C0A08000C0A0A000C0A0C000C0A0E000C0C00000C0C02000C0C04000C0C06000
310
C0C08000C0C0A000F0FBFF00A4A0A000808080000000FF0000FF000000FFFF00FF000000FF00FF00FFFF0000FFFFFF0049494949494949494949494949494949494949494949494949494949494949494949494949494949494949494949494949494949494949494949494949494949494949494949494949494949494949
310
49494949494949494949494949494949494949494949494949494949494949494949494949494949494949494949494949494949494949494949494949494949494949494949494949494949494949494949494949494949494949494949494949494949494949494949494949494949494949494949494949494949494949
310
49494949494949494949494949494949494949494949494949494949494949494949494949494949494949494949494949494949494949494949494949494949494949494949494949494949494949494949494949494949494949494949494949494949494949494949494949494949494949494949494949494949494949
310
49494949494949494949494949494949494949494949494949494949494949494949494949494949494949494949494949494949FEFEFEFEF9FEFEFEFEFEFEFEFEFEFEFEFEFEFEFEFEFEFEFEFEF9FEFEFEFE4949FE494949F94949494949494949494949494949494949494949F9494949FE4949FE494949F9494949494949
310
4949494949494949494949494949F9494949FE4949FE494949F94949494949494949494949494949494949494949F9494949FE4949FE494949F94949494949494949494949494949494949494949F9494949FE4949FE494949F94949494949494949494949494949494949494949F9494949FE4949FE494949F94949494949
310
494949494949494949494949494949F9494949FE4949FEFEFEFEF9FEFEFEFEFEFEFEFEFEFEFEFEFEFEFEFEFEFEFEFEF9FEFEFEFE494949494949494949494949494949494949494949494949494949494949494949494949494949494949494949494949494949494949494949494949494949494949494949494949494949
310
49494949494949494949494949494949494949494949494949494949494949494949494949494949494949494949494949494949494949494949494949494949494949494949494949494949494949494949494949494949494949494949494949494949494949494949494949494949494949494949494949494949494949
310
49494949494949494949494949494949494949494949494949494949494949494949494949494949494949494949494949494949494949494949494949494949494949494949494949494949494949494949494949494949494949494949494949494949494949494949494949494949494949494949494949494949494949
310
4949494949494949494949494949494949494949494949494949494949494949494949494949494949494949494949494949494949494949
102
{BLKREFS
331
22FB62
331
22FB64
331
22FB66
331
22FB68
331
22FB6A
331
22FB6C
331
22FB76
331
22FB78
331
22FB79
331
22FB7A
331
22FB7B
331
22FB7C
331
22FB7D
331
22FB7E
331
22FB7F
331
22FB80
331
22FB81
331
22FB82
331
22FB83
331
22FB84
331
22FB85
331
22FB86
331
22FB87
331
22FB88
331
22FB89
331
22FB8A
331
22FB8B
331
22FB8C
331
22FB8D
331
22FB8E
331
22FB8F
331
22FB90
331
22FB91
331
22FB92
331
22FB93
331
22FB94
331
22FB95
331
22FB96
331
22FB97
331
22FB98
331
22FB99
331
22FB9A
331
22FB9B
331
22FB9C
331
22FB9D
331
22FB9E
331
22FB9F
331
22FBA0
331
22FBA1
331
22FBA2
331
22FBA3
331
22FBA4
331
22FBA5
331
22FBA6
331
22FBA7
331
22FBA8
331
22FBA9
331
22FBAA
331
22FBAB
331
22FBAC
331
22FBAD
331
22FBAE
331
22FBAF
331
22FBB0
331
22FBB1
331
22FBB2
331
22FBB3
331
22FBB4
331
22FBB5
331
22FBB6
331
22FBB7
331
22FBB8
331
22FBB9
331
22FBBA
331
22FBBB
331
22FBBC
331
22FBBD
331
22FBBE
331
22FBBF
331
22FBC0
331
22FBC1
331
22FBC2
331
22FBC3
331
22FBC4
331
22FBC5
331
22FBC6
331
22FBC7
331
22FBC8
331
22FBC9
331
22FBCA
331
22FBCB
331
22FBCC
331
22FBCD
331
22FBCE
331
22FBCF
331
22FBD0
331
22FBD1
331
22FBD2
331
22FBD3
331
22FCC8
331
22FCC9
331
22FCD1
331
22FBD4
331
22FBD5
331
22FBD6
331
22FBD7
331
22FBD8
331
22FBD9
331
22FBDA
331
22FBDB
331
22FBDC
331
22FBDD
331
22FBDE
331
22FBDF
331
22FBE0
331
22FBE1
331
22FBE2
331
22FBE3
331
22FBE4
331
22FBE5
331
22FBE6
331
22FBE7
331
22FBE8
331
22FBE9
331
22FBEA
331
22FBEB
331
22FBEC
331
22FBED
331
22FBEE
331
22FBEF
331
22FBF0
331
22FBF1
331
22FBF2
331
22FBF3
331
22FBF4
331
22FBF5
331
22FBF6
331
22FBF7
331
22FBF8
331
22FBF9
331
22FBFA
331
22FBFB
331
22FBFC
331
22FBFD
331
22FBFE
331
22FBFF
331
22FC00
331
22FC01
331
22FC02
331
22FC03
331
22FC04
331
22FC05
331
22FC06
331
22FC07
331
22FC08
331
22FC09
331
22FC0A
331
22FC0B
331
22FC0C
331
22FC0F
331
22FC10
331
22FC11
331
22FC12
331
22FC13
331
22FC15
331
22FC16
331
22FC17
331
22FC18
331
22FC19
331
22FC1C
331
22FC1D
331
22FC1E
331
22FC1F
331
22FC20
331
22FC23
331
22FC24
331
22FC25
331
22FC26
331
22FC29
331
22FC2A
331
22FC2B
331
22FC2C
331
22FC2D
331
22FC30
331
22FC31
331
22FC32
331
22FC33
331
22FC37
331
22FC38
331
22FC39
331
22FC3C
331
22FC3D
331
22FC3E
331
22FC3F
331
22FC40
331
22FC41
331
22FC42
331
22FC43
331
22FC44
331
22FC45
331
22FC46
331
22FC47
331
22FC48
331
22FC49
331
22FC4F
331
22FC50
331
22FC51
331
22FC52
331
22FC53
331
22FC54
331
22FC55
331
22FC56
331
22FC57
331
22FC58
331
22FC59
331
22FC63
331
22FC64
331
22FC65
331
22FC66
331
22FC67
331
22FC68
331
22FC84
331
22FC85
331
22FC8B
331
22FCB6
331
22FCB7
331
22FCB8
331
22FCB9
331
22FCBF
331
22FCC0
331
22FCC1
102
}
1001
ACAD
1000
DesignCenter Data
1002
{
1070
     1
1070
     4
1002
}
  0
ENDTAB
  0
ENDSEC
  0
SECTION
  2
BLOCKS
  0
BLOCK
  5
6D
330
6C
100
AcDbEntity
  8
0
100
AcDbBlockBegin
  2
*Model_Space
 70
     0
 10
0.0
 20
0.0
 30
0.0
  3
*Model_Space
  1

  0
ENDBLK
  5
6E
330
6C
100
AcDbEntity
  8
0
100
AcDbBlockEnd
  0
BLOCK
  5
69
330
68
100
AcDbEntity
 67
     1
  8
0
100
AcDbBlockBegin
  2
*Paper_Space
 70
     0
 10
0.0
 20
0.0
 30
0.0
  3
*Paper_Space
  1

  0
ENDBLK
  5
6A
330
68
100
AcDbEntity
 67
     1
  8
0
100
AcDbBlockEnd
  0
BLOCK
  5
71
330
70
100
AcDbEntity
 67
     1
  8
0
100
AcDbBlockBegin
  2
*Paper_Space0
 70
     0
 10
0.0
 20
0.0
 30
0.0
  3
*Paper_Space0
  1

  0
ENDBLK
  5
72
330
70
100
AcDbEntity
 67
     1
  8
0
100
AcDbBlockEnd
  0
BLOCK
  5
22E42
330
22E40
100
AcDbEntity
  8
0
100
AcDbBlockBegin
  2
GENAXEH
 70
     0
 10
0.0
 20
0.0
 30
0.0
  3
GENAXEH
  1

  0
LINE
  5
22E41
330
22E40
100
AcDbEntity
  8
0
100
AcDbLine
 10
-1.0
 20
0.0
 30
0.0
 11
1.0
 21
0.0
 31
0.0
  0
ENDBLK
  5
22E43
330
22E40
100
AcDbEntity
  8
0
100
AcDbBlockEnd
  0
BLOCK
  5
21D8C2
330
21D8C1
100
AcDbEntity
  8
0
 62
     4
100
AcDbBlockBegin
  2
gggr
 70
     0
 10
0.0
 20
0.0
 30
0.0
  3
gggr
  1

  0
LINE
  5
21D8C3
330
21D8C1
100
AcDbEntity
  8
0
 62
     4
100
AcDbLine
 10
17916.25157304843
 20
957.0037572179572
 30
0.0
 11
18007.25157304843
 21
957.0037572179572
 31
0.0
  0
LINE
  5
21D8C4
330
21D8C1
100
AcDbEntity
  8
0
 62
     4
100
AcDbLine
 10
18007.25157304843
 20
957.0037572179572
 30
0.0
 11
18007.25157304843
 21
932.0037572179572
 31
0.0
  0
LINE
  5
21D8C5
330
21D8C1
100
AcDbEntity
  8
0
 62
     4
100
AcDbLine
 10
18007.25157304843
 20
932.0037572179572
 30
0.0
 11
17916.25157304843
 21
932.0037572179572
 31
0.0
  0
LINE
  5
21D8C6
330
21D8C1
100
AcDbEntity
  8
0
 62
     4
100
AcDbLine
 10
17916.25157304843
 20
932.0037572179572
 30
0.0
 11
17916.25157304843
 21
957.0037572179572
 31
0.0
  0
ENDBLK
  5
21D8C9
330
21D8C1
100
AcDbEntity
  8
0
 62
     4
100
AcDbBlockEnd
  0
ENDSEC
  0
SECTION
  2
ENTITIES
  0
POLYLINE
  5
21BB9D
330
6C
100
AcDbEntity
  8
Widoczne (ISO)
 62
     2
100
AcDb2dPolyline
 66
     1
 10
0.0
 20
0.0
 30
0.0
 70
   130
  0
VERTEX
  5
21BB9E
330
21BB9D
100
AcDbEntity
  8
Widoczne (ISO)
 62
     2
100
AcDbVertex
100
AcDb2dVertex
 10
36296.2011551362
 20
3503.731497319724
 30
0.0
 42
0.0436609429085118
  0
VERTEX
  5
21BB9F
330
21BB9D
100
AcDbEntity
  8
Widoczne (ISO)
 62
     2
100
AcDbVertex
100
AcDb2dVertex
 10
36315.33125639585
 20
3323.47491268776
 30
0.0
 42
0.0652850074443288
 70
     1
  0
VERTEX
  5
21BBA0
330
21BB9D
100
AcDbEntity
  8
Widoczne (ISO)
 62
     2
100
AcDbVertex
100
AcDb2dVertex
 10
36353.9451517387
 20
3208.260408146664
 30
0.0
 42
0.0220775557494812
  0
VERTEX
  5
21BBA1
330
21BB9D
100
AcDbEntity
  8
Widoczne (ISO)
 62
     2
100
AcDbVertex
100
AcDb2dVertex
 10
36449.5803799474
 20
3032.33072853119
 30
0.0
 42
0.0436609429085143
 70
     1
  0
VERTEX
  5
21BBA2
330
21BB9D
100
AcDbEntity
  8
Widoczne (ISO)
 62
     2
100
AcDbVertex
100
AcDb2dVertex
 10
36509.26382350833
 20
2950.358015989349
 30
0.0
 42
0.0436609429085143
  0
VERTEX
  5
21BBA3
330
21BB9D
100
AcDbEntity
  8
Widoczne (ISO)
 62
     2
100
AcDbVertex
100
AcDb2dVertex
 10
36618.06603237887
 20
2845.501429554659
 30
0.0
 42
0.0436609429085138
 70
     1
  0
VERTEX
  5
21BBA4
330
21BB9D
100
AcDbEntity
  8
Widoczne (ISO)
 62
     2
100
AcDbVertex
100
AcDb2dVertex
 10
36743.42344637019
 20
2761.131155575887
 30
0.0
 42
0.0436609429085117
  0
VERTEX
  5
21BBA5
330
21BB9D
100
AcDbEntity
  8
Widoczne (ISO)
 62
     2
100
AcDbVertex
100
AcDb2dVertex
 10
36881.52714389208
 20
2699.81074213446
 30
0.0
 42
0.0436609429085123
 70
     1
  0
VERTEX
  5
21BBA6
330
21BB9D
100
AcDbEntity
  8
Widoczne (ISO)
 62
     2
100
AcDbVertex
100
AcDb2dVertex
 10
37028.18091397917
 20
2663.403378963169
 30
0.0
 42
0.0436609429085127
  0
VERTEX
  5
21BBA7
330
21BB9D
100
AcDbEntity
  8
Widoczne (ISO)
 62
     2
100
AcDbVertex
100
AcDb2dVertex
 10
37178.92875603777
 20
2653.015285368961
 30
0.0
 42
0.0436609429085115
 70
     1
  0
VERTEX
  5
21BBA8
330
21BB9D
100
AcDbEntity
  8
Widoczne (ISO)
 62
     2
100
AcDbVertex
100
AcDb2dVertex
 10
37329.19027316899
 20
2668.962098319065
 30
0.0
 42
0.0436609429085119
  0
VERTEX
  5
21BBA9
330
21BB9D
100
AcDbEntity
  8
Widoczne (ISO)
 62
     2
100
AcDbVertex
100
AcDb2dVertex
 10
37474.39984521083
 20
2710.75928197147
 30
0.0
 42
0.0436609429085125
 70
     1
  0
VERTEX
  5
21BBAA
330
21BB9D
100
AcDbEntity
  8
Widoczne (ISO)
 62
     2
100
AcDbVertex
100
AcDb2dVertex
 10
37610.14535279636
 20
2777.136850051291
 30
0.0
 42
0.0436609429085148
  0
VERTEX
  5
21BBAB
330
21BB9D
100
AcDbEntity
  8
Widoczne (ISO)
 62
     2
100
AcDbVertex
100
AcDb2dVertex
 10
37732.30223736814
 20
2866.077953741095
 30
0.0
 42
0.0436609429085155
 70
     1
  0
VERTEX
  5
21BBAC
330
21BB9D
100
AcDbEntity
  8
Widoczne (ISO)
 62
     2
100
AcDbVertex
100
AcDb2dVertex
 10
37837.15882380283
 20
2974.880162611638
 30
0.0
 42
0.0436609429085132
  0
VERTEX
  5
21BBAD
330
21BB9D
100
AcDbEntity
  8
Widoczne (ISO)
 62
     2
100
AcDbVertex
100
AcDb2dVertex
 10
37921.5290977816
 20
3100.237576602968
 30
0.0
 42
0.0436609429085102
 70
     1
  0
VERTEX
  5
21BBAE
330
21BB9D
100
AcDbEntity
  8
Widoczne (ISO)
 62
     2
100
AcDbVertex
100
AcDb2dVertex
 10
37982.84951122303
 20
3238.341274124851
 30
0.0
 42
0.0436609429085093
  0
VERTEX
  5
21BBAF
330
21BB9D
100
AcDbEntity
  8
Widoczne (ISO)
 62
     2
100
AcDbVertex
100
AcDb2dVertex
 10
38019.25687439432
 20
3384.995044211944
 30
0.0
 42
0.0436609429085093
 70
     1
  0
VERTEX
  5
21BBB0
330
21BB9D
100
AcDbEntity
  8
Widoczne (ISO)
 62
     2
100
AcDbVertex
100
AcDb2dVertex
 10
38029.64496798853
 20
3535.742886270542
 30
0.0
 42
0.0436609429085164
  0
VERTEX
  5
21BBB1
330
21BB9D
100
AcDbEntity
  8
Widoczne (ISO)
 62
     2
100
AcDbVertex
100
AcDb2dVertex
 10
38013.69815503841
 20
3686.004403401774
 30
0.0
 42
0.0436609429085177
 70
     1
  0
VERTEX
  5
21BBB2
330
21BB9D
100
AcDbEntity
  8
Widoczne (ISO)
 62
     2
100
AcDbVertex
100
AcDb2dVertex
 10
37971.90097138602
 20
3831.213975443606
 30
0.0
 42
0.0436609429085116
  0
VERTEX
  5
21BBB3
330
21BB9D
100
AcDbEntity
  8
Widoczne (ISO)
 62
     2
100
AcDbVertex
100
AcDb2dVertex
 10
37905.5234033062
 20
3966.959483029135
 30
0.0
 42
0.0436609429085124
 70
     1
  0
VERTEX
  5
21BBB4
330
21BB9D
100
AcDbEntity
  8
Widoczne (ISO)
 62
     2
100
AcDbVertex
100
AcDb2dVertex
 10
37816.58229961639
 20
4089.116367600921
 30
0.0
 42
0.043660942908512
  0
VERTEX
  5
21BBB5
330
21BB9D
100
AcDbEntity
  8
Widoczne (ISO)
 62
     2
100
AcDbVertex
100
AcDb2dVertex
 10
37707.78009074585
 20
4193.97295403561
 30
0.0
 42
0.0436609429085139
 70
     1
  0
VERTEX
  5
21BBB6
330
21BB9D
100
AcDbEntity
  8
Widoczne (ISO)
 62
     2
100
AcDbVertex
100
AcDb2dVertex
 10
37582.42267675453
 20
4278.343228014381
 30
0.0
 42
0.0436609429085123
  0
VERTEX
  5
21BBB7
330
21BB9D
100
AcDbEntity
  8
Widoczne (ISO)
 62
     2
100
AcDbVertex
100
AcDb2dVertex
 10
37444.31897923264
 20
4339.663641455808
 30
0.0
 42
0.0436609429085137
 70
     1
  0
VERTEX
  5
21BBB8
330
21BB9D
100
AcDbEntity
  8
Widoczne (ISO)
 62
     2
100
AcDbVertex
100
AcDb2dVertex
 10
37297.66520914554
 20
4376.071004627098
 30
0.0
 42
0.0436609429085126
  0
VERTEX
  5
21BBB9
330
21BB9D
100
AcDbEntity
  8
Widoczne (ISO)
 62
     2
100
AcDbVertex
100
AcDb2dVertex
 10
37146.91736708695
 20
4386.459098221305
 30
0.0
 42
0.0436609429085127
 70
     1
  0
VERTEX
  5
21BBBA
330
21BB9D
100
AcDbEntity
  8
Widoczne (ISO)
 62
     2
100
AcDbVertex
100
AcDb2dVertex
 10
36996.65584995571
 20
4370.512285271199
 30
0.0
 42
0.0436609429085115
  0
VERTEX
  5
21BBBB
330
21BB9D
100
AcDbEntity
  8
Widoczne (ISO)
 62
     2
100
AcDbVertex
100
AcDb2dVertex
 10
36851.44627791389
 20
4328.715101618793
 30
0.0
 42
0.0436609429085111
 70
     1
  0
VERTEX
  5
21BBBC
330
21BB9D
100
AcDbEntity
  8
Widoczne (ISO)
 62
     2
100
AcDbVertex
100
AcDb2dVertex
 10
36715.70077032837
 20
4262.33753353897
 30
0.0
 42
0.0436609429085157
  0
VERTEX
  5
21BBBD
330
21BB9D
100
AcDbEntity
  8
Widoczne (ISO)
 62
     2
100
AcDbVertex
100
AcDb2dVertex
 10
36593.54388575658
 20
4173.396429849165
 30
0.0
 42
0.0436609429085157
 70
     1
  0
VERTEX
  5
21BBBE
330
21BB9D
100
AcDbEntity
  8
Widoczne (ISO)
 62
     2
100
AcDbVertex
100
AcDb2dVertex
 10
36488.6872993219
 20
4064.594220978623
 30
0.0
 42
0.0436609429085105
  0
VERTEX
  5
21BBBF
330
21BB9D
100
AcDbEntity
  8
Widoczne (ISO)
 62
     2
100
AcDbVertex
100
AcDb2dVertex
 10
36432.07108616139
 20
3980.473810588977
 30
0.0
 42
0.0220775557494791
 70
     1
  0
VERTEX
  5
21BBC0
330
21BB9D
100
AcDbEntity
  8
Widoczne (ISO)
 62
     2
100
AcDbVertex
100
AcDb2dVertex
 10
36342.99661190169
 20
3801.133109465413
 30
0.0
 42
0.06528500744433
  0
VERTEX
  5
21BBC1
330
21BB9D
100
AcDbEntity
  8
Widoczne (ISO)
 62
     2
100
AcDbVertex
100
AcDb2dVertex
 10
36308.66291053358
 20
3684.571486619108
 30
0.0
 42
0.0436609429085118
 70
     1
  0
VERTEX
  5
21BBC2
330
21BB9D
100
AcDbEntity
  8
Widoczne (ISO)
 62
     2
100
AcDbVertex
100
AcDb2dVertex
 10
36296.2011551362
 20
3503.731497319725
 30
0.0
  0
VERTEX
  5
21BBC3
330
21BB9D
100
AcDbEntity
  8
Widoczne (ISO)
 62
     2
100
AcDbVertex
100
AcDb2dVertex
 10
36296.2011551362
 20
3503.731497319724
 30
0.0
  0
SEQEND
  5
21BBC4
330
21BB9D
100
AcDbEntity
  8
Widoczne (ISO)
 62
     2
  0
POLYLINE
  5
21D628
330
6C
100
AcDbEntity
  8
0
  6
ACISOTGB
 62
     6
 48
25.0
100
AcDb2dPolyline
 66
     1
 10
0.0
 20
0.0
 30
0.0
 70
   129
  0
VERTEX
  5
21D629
330
21D628
100
AcDbEntity
  8
0
  6
ACISOTGB
 62
     6
 48
25.0
100
AcDbVertex
100
AcDb2dVertex
 10
35137.59869599005
 20
3482.335664536384
 30
0.0
 42
0.0436609429085114
  0
VERTEX
  5
21D62A
330
21D628
100
AcDbEntity
  8
0
  6
ACISOTGB
 62
     6
 48
25.0
100
AcDbVertex
100
AcDb2dVertex
 10
35178.04591934222
 20
3101.214925009426
 30
0.0
 42
0.0652850074443288
  0
VERTEX
  5
21D62B
330
21D628
100
AcDbEntity
  8
0
  6
ACISOTGB
 62
     6
 48
25.0
100
AcDbVertex
100
AcDb2dVertex
 10
35312.41353034578
 20
2700.294541538855
 30
0.0
 42
0.0220775557494812
  0
VERTEX
  5
21D62C
330
21D628
100
AcDbEntity
  8
0
  6
ACISOTGB
 62
     6
 48
25.0
100
AcDbVertex
100
AcDb2dVertex
 10
35456.89913383139
 20
2434.500164232613
 30
0.0
 42
0.0436609429085143
  0
VERTEX
  5
21D62D
330
21D628
100
AcDbEntity
  8
0
  6
ACISOTGB
 62
     6
 48
25.0
100
AcDbVertex
100
AcDb2dVertex
 10
35635.47582410748
 20
2189.232551888277
 30
0.0
 42
0.043660942908514
  0
VERTEX
  5
21D62E
330
21D628
100
AcDbEntity
  8
0
  6
ACISOTGB
 62
     6
 48
25.0
100
AcDbVertex
100
AcDb2dVertex
 10
35889.72088589695
 20
1944.207477729708
 30
0.0
 42
0.0436609429085135
  0
VERTEX
  5
21D62F
330
21D628
100
AcDbEntity
  8
0
  6
ACISOTGB
 62
     6
 48
25.0
100
AcDbVertex
100
AcDb2dVertex
 10
36182.65155152259
 20
1747.054076676537
 30
0.0
 42
0.043660942908512
  0
VERTEX
  5
21D630
330
21D628
100
AcDbEntity
  8
0
  6
ACISOTGB
 62
     6
 48
25.0
100
AcDbVertex
100
AcDb2dVertex
 10
36505.36727093951
 20
1603.762755055289
 30
0.0
 42
0.043660942908513
  0
VERTEX
  5
21D631
330
21D628
100
AcDbEntity
  8
0
  6
ACISOTGB
 62
     6
 48
25.0
100
AcDbVertex
100
AcDb2dVertex
 10
36848.06249031518
 20
1518.687347164537
 30
0.0
 42
0.0436609429085129
  0
VERTEX
  5
21D632
330
21D628
100
AcDbEntity
  8
0
  6
ACISOTGB
 62
     6
 48
25.0
100
AcDbVertex
100
AcDb2dVertex
 10
37200.3245888211
 20
1494.41282622281
 30
0.0
 42
0.0436609429085113
  0
VERTEX
  5
21D633
330
21D628
100
AcDbEntity
  8
0
  6
ACISOTGB
 62
     6
 48
25.0
100
AcDbVertex
100
AcDb2dVertex
 10
37551.45026084734
 20
1531.676761265417
 30
0.0
 42
0.0436609429085128
  0
VERTEX
  5
21D634
330
21D628
100
AcDbEntity
  8
0
  6
ACISOTGB
 62
     6
 48
25.0
100
AcDbVertex
100
AcDb2dVertex
 10
37890.77073052752
 20
1629.346906482551
 30
0.0
 42
0.0436609429085131
  0
VERTEX
  5
21D635
330
21D628
100
AcDbEntity
  8
0
  6
ACISOTGB
 62
     6
 48
25.0
100
AcDbVertex
100
AcDb2dVertex
 10
38207.97591709492
 20
1784.455603935266
 30
0.0
 42
0.0436609429085151
  0
VERTEX
  5
21D636
330
21D628
100
AcDbEntity
  8
0
  6
ACISOTGB
 62
     6
 48
25.0
100
AcDbVertex
100
AcDb2dVertex
 10
38493.42770146924
 20
1992.289954340268
 30
0.0
 42
0.0436609429085153
  0
VERTEX
  5
21D637
330
21D628
100
AcDbEntity
  8
0
  6
ACISOTGB
 62
     6
 48
25.0
100
AcDbVertex
100
AcDb2dVertex
 10
38738.45277562778
 20
2246.535016129712
 30
0.0
 42
0.0436609429085134
  0
VERTEX
  5
21D638
330
21D628
100
AcDbEntity
  8
0
  6
ACISOTGB
 62
     6
 48
25.0
100
AcDbVertex
100
AcDb2dVertex
 10
38935.60617668097
 20
2539.465681755397
 30
0.0
 42
0.0436609429085101
  0
VERTEX
  5
21D639
330
21D628
100
AcDbEntity
  8
0
  6
ACISOTGB
 62
     6
 48
25.0
100
AcDbVertex
100
AcDb2dVertex
 10
39078.8974983022
 20
2862.18140117227
 30
0.0
 42
0.0436609429085093
  0
VERTEX
  5
21D63A
330
21D628
100
AcDbEntity
  8
0
  6
ACISOTGB
 62
     6
 48
25.0
100
AcDbVertex
100
AcDb2dVertex
 10
39163.97290619295
 20
3204.876620547967
 30
0.0
 42
0.0436609429085092
  0
VERTEX
  5
21D63B
330
21D628
100
AcDbEntity
  8
0
  6
ACISOTGB
 62
     6
 48
25.0
100
AcDbVertex
100
AcDb2dVertex
 10
39188.24742713468
 20
3557.138719053887
 30
0.0
 42
0.0436609429085165
  0
VERTEX
  5
21D63C
330
21D628
100
AcDbEntity
  8
0
  6
ACISOTGB
 62
     6
 48
25.0
100
AcDbVertex
100
AcDb2dVertex
 10
39150.98349209206
 20
3908.264391080122
 30
0.0
 42
0.0436609429085173
  0
VERTEX
  5
21D63D
330
21D628
100
AcDbEntity
  8
0
  6
ACISOTGB
 62
     6
 48
25.0
100
AcDbVertex
100
AcDb2dVertex
 10
39053.31334687493
 20
4247.584860760308
 30
0.0
 42
0.043660942908512
  0
VERTEX
  5
21D63E
330
21D628
100
AcDbEntity
  8
0
  6
ACISOTGB
 62
     6
 48
25.0
100
AcDbVertex
100
AcDb2dVertex
 10
38898.20464942222
 20
4564.790047327703
 30
0.0
 42
0.0436609429085124
  0
VERTEX
  5
21D63F
330
21D628
100
AcDbEntity
  8
0
  6
ACISOTGB
 62
     6
 48
25.0
100
AcDbVertex
100
AcDb2dVertex
 10
38690.37029901722
 20
4850.241831702003
 30
0.0
 42
0.043660942908512
  0
VERTEX
  5
21D640
330
21D628
100
AcDbEntity
  8
0
  6
ACISOTGB
 62
     6
 48
25.0
100
AcDbVertex
100
AcDb2dVertex
 10
38436.12523722777
 20
5095.266905860563
 30
0.0
 42
0.0436609429085145
  0
VERTEX
  5
21D641
330
21D628
100
AcDbEntity
  8
0
  6
ACISOTGB
 62
     6
 48
25.0
100
AcDbVertex
100
AcDb2dVertex
 10
38143.19457160213
 20
5292.420306913739
 30
0.0
 42
0.0436609429085121
  0
VERTEX
  5
21D642
330
21D628
100
AcDbEntity
  8
0
  6
ACISOTGB
 62
     6
 48
25.0
100
AcDbVertex
100
AcDb2dVertex
 10
37820.47885218522
 20
5435.711628534982
 30
0.0
 42
0.0436609429085133
  0
VERTEX
  5
21D643
330
21D628
100
AcDbEntity
  8
0
  6
ACISOTGB
 62
     6
 48
25.0
100
AcDbVertex
100
AcDb2dVertex
 10
37477.7836328095
 20
5520.787036425732
 30
0.0
 42
0.0436609429085127
  0
VERTEX
  5
21D644
330
21D628
100
AcDbEntity
  8
0
  6
ACISOTGB
 62
     6
 48
25.0
100
AcDbVertex
100
AcDb2dVertex
 10
37125.5215343036
 20
5545.061557367456
 30
0.0
 42
0.0436609429085133
  0
VERTEX
  5
21D645
330
21D628
100
AcDbEntity
  8
0
  6
ACISOTGB
 62
     6
 48
25.0
100
AcDbVertex
100
AcDb2dVertex
 10
36774.39586227739
 20
5507.797622324844
 30
0.0
 42
0.0436609429085114
  0
VERTEX
  5
21D646
330
21D628
100
AcDbEntity
  8
0
  6
ACISOTGB
 62
     6
 48
25.0
100
AcDbVertex
100
AcDb2dVertex
 10
36435.07539259718
 20
5410.127477107708
 30
0.0
 42
0.0436609429085117
  0
VERTEX
  5
21D647
330
21D628
100
AcDbEntity
  8
0
  6
ACISOTGB
 62
     6
 48
25.0
100
AcDbVertex
100
AcDb2dVertex
 10
36117.87020602976
 20
5255.018779654982
 30
0.0
 42
0.0436609429085159
  0
VERTEX
  5
21D648
330
21D628
100
AcDbEntity
  8
0
  6
ACISOTGB
 62
     6
 48
25.0
100
AcDbVertex
100
AcDb2dVertex
 10
35832.4184216555
 20
5047.184429249991
 30
0.0
 42
0.0436609429085156
  0
VERTEX
  5
21D649
330
21D628
100
AcDbEntity
  8
0
  6
ACISOTGB
 62
     6
 48
25.0
100
AcDbVertex
100
AcDb2dVertex
 10
35587.39334749693
 20
4792.939367460538
 30
0.0
 42
0.0436609429085103
  0
VERTEX
  5
21D64A
330
21D628
100
AcDbEntity
  8
0
  6
ACISOTGB
 62
     6
 48
25.0
100
AcDbVertex
100
AcDb2dVertex
 10
35417.99400726206
 20
4541.245705436574
 30
0.0
 42
0.0220775557494792
  0
VERTEX
  5
21D64B
330
21D628
100
AcDbEntity
  8
0
  6
ACISOTGB
 62
     6
 48
25.0
100
AcDbVertex
100
AcDb2dVertex
 10
35283.42038403097
 20
4270.297960377361
 30
0.0
 42
0.0652850074443303
  0
VERTEX
  5
21D64C
330
21D628
100
AcDbEntity
  8
0
  6
ACISOTGB
 62
     6
 48
25.0
100
AcDbVertex
100
AcDb2dVertex
 10
35163.94687873494
 20
3864.689910283073
 30
0.0
 42
0.0436609429085113
  0
SEQEND
  5
21D64D
330
21D628
100
AcDbEntity
  8
0
  6
ACISOTGB
 62
     6
 48
25.0
  0
CIRCLE
  5
21D859
330
6C
100
AcDbEntity
  8
Widoczne (ISO)
 62
     2
100
AcDbCircle
 10
37162.9230615693
 20
3519.737191785205
 30
0.0
 40
525.0
  0
INSERT
  5
22FB62
330
6C
100
AcDbEntity
  8
0
 62
     7
100
AcDbBlockReference
  2
gggr
 10
18746.17148852087
 20
2700.233434567247
 30
0.0
  0
INSERT
  5
22FB64
330
6C
100
AcDbEntity
  8
0
 62
     7
100
AcDbBlockReference
  2
gggr
 10
18746.17148852087
 20
2650.233434567247
 30
0.0
  0
INSERT
  5
22FB66
330
6C
100
AcDbEntity
  8
0
 62
     7
100
AcDbBlockReference
  2
gggr
 10
18746.17148852087
 20
2600.233434567247
 30
0.0
  0
INSERT
  5
22FB68
330
6C
100
AcDbEntity
  8
0
 62
     7
100
AcDbBlockReference
  2
gggr
 10
18746.17148852087
 20
2550.233434567247
 30
0.0
  0
INSERT
  5
22FB6A
330
6C
100
AcDbEntity
  8
0
 62
     7
100
AcDbBlockReference
  2
gggr
 10
18746.17148852087
 20
2500.233434567247
 30
0.0
  0
INSERT
  5
22FB6C
330
6C
100
AcDbEntity
  8
0
 62
     7
100
AcDbBlockReference
  2
gggr
 10
18746.17148852087
 20
2450.233434567247
 30
0.0
  0
INSERT
  5
22FB76
330
6C
100
AcDbEntity
  8
0
 62
     7
100
AcDbBlockReference
  2
gggr
 10
18876.17148852087
 20
2900.233434567247
 30
0.0
  0
INSERT
  5
22FB78
330
6C
100
AcDbEntity
  8
0
 62
     7
100
AcDbBlockReference
  2
gggr
 10
18876.17148852087
 20
2850.233434567247
 30
0.0
  0
INSERT
  5
22FB79
330
6C
100
AcDbEntity
  8
0
 62
     7
100
AcDbBlockReference
  2
gggr
 10
18811.17148852087
 20
2825.233434567247
 30
0.0
  0
INSERT
  5
22FB7A
330
6C
100
AcDbEntity
  8
0
 62
     7
100
AcDbBlockReference
  2
gggr
 10
18876.17148852087
 20
2800.233434567247
 30
0.0
  0
INSERT
  5
22FB7B
330
6C
100
AcDbEntity
  8
0
 62
     7
100
AcDbBlockReference
  2
gggr
 10
18811.17148852087
 20
2775.233434567247
 30
0.0
  0
INSERT
  5
22FB7C
330
6C
100
AcDbEntity
  8
0
 62
     7
100
AcDbBlockReference
  2
gggr
 10
18876.17148852087
 20
2750.233434567247
 30
0.0
  0
INSERT
  5
22FB7D
330
6C
100
AcDbEntity
  8
0
 62
     7
100
AcDbBlockReference
  2
gggr
 10
18811.17148852087
 20
2725.233434567247
 30
0.0
  0
INSERT
  5
22FB7E
330
6C
100
AcDbEntity
  8
0
 62
     7
100
AcDbBlockReference
  2
gggr
 10
18876.17148852087
 20
2700.233434567247
 30
0.0
  0
INSERT
  5
22FB7F
330
6C
100
AcDbEntity
  8
0
 62
     7
100
AcDbBlockReference
  2
gggr
 10
18811.17148852087
 20
2675.233434567247
 30
0.0
  0
INSERT
  5
22FB80
330
6C
100
AcDbEntity
  8
0
 62
     7
100
AcDbBlockReference
  2
gggr
 10
18876.17148852087
 20
2650.233434567247
 30
0.0
  0
INSERT
  5
22FB81
330
6C
100
AcDbEntity
  8
0
 62
     7
100
AcDbBlockReference
  2
gggr
 10
18811.17148852087
 20
2625.233434567247
 30
0.0
  0
INSERT
  5
22FB82
330
6C
100
AcDbEntity
  8
0
 62
     7
100
AcDbBlockReference
  2
gggr
 10
18876.17148852087
 20
2600.233434567247
 30
0.0
  0
INSERT
  5
22FB83
330
6C
100
AcDbEntity
  8
0
 62
     7
100
AcDbBlockReference
  2
gggr
 10
18811.17148852087
 20
2575.233434567247
 30
0.0
  0
INSERT
  5
22FB84
330
6C
100
AcDbEntity
  8
0
 62
     7
100
AcDbBlockReference
  2
gggr
 10
18876.17148852087
 20
2550.233434567247
 30
0.0
  0
INSERT
  5
22FB85
330
6C
100
AcDbEntity
  8
0
 62
     7
100
AcDbBlockReference
  2
gggr
 10
18811.17148852087
 20
2525.233434567247
 30
0.0
  0
INSERT
  5
22FB86
330
6C
100
AcDbEntity
  8
0
 62
     7
100
AcDbBlockReference
  2
gggr
 10
18876.17148852087
 20
2500.233434567247
 30
0.0
  0
INSERT
  5
22FB87
330
6C
100
AcDbEntity
  8
0
 62
     7
100
AcDbBlockReference
  2
gggr
 10
18811.17148852087
 20
2475.233434567247
 30
0.0
  0
INSERT
  5
22FB88
330
6C
100
AcDbEntity
  8
0
 62
     7
100
AcDbBlockReference
  2
gggr
 10
18876.17148852087
 20
2450.233434567247
 30
0.0
  0
INSERT
  5
22FB89
330
6C
100
AcDbEntity
  8
0
 62
     7
100
AcDbBlockReference
  2
gggr
 10
18811.17148852087
 20
2425.233434567247
 30
0.0
  0
INSERT
  5
22FB8A
330
6C
100
AcDbEntity
  8
0
 62
     7
100
AcDbBlockReference
  2
gggr
 10
18876.17148852087
 20
2400.233434567247
 30
0.0
  0
INSERT
  5
22FB8B
330
6C
100
AcDbEntity
  8
0
 62
     7
100
AcDbBlockReference
  2
gggr
 10
18811.17148852087
 20
2375.233434567247
 30
0.0
  0
INSERT
  5
22FB8C
330
6C
100
AcDbEntity
  8
0
 62
     7
100
AcDbBlockReference
  2
gggr
 10
18876.17148852087
 20
2350.233434567247
 30
0.0
  0
INSERT
  5
22FB8D
330
6C
100
AcDbEntity
  8
0
 62
     7
100
AcDbBlockReference
  2
gggr
 10
18811.17148852087
 20
2325.233434567247
 30
0.0
  0
INSERT
  5
22FB8E
330
6C
100
AcDbEntity
  8
0
 62
     7
100
AcDbBlockReference
  2
gggr
 10
18876.17148852087
 20
2300.233434567247
 30
0.0
  0
INSERT
  5
22FB8F
330
6C
100
AcDbEntity
  8
0
 62
     7
100
AcDbBlockReference
  2
gggr
 10
18941.17148852087
 20
2975.233434567247
 30
0.0
  0
INSERT
  5
22FB90
330
6C
100
AcDbEntity
  8
0
 62
     7
100
AcDbBlockReference
  2
gggr
 10
19006.17148852087
 20
2950.233434567247
 30
0.0
  0
INSERT
  5
22FB91
330
6C
100
AcDbEntity
  8
0
 62
     7
100
AcDbBlockReference
  2
gggr
 10
18941.17148852087
 20
2925.233434567247
 30
0.0
  0
INSERT
  5
22FB92
330
6C
100
AcDbEntity
  8
0
 62
     7
100
AcDbBlockReference
  2
gggr
 10
19006.17148852087
 20
2900.233434567247
 30
0.0
  0
INSERT
  5
22FB93
330
6C
100
AcDbEntity
  8
0
 62
     7
100
AcDbBlockReference
  2
gggr
 10
18941.17148852087
 20
2875.233434567247
 30
0.0
  0
INSERT
  5
22FB94
330
6C
100
AcDbEntity
  8
0
 62
     7
100
AcDbBlockReference
  2
gggr
 10
19006.17148852087
 20
2850.233434567247
 30
0.0
  0
INSERT
  5
22FB95
330
6C
100
AcDbEntity
  8
0
 62
     7
100
AcDbBlockReference
  2
gggr
 10
18941.17148852087
 20
2825.233434567247
 30
0.0
  0
INSERT
  5
22FB96
330
6C
100
AcDbEntity
  8
0
 62
     7
100
AcDbBlockReference
  2
gggr
 10
19006.17148852087
 20
2800.233434567247
 30
0.0
  0
INSERT
  5
22FB97
330
6C
100
AcDbEntity
  8
0
 62
     7
100
AcDbBlockReference
  2
gggr
 10
18941.17148852087
 20
2775.233434567247
 30
0.0
  0
INSERT
  5
22FB98
330
6C
100
AcDbEntity
  8
0
 62
     7
100
AcDbBlockReference
  2
gggr
 10
19006.17148852087
 20
2750.233434567247
 30
0.0
  0
INSERT
  5
22FB99
330
6C
100
AcDbEntity
  8
0
 62
     7
100
AcDbBlockReference
  2
gggr
 10
18941.17148852087
 20
2725.233434567247
 30
0.0
  0
INSERT
  5
22FB9A
330
6C
100
AcDbEntity
  8
0
 62
     7
100
AcDbBlockReference
  2
gggr
 10
19006.17148852087
 20
2700.233434567247
 30
0.0
  0
INSERT
  5
22FB9B
330
6C
100
AcDbEntity
  8
0
 62
     7
100
AcDbBlockReference
  2
gggr
 10
18941.17148852087
 20
2675.233434567247
 30
0.0
  0
INSERT
  5
22FB9C
330
6C
100
AcDbEntity
  8
0
 62
     7
100
AcDbBlockReference
  2
gggr
 10
19006.17148852087
 20
2650.233434567247
 30
0.0
  0
INSERT
  5
22FB9D
330
6C
100
AcDbEntity
  8
0
 62
     7
100
AcDbBlockReference
  2
gggr
 10
18941.17148852087
 20
2625.233434567247
 30
0.0
  0
INSERT
  5
22FB9E
330
6C
100
AcDbEntity
  8
0
 62
     7
100
AcDbBlockReference
  2
gggr
 10
19006.17148852087
 20
2600.233434567247
 30
0.0
  0
INSERT
  5
22FB9F
330
6C
100
AcDbEntity
  8
0
 62
     7
100
AcDbBlockReference
  2
gggr
 10
18941.17148852087
 20
2575.233434567247
 30
0.0
  0
INSERT
  5
22FBA0
330
6C
100
AcDbEntity
  8
0
 62
     7
100
AcDbBlockReference
  2
gggr
 10
19006.17148852087
 20
2550.233434567247
 30
0.0
  0
INSERT
  5
22FBA1
330
6C
100
AcDbEntity
  8
0
 62
     7
100
AcDbBlockReference
  2
gggr
 10
18941.17148852087
 20
2525.233434567247
 30
0.0
  0
INSERT
  5
22FBA2
330
6C
100
AcDbEntity
  8
0
 62
     7
100
AcDbBlockReference
  2
gggr
 10
19006.17148852087
 20
2500.233434567247
 30
0.0
  0
INSERT
  5
22FBA3
330
6C
100
AcDbEntity
  8
0
 62
     7
100
AcDbBlockReference
  2
gggr
 10
18941.17148852087
 20
2475.233434567247
 30
0.0
  0
INSERT
  5
22FBA4
330
6C
100
AcDbEntity
  8
0
 62
     7
100
AcDbBlockReference
  2
gggr
 10
19006.17148852087
 20
2450.233434567247
 30
0.0
  0
INSERT
  5
22FBA5
330
6C
100
AcDbEntity
  8
0
 62
     7
100
AcDbBlockReference
  2
gggr
 10
18941.17148852087
 20
2425.233434567247
 30
0.0
  0
INSERT
  5
22FBA6
330
6C
100
AcDbEntity
  8
0
 62
     7
100
AcDbBlockReference
  2
gggr
 10
19006.17148852087
 20
2400.233434567247
 30
0.0
  0
INSERT
  5
22FBA7
330
6C
100
AcDbEntity
  8
0
 62
     7
100
AcDbBlockReference
  2
gggr
 10
18941.17148852087
 20
2375.233434567247
 30
0.0
  0
INSERT
  5
22FBA8
330
6C
100
AcDbEntity
  8
0
 62
     7
100
AcDbBlockReference
  2
gggr
 10
19006.17148852087
 20
2350.233434567247
 30
0.0
  0
INSERT
  5
22FBA9
330
6C
100
AcDbEntity
  8
0
 62
     7
100
AcDbBlockReference
  2
gggr
 10
18941.17148852087
 20
2325.233434567247
 30
0.0
  0
INSERT
  5
22FBAA
330
6C
100
AcDbEntity
  8
0
 62
     7
100
AcDbBlockReference
  2
gggr
 10
19006.17148852087
 20
2300.233434567247
 30
0.0
  0
INSERT
  5
22FBAB
330
6C
100
AcDbEntity
  8
0
 62
     7
100
AcDbBlockReference
  2
gggr
 10
19071.17148852087
 20
2975.233434567247
 30
0.0
  0
INSERT
  5
22FBAC
330
6C
100
AcDbEntity
  8
0
 62
     7
100
AcDbBlockReference
  2
gggr
 10
19136.17148852087
 20
2950.233434567247
 30
0.0
  0
INSERT
  5
22FBAD
330
6C
100
AcDbEntity
  8
0
 62
     7
100
AcDbBlockReference
  2
gggr
 10
19071.17148852087
 20
2925.233434567247
 30
0.0
  0
INSERT
  5
22FBAE
330
6C
100
AcDbEntity
  8
0
 62
     7
100
AcDbBlockReference
  2
gggr
 10
19136.17148852087
 20
2900.233434567247
 30
0.0
  0
INSERT
  5
22FBAF
330
6C
100
AcDbEntity
  8
0
 62
     7
100
AcDbBlockReference
  2
gggr
 10
19071.17148852087
 20
2875.233434567247
 30
0.0
  0
INSERT
  5
22FBB0
330
6C
100
AcDbEntity
  8
0
 62
     7
100
AcDbBlockReference
  2
gggr
 10
19136.17148852087
 20
2850.233434567247
 30
0.0
  0
INSERT
  5
22FBB1
330
6C
100
AcDbEntity
  8
0
 62
     7
100
AcDbBlockReference
  2
gggr
 10
19071.17148852087
 20
2825.233434567247
 30
0.0
  0
INSERT
  5
22FBB2
330
6C
100
AcDbEntity
  8
0
 62
     7
100
AcDbBlockReference
  2
gggr
 10
19136.17148852087
 20
2800.233434567247
 30
0.0
  0
INSERT
  5
22FBB3
330
6C
100
AcDbEntity
  8
0
 62
     7
100
AcDbBlockReference
  2
gggr
 10
19071.17148852087
 20
2775.233434567247
 30
0.0
  0
INSERT
  5
22FBB4
330
6C
100
AcDbEntity
  8
0
 62
     7
100
AcDbBlockReference
  2
gggr
 10
19136.17148852087
 20
2750.233434567247
 30
0.0
  0
INSERT
  5
22FBB5
330
6C
100
AcDbEntity
  8
0
 62
     7
100
AcDbBlockReference
  2
gggr
 10
19071.17148852087
 20
2725.233434567247
 30
0.0
  0
INSERT
  5
22FBB6
330
6C
100
AcDbEntity
  8
0
 62
     7
100
AcDbBlockReference
  2
gggr
 10
19136.17148852087
 20
2700.233434567247
 30
0.0
  0
INSERT
  5
22FBB7
330
6C
100
AcDbEntity
  8
0
 62
     7
100
AcDbBlockReference
  2
gggr
 10
19071.17148852087
 20
2675.233434567247
 30
0.0
  0
INSERT
  5
22FBB8
330
6C
100
AcDbEntity
  8
0
 62
     7
100
AcDbBlockReference
  2
gggr
 10
19136.17148852087
 20
2650.233434567247
 30
0.0
  0
INSERT
  5
22FBB9
330
6C
100
AcDbEntity
  8
0
 62
     7
100
AcDbBlockReference
  2
gggr
 10
19071.17148852087
 20
2625.233434567247
 30
0.0
  0
INSERT
  5
22FBBA
330
6C
100
AcDbEntity
  8
0
 62
     7
100
AcDbBlockReference
  2
gggr
 10
19136.17148852087
 20
2600.233434567247
 30
0.0
  0
INSERT
  5
22FBBB
330
6C
100
AcDbEntity
  8
0
 62
     7
100
AcDbBlockReference
  2
gggr
 10
19071.17148852087
 20
2575.233434567247
 30
0.0
  0
INSERT
  5
22FBBC
330
6C
100
AcDbEntity
  8
0
 62
     7
100
AcDbBlockReference
  2
gggr
 10
19136.17148852087
 20
2550.233434567247
 30
0.0
  0
INSERT
  5
22FBBD
330
6C
100
AcDbEntity
  8
0
 62
     7
100
AcDbBlockReference
  2
gggr
 10
19071.17148852087
 20
2525.233434567247
 30
0.0
  0
INSERT
  5
22FBBE
330
6C
100
AcDbEntity
  8
0
 62
     7
100
AcDbBlockReference
  2
gggr
 10
19136.17148852087
 20
2500.233434567247
 30
0.0
  0
INSERT
  5
22FBBF
330
6C
100
AcDbEntity
  8
0
 62
     7
100
AcDbBlockReference
  2
gggr
 10
19071.17148852087
 20
2475.233434567247
 30
0.0
  0
INSERT
  5
22FBC0
330
6C
100
AcDbEntity
  8
0
 62
     7
100
AcDbBlockReference
  2
gggr
 10
19136.17148852087
 20
2450.233434567247
 30
0.0
  0
INSERT
  5
22FBC1
330
6C
100
AcDbEntity
  8
0
 62
     7
100
AcDbBlockReference
  2
gggr
 10
19071.17148852087
 20
2425.233434567247
 30
0.0
  0
INSERT
  5
22FBC2
330
6C
100
AcDbEntity
  8
0
 62
     7
100
AcDbBlockReference
  2
gggr
 10
19136.17148852087
 20
2400.233434567247
 30
0.0
  0
INSERT
  5
22FBC3
330
6C
100
AcDbEntity
  8
0
 62
     7
100
AcDbBlockReference
  2
gggr
 10
19071.17148852087
 20
2375.233434567247
 30
0.0
  0
INSERT
  5
22FBC4
330
6C
100
AcDbEntity
  8
0
 62
     7
100
AcDbBlockReference
  2
gggr
 10
19136.17148852087
 20
2350.233434567247
 30
0.0
  0
INSERT
  5
22FBC5
330
6C
100
AcDbEntity
  8
0
 62
     7
100
AcDbBlockReference
  2
gggr
 10
19071.17148852087
 20
2325.233434567247
 30
0.0
  0
INSERT
  5
22FBC6
330
6C
100
AcDbEntity
  8
0
 62
     7
100
AcDbBlockReference
  2
gggr
 10
19136.17148852087
 20
2300.233434567247
 30
0.0
  0
INSERT
  5
22FBC7
330
6C
100
AcDbEntity
  8
0
 62
     7
100
AcDbBlockReference
  2
gggr
 10
19201.17148852087
 20
2975.233434567247
 30
0.0
  0
INSERT
  5
22FBC8
330
6C
100
AcDbEntity
  8
0
 62
     7
100
AcDbBlockReference
  2
gggr
 10
19266.17148852087
 20
2950.233434567247
 30
0.0
  0
INSERT
  5
22FBC9
330
6C
100
AcDbEntity
  8
0
 62
     7
100
AcDbBlockReference
  2
gggr
 10
19201.17148852087
 20
2925.233434567247
 30
0.0
  0
INSERT
  5
22FBCA
330
6C
100
AcDbEntity
  8
0
 62
     7
100
AcDbBlockReference
  2
gggr
 10
19266.17148852087
 20
2900.233434567247
 30
0.0
  0
INSERT
  5
22FBCB
330
6C
100
AcDbEntity
  8
0
 62
     7
100
AcDbBlockReference
  2
gggr
 10
19201.17148852087
 20
2875.233434567247
 30
0.0
  0
INSERT
  5
22FBCC
330
6C
100
AcDbEntity
  8
0
 62
     7
100
AcDbBlockReference
  2
gggr
 10
19266.17148852087
 20
2850.233434567247
 30
0.0
  0
INSERT
  5
22FBCD
330
6C
100
AcDbEntity
  8
0
 62
     7
100
AcDbBlockReference
  2
gggr
 10
19201.17148852087
 20
2825.233434567247
 30
0.0
  0
INSERT
  5
22FBCE
330
6C
100
AcDbEntity
  8
0
 62
     7
100
AcDbBlockReference
  2
gggr
 10
19266.17148852087
 20
2800.233434567247
 30
0.0
  0
INSERT
  5
22FBCF
330
6C
100
AcDbEntity
  8
0
 62
     7
100
AcDbBlockReference
  2
gggr
 10
19201.17148852087
 20
2775.233434567247
 30
0.0
  0
INSERT
  5
22FBD0
330
6C
100
AcDbEntity
  8
0
 62
     7
100
AcDbBlockReference
  2
gggr
 10
19266.17148852087
 20
2750.233434567247
 30
0.0
  0
INSERT
  5
22FBD1
330
6C
100
AcDbEntity
  8
0
 62
     7
100
AcDbBlockReference
  2
gggr
 10
19201.17148852087
 20
2725.233434567247
 30
0.0
  0
INSERT
  5
22FBD2
330
6C
100
AcDbEntity
  8
0
 62
     7
100
AcDbBlockReference
  2
gggr
 10
19266.17148852087
 20
2700.233434567247
 30
0.0
  0
INSERT
  5
22FBD3
330
6C
100
AcDbEntity
  8
0
 62
     7
100
AcDbBlockReference
  2
gggr
 10
19201.17148852087
 20
2675.233434567247
 30
0.0
  0
INSERT
  5
22FBD4
330
6C
100
AcDbEntity
  8
0
 62
     7
100
AcDbBlockReference
  2
gggr
 10
19266.17148852087
 20
2650.233434567247
 30
0.0
  0
INSERT
  5
22FBD5
330
6C
100
AcDbEntity
  8
0
 62
     7
100
AcDbBlockReference
  2
gggr
 10
19201.17148852087
 20
2625.233434567247
 30
0.0
  0
INSERT
  5
22FBD6
330
6C
100
AcDbEntity
  8
0
 62
     7
100
AcDbBlockReference
  2
gggr
 10
19266.17148852087
 20
2600.233434567247
 30
0.0
  0
INSERT
  5
22FBD7
330
6C
100
AcDbEntity
  8
0
 62
     7
100
AcDbBlockReference
  2
gggr
 10
19201.17148852087
 20
2575.233434567247
 30
0.0
  0
INSERT
  5
22FBD8
330
6C
100
AcDbEntity
  8
0
 62
     7
100
AcDbBlockReference
  2
gggr
 10
19266.17148852087
 20
2550.233434567247
 30
0.0
  0
INSERT
  5
22FBD9
330
6C
100
AcDbEntity
  8
0
 62
     7
100
AcDbBlockReference
  2
gggr
 10
19201.17148852087
 20
2525.233434567247
 30
0.0
  0
INSERT
  5
22FBDA
330
6C
100
AcDbEntity
  8
0
 62
     7
100
AcDbBlockReference
  2
gggr
 10
19266.17148852087
 20
2500.233434567247
 30
0.0
  0
INSERT
  5
22FBDB
330
6C
100
AcDbEntity
  8
0
 62
     7
100
AcDbBlockReference
  2
gggr
 10
19201.17148852087
 20
2475.233434567247
 30
0.0
  0
INSERT
  5
22FBDC
330
6C
100
AcDbEntity
  8
0
 62
     7
100
AcDbBlockReference
  2
gggr
 10
19266.17148852087
 20
2450.233434567247
 30
0.0
  0
INSERT
  5
22FBDD
330
6C
100
AcDbEntity
  8
0
 62
     7
100
AcDbBlockReference
  2
gggr
 10
19201.17148852087
 20
2425.233434567247
 30
0.0
  0
INSERT
  5
22FBDE
330
6C
100
AcDbEntity
  8
0
 62
     7
100
AcDbBlockReference
  2
gggr
 10
19266.17148852087
 20
2400.233434567247
 30
0.0
  0
INSERT
  5
22FBDF
330
6C
100
AcDbEntity
  8
0
 62
     7
100
AcDbBlockReference
  2
gggr
 10
19201.17148852087
 20
2375.233434567247
 30
0.0
  0
INSERT
  5
22FBE0
330
6C
100
AcDbEntity
  8
0
 62
     7
100
AcDbBlockReference
  2
gggr
 10
19266.17148852087
 20
2350.233434567247
 30
0.0
  0
INSERT
  5
22FBE1
330
6C
100
AcDbEntity
  8
0
 62
     7
100
AcDbBlockReference
  2
gggr
 10
19201.17148852087
 20
2325.233434567247
 30
0.0
  0
INSERT
  5
22FBE2
330
6C
100
AcDbEntity
  8
0
 62
     7
100
AcDbBlockReference
  2
gggr
 10
19266.17148852087
 20
2300.233434567247
 30
0.0
  0
INSERT
  5
22FBE3
330
6C
100
AcDbEntity
  8
0
 62
     7
100
AcDbBlockReference
  2
gggr
 10
19331.17148852087
 20
2975.233434567247
 30
0.0
  0
INSERT
  5
22FBE4
330
6C
100
AcDbEntity
  8
0
 62
     7
100
AcDbBlockReference
  2
gggr
 10
19396.17148852087
 20
2950.233434567247
 30
0.0
  0
INSERT
  5
22FBE5
330
6C
100
AcDbEntity
  8
0
 62
     7
100
AcDbBlockReference
  2
gggr
 10
19331.17148852087
 20
2925.233434567247
 30
0.0
  0
INSERT
  5
22FBE6
330
6C
100
AcDbEntity
  8
0
 62
     7
100
AcDbBlockReference
  2
gggr
 10
19396.17148852087
 20
2900.233434567247
 30
0.0
  0
INSERT
  5
22FBE7
330
6C
100
AcDbEntity
  8
0
 62
     7
100
AcDbBlockReference
  2
gggr
 10
19331.17148852087
 20
2875.233434567247
 30
0.0
  0
INSERT
  5
22FBE8
330
6C
100
AcDbEntity
  8
0
 62
     7
100
AcDbBlockReference
  2
gggr
 10
19396.17148852087
 20
2850.233434567247
 30
0.0
  0
INSERT
  5
22FBE9
330
6C
100
AcDbEntity
  8
0
 62
     7
100
AcDbBlockReference
  2
gggr
 10
19331.17148852087
 20
2825.233434567247
 30
0.0
  0
INSERT
  5
22FBEA
330
6C
100
AcDbEntity
  8
0
 62
     7
100
AcDbBlockReference
  2
gggr
 10
19396.17148852087
 20
2800.233434567247
 30
0.0
  0
INSERT
  5
22FBEB
330
6C
100
AcDbEntity
  8
0
 62
     7
100
AcDbBlockReference
  2
gggr
 10
19331.17148852087
 20
2775.233434567247
 30
0.0
  0
INSERT
  5
22FBEC
330
6C
100
AcDbEntity
  8
0
 62
     7
100
AcDbBlockReference
  2
gggr
 10
19396.17148852087
 20
2750.233434567247
 30
0.0
  0
INSERT
  5
22FBED
330
6C
100
AcDbEntity
  8
0
 62
     7
100
AcDbBlockReference
  2
gggr
 10
19331.17148852087
 20
2725.233434567247
 30
0.0
  0
INSERT
  5
22FBEE
330
6C
100
AcDbEntity
  8
0
 62
     7
100
AcDbBlockReference
  2
gggr
 10
19396.17148852087
 20
2700.233434567247
 30
0.0
  0
INSERT
  5
22FBEF
330
6C
100
AcDbEntity
  8
0
 62
     7
100
AcDbBlockReference
  2
gggr
 10
19331.17148852087
 20
2675.233434567247
 30
0.0
  0
INSERT
  5
22FBF0
330
6C
100
AcDbEntity
  8
0
 62
     7
100
AcDbBlockReference
  2
gggr
 10
19396.17148852087
 20
2650.233434567247
 30
0.0
  0
INSERT
  5
22FBF1
330
6C
100
AcDbEntity
  8
0
 62
     7
100
AcDbBlockReference
  2
gggr
 10
19331.17148852087
 20
2625.233434567247
 30
0.0
  0
INSERT
  5
22FBF2
330
6C
100
AcDbEntity
  8
0
 62
     7
100
AcDbBlockReference
  2
gggr
 10
19396.17148852087
 20
2600.233434567247
 30
0.0
  0
INSERT
  5
22FBF3
330
6C
100
AcDbEntity
  8
0
 62
     7
100
AcDbBlockReference
  2
gggr
 10
19331.17148852087
 20
2575.233434567247
 30
0.0
  0
INSERT
  5
22FBF4
330
6C
100
AcDbEntity
  8
0
 62
     7
100
AcDbBlockReference
  2
gggr
 10
19396.17148852087
 20
2550.233434567247
 30
0.0
  0
INSERT
  5
22FBF5
330
6C
100
AcDbEntity
  8
0
 62
     7
100
AcDbBlockReference
  2
gggr
 10
19331.17148852087
 20
2525.233434567247
 30
0.0
  0
INSERT
  5
22FBF6
330
6C
100
AcDbEntity
  8
0
 62
     7
100
AcDbBlockReference
  2
gggr
 10
19396.17148852087
 20
2500.233434567247
 30
0.0
  0
INSERT
  5
22FBF7
330
6C
100
AcDbEntity
  8
0
 62
     7
100
AcDbBlockReference
  2
gggr
 10
19331.17148852087
 20
2475.233434567247
 30
0.0
  0
INSERT
  5
22FBF8
330
6C
100
AcDbEntity
  8
0
 62
     7
100
AcDbBlockReference
  2
gggr
 10
19396.17148852087
 20
2450.233434567247
 30
0.0
  0
INSERT
  5
22FBF9
330
6C
100
AcDbEntity
  8
0
 62
     7
100
AcDbBlockReference
  2
gggr
 10
19331.17148852087
 20
2425.233434567247
 30
0.0
  0
INSERT
  5
22FBFA
330
6C
100
AcDbEntity
  8
0
 62
     7
100
AcDbBlockReference
  2
gggr
 10
19396.17148852087
 20
2400.233434567247
 30
0.0
  0
INSERT
  5
22FBFB
330
6C
100
AcDbEntity
  8
0
 62
     7
100
AcDbBlockReference
  2
gggr
 10
19331.17148852087
 20
2375.233434567247
 30
0.0
  0
INSERT
  5
22FBFC
330
6C
100
AcDbEntity
  8
0
 62
     7
100
AcDbBlockReference
  2
gggr
 10
19396.17148852087
 20
2350.233434567247
 30
0.0
  0
INSERT
  5
22FBFD
330
6C
100
AcDbEntity
  8
0
 62
     7
100
AcDbBlockReference
  2
gggr
 10
19331.17148852087
 20
2325.233434567247
 30
0.0
  0
INSERT
  5
22FBFE
330
6C
100
AcDbEntity
  8
0
 62
     7
100
AcDbBlockReference
  2
gggr
 10
19396.17148852087
 20
2300.233434567247
 30
0.0
  0
INSERT
  5
22FBFF
330
6C
100
AcDbEntity
  8
0
 62
     7
100
AcDbBlockReference
  2
gggr
 10
19461.17148852087
 20
2975.233434567247
 30
0.0
  0
INSERT
  5
22FC00
330
6C
100
AcDbEntity
  8
0
 62
     7
100
AcDbBlockReference
  2
gggr
 10
19461.17148852087
 20
2925.233434567247
 30
0.0
  0
INSERT
  5
22FC01
330
6C
100
AcDbEntity
  8
0
 62
     7
100
AcDbBlockReference
  2
gggr
 10
19461.17148852087
 20
2875.233434567247
 30
0.0
  0
INSERT
  5
22FC02
330
6C
100
AcDbEntity
  8
0
 62
     7
100
AcDbBlockReference
  2
gggr
 10
19461.17148852087
 20
2825.233434567247
 30
0.0
  0
INSERT
  5
22FC03
330
6C
100
AcDbEntity
  8
0
 62
     7
100
AcDbBlockReference
  2
gggr
 10
19461.17148852087
 20
2775.233434567247
 30
0.0
  0
INSERT
  5
22FC04
330
6C
100
AcDbEntity
  8
0
 62
     7
100
AcDbBlockReference
  2
gggr
 10
19461.17148852087
 20
2725.233434567247
 30
0.0
  0
INSERT
  5
22FC05
330
6C
100
AcDbEntity
  8
0
 62
     7
100
AcDbBlockReference
  2
gggr
 10
19461.17148852087
 20
2675.233434567247
 30
0.0
  0
INSERT
  5
22FC06
330
6C
100
AcDbEntity
  8
0
 62
     7
100
AcDbBlockReference
  2
gggr
 10
19461.17148852087
 20
2625.233434567247
 30
0.0
  0
INSERT
  5
22FC07
330
6C
100
AcDbEntity
  8
0
 62
     7
100
AcDbBlockReference
  2
gggr
 10
19461.17148852087
 20
2575.233434567247
 30
0.0
  0
INSERT
  5
22FC08
330
6C
100
AcDbEntity
  8
0
 62
     7
100
AcDbBlockReference
  2
gggr
 10
19461.17148852087
 20
2525.233434567247
 30
0.0
  0
INSERT
  5
22FC09
330
6C
100
AcDbEntity
  8
0
 62
     7
100
AcDbBlockReference
  2
gggr
 10
19461.17148852087
 20
2475.233434567247
 30
0.0
  0
INSERT
  5
22FC0A
330
6C
100
AcDbEntity
  8
0
 62
     7
100
AcDbBlockReference
  2
gggr
 10
19461.17148852087
 20
2425.233434567247
 30
0.0
  0
INSERT
  5
22FC0B
330
6C
100
AcDbEntity
  8
0
 62
     7
100
AcDbBlockReference
  2
gggr
 10
19461.17148852087
 20
2375.233434567247
 30
0.0
  0
INSERT
  5
22FC0C
330
6C
100
AcDbEntity
  8
0
 62
     7
100
AcDbBlockReference
  2
gggr
 10
19461.17148852087
 20
2325.233434567247
 30
0.0
  0
INSERT
  5
22FC0F
330
6C
100
AcDbEntity
  8
0
 62
     7
100
AcDbBlockReference
  2
gggr
 10
18941.17148852087
 20
2275.233434567247
 30
0.0
  0
INSERT
  5
22FC10
330
6C
100
AcDbEntity
  8
0
 62
     7
100
AcDbBlockReference
  2
gggr
 10
19071.17148852087
 20
2275.233434567247
 30
0.0
  0
INSERT
  5
22FC11
330
6C
100
AcDbEntity
  8
0
 62
     7
100
AcDbBlockReference
  2
gggr
 10
19201.17148852087
 20
2275.233434567247
 30
0.0
  0
INSERT
  5
22FC12
330
6C
100
AcDbEntity
  8
0
 62
     7
100
AcDbBlockReference
  2
gggr
 10
19331.17148852087
 20
2275.233434567247
 30
0.0
  0
INSERT
  5
22FC13
330
6C
100
AcDbEntity
  8
0
 62
     7
100
AcDbBlockReference
  2
gggr
 10
19461.17148852087
 20
2275.233434567247
 30
0.0
  0
INSERT
  5
22FC15
330
6C
100
AcDbEntity
  8
0
 62
     7
100
AcDbBlockReference
  2
gggr
 10
18876.17148852087
 20
2250.233434567247
 30
0.0
  0
INSERT
  5
22FC16
330
6C
100
AcDbEntity
  8
0
 62
     7
100
AcDbBlockReference
  2
gggr
 10
19006.17148852087
 20
2250.233434567247
 30
0.0
  0
INSERT
  5
22FC17
330
6C
100
AcDbEntity
  8
0
 62
     7
100
AcDbBlockReference
  2
gggr
 10
19136.17148852087
 20
2250.233434567247
 30
0.0
  0
INSERT
  5
22FC18
330
6C
100
AcDbEntity
  8
0
 62
     7
100
AcDbBlockReference
  2
gggr
 10
19266.17148852087
 20
2250.233434567247
 30
0.0
  0
INSERT
  5
22FC19
330
6C
100
AcDbEntity
  8
0
 62
     7
100
AcDbBlockReference
  2
gggr
 10
19396.17148852087
 20
2250.233434567247
 30
0.0
  0
INSERT
  5
22FC1C
330
6C
100
AcDbEntity
  8
0
 62
     7
100
AcDbBlockReference
  2
gggr
 10
18941.17148852087
 20
2225.233434567247
 30
0.0
  0
INSERT
  5
22FC1D
330
6C
100
AcDbEntity
  8
0
 62
     7
100
AcDbBlockReference
  2
gggr
 10
19071.17148852087
 20
2225.233434567247
 30
0.0
  0
INSERT
  5
22FC1E
330
6C
100
AcDbEntity
  8
0
 62
     7
100
AcDbBlockReference
  2
gggr
 10
19201.17148852087
 20
2225.233434567247
 30
0.0
  0
INSERT
  5
22FC1F
330
6C
100
AcDbEntity
  8
0
 62
     7
100
AcDbBlockReference
  2
gggr
 10
19331.17148852087
 20
2225.233434567247
 30
0.0
  0
INSERT
  5
22FC20
330
6C
100
AcDbEntity
  8
0
 62
     7
100
AcDbBlockReference
  2
gggr
 10
19461.17148852087
 20
2225.233434567247
 30
0.0
  0
INSERT
  5
22FC23
330
6C
100
AcDbEntity
  8
0
 62
     7
100
AcDbBlockReference
  2
gggr
 10
19006.17148852087
 20
2200.233434567247
 30
0.0
  0
INSERT
  5
22FC24
330
6C
100
AcDbEntity
  8
0
 62
     7
100
AcDbBlockReference
  2
gggr
 10
19136.17148852087
 20
2200.233434567247
 30
0.0
  0
INSERT
  5
22FC25
330
6C
100
AcDbEntity
  8
0
 62
     7
100
AcDbBlockReference
  2
gggr
 10
19266.17148852087
 20
2200.233434567247
 30
0.0
  0
INSERT
  5
22FC26
330
6C
100
AcDbEntity
  8
0
 62
     7
100
AcDbBlockReference
  2
gggr
 10
19396.17148852087
 20
2200.233434567247
 30
0.0
  0
INSERT
  5
22FC29
330
6C
100
AcDbEntity
  8
0
 62
     7
100
AcDbBlockReference
  2
gggr
 10
18941.17148852087
 20
2175.233434567247
 30
0.0
  0
INSERT
  5
22FC2A
330
6C
100
AcDbEntity
  8
0
 62
     7
100
AcDbBlockReference
  2
gggr
 10
19071.17148852087
 20
2175.233434567247
 30
0.0
  0
INSERT
  5
22FC2B
330
6C
100
AcDbEntity
  8
0
 62
     7
100
AcDbBlockReference
  2
gggr
 10
19201.17148852087
 20
2175.233434567247
 30
0.0
  0
INSERT
  5
22FC2C
330
6C
100
AcDbEntity
  8
0
 62
     7
100
AcDbBlockReference
  2
gggr
 10
19331.17148852087
 20
2175.233434567247
 30
0.0
  0
INSERT
  5
22FC2D
330
6C
100
AcDbEntity
  8
0
 62
     7
100
AcDbBlockReference
  2
gggr
 10
19461.17148852087
 20
2175.233434567247
 30
0.0
  0
INSERT
  5
22FC30
330
6C
100
AcDbEntity
  8
0
 62
     7
100
AcDbBlockReference
  2
gggr
 10
19006.17148852087
 20
2150.233434567247
 30
0.0
  0
INSERT
  5
22FC31
330
6C
100
AcDbEntity
  8
0
 62
     7
100
AcDbBlockReference
  2
gggr
 10
19136.17148852087
 20
2150.233434567247
 30
0.0
  0
INSERT
  5
22FC32
330
6C
100
AcDbEntity
  8
0
 62
     7
100
AcDbBlockReference
  2
gggr
 10
19266.17148852087
 20
2150.233434567247
 30
0.0
  0
INSERT
  5
22FC33
330
6C
100
AcDbEntity
  8
0
 62
     7
100
AcDbBlockReference
  2
gggr
 10
19396.17148852087
 20
2150.233434567247
 30
0.0
  0
INSERT
  5
22FC37
330
6C
100
AcDbEntity
  8
0
 62
     7
100
AcDbBlockReference
  2
gggr
 10
19071.17148852087
 20
2125.233434567247
 30
0.0
  0
INSERT
  5
22FC38
330
6C
100
AcDbEntity
  8
0
 62
     7
100
AcDbBlockReference
  2
gggr
 10
19201.17148852087
 20
2125.233434567247
 30
0.0
  0
INSERT
  5
22FC39
330
6C
100
AcDbEntity
  8
0
 62
     7
100
AcDbBlockReference
  2
gggr
 10
19331.17148852087
 20
2125.233434567247
 30
0.0
  0
INSERT
  5
22FC3C
330
6C
100
AcDbEntity
  8
0
 62
     7
100
AcDbBlockReference
  2
gggr
 10
19526.17148852087
 20
2900.233434567247
 30
0.0
  0
INSERT
  5
22FC3D
330
6C
100
AcDbEntity
  8
0
 62
     7
100
AcDbBlockReference
  2
gggr
 10
19526.17148852087
 20
2850.233434567247
 30
0.0
  0
INSERT
  5
22FC3E
330
6C
100
AcDbEntity
  8
0
 62
     7
100
AcDbBlockReference
  2
gggr
 10
19526.17148852087
 20
2800.233434567247
 30
0.0
  0
INSERT
  5
22FC3F
330
6C
100
AcDbEntity
  8
0
 62
     7
100
AcDbBlockReference
  2
gggr
 10
19526.17148852087
 20
2750.233434567247
 30
0.0
  0
INSERT
  5
22FC40
330
6C
100
AcDbEntity
  8
0
 62
     7
100
AcDbBlockReference
  2
gggr
 10
19526.17148852087
 20
2700.233434567247
 30
0.0
  0
INSERT
  5
22FC41
330
6C
100
AcDbEntity
  8
0
 62
     7
100
AcDbBlockReference
  2
gggr
 10
19526.17148852087
 20
2650.233434567247
 30
0.0
  0
INSERT
  5
22FC42
330
6C
100
AcDbEntity
  8
0
 62
     7
100
AcDbBlockReference
  2
gggr
 10
19526.17148852087
 20
2600.233434567247
 30
0.0
  0
INSERT
  5
22FC43
330
6C
100
AcDbEntity
  8
0
 62
     7
100
AcDbBlockReference
  2
gggr
 10
19526.17148852087
 20
2550.233434567247
 30
0.0
  0
INSERT
  5
22FC44
330
6C
100
AcDbEntity
  8
0
 62
     7
100
AcDbBlockReference
  2
gggr
 10
19526.17148852087
 20
2500.233434567247
 30
0.0
  0
INSERT
  5
22FC45
330
6C
100
AcDbEntity
  8
0
 62
     7
100
AcDbBlockReference
  2
gggr
 10
19526.17148852087
 20
2450.233434567247
 30
0.0
  0
INSERT
  5
22FC46
330
6C
100
AcDbEntity
  8
0
 62
     7
100
AcDbBlockReference
  2
gggr
 10
19526.17148852087
 20
2400.233434567247
 30
0.0
  0
INSERT
  5
22FC47
330
6C
100
AcDbEntity
  8
0
 62
     7
100
AcDbBlockReference
  2
gggr
 10
19526.17148852087
 20
2350.233434567247
 30
0.0
  0
INSERT
  5
22FC48
330
6C
100
AcDbEntity
  8
0
 62
     7
100
AcDbBlockReference
  2
gggr
 10
19526.17148852087
 20
2300.233434567247
 30
0.0
  0
INSERT
  5
22FC49
330
6C
100
AcDbEntity
  8
0
 62
     7
100
AcDbBlockReference
  2
gggr
 10
19526.17148852087
 20
2250.233434567247
 30
0.0
  0
INSERT
  5
22FC4F
330
6C
100
AcDbEntity
  8
0
 62
     7
100
AcDbBlockReference
  2
gggr
 10
19591.17148852087
 20
2825.233434567247
 30
0.0
  0
INSERT
  5
22FC50
330
6C
100
AcDbEntity
  8
0
 62
     7
100
AcDbBlockReference
  2
gggr
 10
19591.17148852087
 20
2775.233434567247
 30
0.0
  0
INSERT
  5
22FC51
330
6C
100
AcDbEntity
  8
0
 62
     7
100
AcDbBlockReference
  2
gggr
 10
19591.17148852087
 20
2725.233434567247
 30
0.0
  0
INSERT
  5
22FC52
330
6C
100
AcDbEntity
  8
0
 62
     7
100
AcDbBlockReference
  2
gggr
 10
19591.17148852087
 20
2675.233434567247
 30
0.0
  0
INSERT
  5
22FC53
330
6C
100
AcDbEntity
  8
0
 62
     7
100
AcDbBlockReference
  2
gggr
 10
19591.17148852087
 20
2625.233434567247
 30
0.0
  0
INSERT
  5
22FC54
330
6C
100
AcDbEntity
  8
0
 62
     7
100
AcDbBlockReference
  2
gggr
 10
19591.17148852087
 20
2575.233434567247
 30
0.0
  0
INSERT
  5
22FC55
330
6C
100
AcDbEntity
  8
0
 62
     7
100
AcDbBlockReference
  2
gggr
 10
19591.17148852087
 20
2525.233434567247
 30
0.0
  0
INSERT
  5
22FC56
330
6C
100
AcDbEntity
  8
0
 62
     7
100
AcDbBlockReference
  2
gggr
 10
19591.17148852087
 20
2475.233434567247
 30
0.0
  0
INSERT
  5
22FC57
330
6C
100
AcDbEntity
  8
0
 62
     7
100
AcDbBlockReference
  2
gggr
 10
19591.17148852087
 20
2425.233434567247
 30
0.0
  0
INSERT
  5
22FC58
330
6C
100
AcDbEntity
  8
0
 62
     7
100
AcDbBlockReference
  2
gggr
 10
19591.17148852087
 20
2375.233434567247
 30
0.0
  0
INSERT
  5
22FC59
330
6C
100
AcDbEntity
  8
0
 62
     7
100
AcDbBlockReference
  2
gggr
 10
19591.17148852087
 20
2325.233434567247
 30
0.0
  0
INSERT
  5
22FC63
330
6C
100
AcDbEntity
  8
0
 62
     7
100
AcDbBlockReference
  2
gggr
 10
19656.17148852087
 20
2700.233434567247
 30
0.0
  0
INSERT
  5
22FC64
330
6C
100
AcDbEntity
  8
0
 62
     7
100
AcDbBlockReference
  2
gggr
 10
19656.17148852087
 20
2650.233434567247
 30
0.0
  0
INSERT
  5
22FC65
330
6C
100
AcDbEntity
  8
0
 62
     7
100
AcDbBlockReference
  2
gggr
 10
19656.17148852087
 20
2600.233434567247
 30
0.0
  0
INSERT
  5
22FC66
330
6C
100
AcDbEntity
  8
0
 62
     7
100
AcDbBlockReference
  2
gggr
 10
19656.17148852087
 20
2550.233434567247
 30
0.0
  0
INSERT
  5
22FC67
330
6C
100
AcDbEntity
  8
0
 62
     7
100
AcDbBlockReference
  2
gggr
 10
19656.17148852087
 20
2500.233434567247
 30
0.0
  0
INSERT
  5
22FC68
330
6C
100
AcDbEntity
  8
0
 62
     7
100
AcDbBlockReference
  2
gggr
 10
19656.17148852087
 20
2450.233434567247
 30
0.0
  0
INSERT
  5
22FC84
330
6C
100
AcDbEntity
  8
0
 62
     7
100
AcDbBlockReference
  2
gggr
 10
19136.17148852087
 20
2100.233434567247
 30
0.0
  0
INSERT
  5
22FC85
330
6C
100
AcDbEntity
  8
0
 62
     7
100
AcDbBlockReference
  2
gggr
 10
19266.17148852087
 20
2100.233434567247
 30
0.0
  0
INSERT
  5
22FC8B
330
6C
100
AcDbEntity
  8
0
 62
     7
100
AcDbBlockReference
  2
gggr
 10
19201.17148852087
 20
2075.233434567246
 30
0.0
  0
INSERT
  5
22FCB6
330
6C
100
AcDbEntity
  8
0
 62
     7
100
AcDbBlockReference
  2
gggr
 10
19006.17148852087
 20
3000.233434567247
 30
0.0
  0
INSERT
  5
22FCB7
330
6C
100
AcDbEntity
  8
0
 62
     7
100
AcDbBlockReference
  2
gggr
 10
19136.17148852087
 20
3000.233434567247
 30
0.0
  0
INSERT
  5
22FCB8
330
6C
100
AcDbEntity
  8
0
 62
     7
100
AcDbBlockReference
  2
gggr
 10
19266.17148852087
 20
3000.233434567247
 30
0.0
  0
INSERT
  5
22FCB9
330
6C
100
AcDbEntity
  8
0
 62
     7
100
AcDbBlockReference
  2
gggr
 10
19396.17148852087
 20
3000.233434567247
 30
0.0
  0
INSERT
  5
22FCBF
330
6C
100
AcDbEntity
  8
0
 62
     7
100
AcDbBlockReference
  2
gggr
 10
19071.17148852087
 20
3025.233434567247
 30
0.0
  0
INSERT
  5
22FCC0
330
6C
100
AcDbEntity
  8
0
 62
     7
100
AcDbBlockReference
  2
gggr
 10
19201.17148852087
 20
3025.233434567247
 30
0.0
  0
INSERT
  5
22FCC1
330
6C
100
AcDbEntity
  8
0
 62
     7
100
AcDbBlockReference
  2
gggr
 10
19331.17148852087
 20
3025.233434567247
 30
0.0
  0
INSERT
  5
22FCC8
330
6C
100
AcDbEntity
  8
0
 62
     7
100
AcDbBlockReference
  2
gggr
 10
19136.17148852087
 20
3050.233434567247
 30
0.0
  0
INSERT
  5
22FCC9
330
6C
100
AcDbEntity
  8
0
 62
     7
100
AcDbBlockReference
  2
gggr
 10
19266.17148852087
 20
3050.233434567247
 30
0.0
  0
INSERT
  5
22FCD1
330
6C
100
AcDbEntity
  8
0
 62
     7
100
AcDbBlockReference
  2
gggr
 10
19201.17148852087
 20
3075.233434567247
 30
0.0
  0
LINE
  5
22FD95
330
6C
100
AcDbEntity
  8
0
 62
     4
100
AcDbLine
 10
37273.42306156931
 20
4032.976658311308
 30
0.0
 11
37273.42306156931
 21
4032.237191785204
 31
0.0
  0
LINE
  5
22FD96
330
6C
100
AcDbEntity
  8
0
 62
     4
100
AcDbLine
 10
37273.42306156931
 20
4032.237191785204
 30
0.0
 11
37182.42306156931
 21
4032.237191785204
 31
0.0
  0
LINE
  5
22FD97
330
6C
100
AcDbEntity
  8
0
 62
     4
100
AcDbLine
 10
37182.42306156931
 20
4032.237191785204
 30
0.0
 11
37182.42306156931
 21
4044.374923939497
 31
0.0
  0
LINE
  5
22FD98
330
6C
100
AcDbEntity
  8
0
 62
     4
100
AcDbLine
 10
37247.4230615693
 20
4032.237191785204
 30
0.0
 11
37276.80348130861
 21
4032.237191785204
 31
0.0
  0
LINE
  5
22FD99
330
6C
100
AcDbEntity
  8
0
 62
     4
100
AcDbLine
 10
37338.4230615693
 20
4014.534877713503
 30
0.0
 11
37338.4230615693
 21
4007.237191785204
 31
0.0
  0
LINE
  5
22FD9A
330
6C
100
AcDbEntity
  8
0
 62
     4
100
AcDbLine
 10
37338.4230615693
 20
4007.237191785204
 30
0.0
 11
37247.4230615693
 21
4007.237191785204
 31
0.0
  0
LINE
  5
22FD9B
330
6C
100
AcDbEntity
  8
0
 62
     4
100
AcDbLine
 10
37247.4230615693
 20
4007.237191785204
 30
0.0
 11
37247.4230615693
 21
4032.237191785204
 31
0.0
  0
LINE
  5
22FD9C
330
6C
100
AcDbEntity
  8
0
 62
     4
100
AcDbLine
 10
37312.4230615693
 20
4007.237191785204
 30
0.0
 11
37357.7787774208
 21
4007.237191785204
 31
0.0
  0
LINE
  5
22FD9D
330
6C
100
AcDbEntity
  8
0
 62
     4
100
AcDbLine
 10
37403.4230615693
 20
3986.411328630177
 30
0.0
 11
37403.4230615693
 21
3982.237191785205
 31
0.0
  0
LINE
  5
22FD9E
330
6C
100
AcDbEntity
  8
0
 62
     4
100
AcDbLine
 10
37403.4230615693
 20
3982.237191785205
 30
0.0
 11
37312.4230615693
 21
3982.237191785205
 31
0.0
  0
LINE
  5
22FD9F
330
6C
100
AcDbEntity
  8
0
 62
     4
100
AcDbLine
 10
37312.4230615693
 20
3982.237191785205
 30
0.0
 11
37312.4230615693
 21
4007.237191785204
 31
0.0
  0
LINE
  5
22FDA0
330
6C
100
AcDbEntity
  8
0
 62
     4
100
AcDbLine
 10
37377.4230615693
 20
3982.237191785205
 30
0.0
 11
37411.3556479987
 21
3982.237191785205
 31
0.0
  0
LINE
  5
22FDA2
330
6C
100
AcDbEntity
  8
0
 62
     4
100
AcDbLine
 10
37453.1277307254
 20
3957.237191785205
 30
0.0
 11
37377.4230615693
 21
3957.237191785205
 31
0.0
  0
LINE
  5
22FDA3
330
6C
100
AcDbEntity
  8
0
 62
     4
100
AcDbLine
 10
37377.4230615693
 20
3957.237191785205
 30
0.0
 11
37377.4230615693
 21
3982.237191785205
 31
0.0
  0
LINE
  5
22FDA6
330
6C
100
AcDbEntity
  8
0
 62
     4
100
AcDbLine
 10
37517.13874445192
 20
3907.237191785205
 30
0.0
 11
37507.4230615693
 21
3907.237191785205
 31
0.0
  0
LINE
  5
22FDA7
330
6C
100
AcDbEntity
  8
0
 62
     4
100
AcDbLine
 10
37507.4230615693
 20
3907.237191785205
 30
0.0
 11
37507.4230615693
 21
3915.899721563072
 31
0.0
  0
LINE
  5
22FDA8
330
6C
100
AcDbEntity
  8
0
 62
     4
100
AcDbLine
 10
37507.4230615693
 20
3882.237191785204
 30
0.0
 11
37542.68449984338
 21
3882.237191785204
 31
0.0
  0
LINE
  5
22FDAA
330
6C
100
AcDbEntity
  8
0
 62
     4
100
AcDbLine
 10
37565.06576012294
 20
3857.237191785205
 30
0.0
 11
37507.4230615693
 21
3857.237191785205
 31
0.0
  0
LINE
  5
22FDAB
330
6C
100
AcDbEntity
  8
0
 62
     4
100
AcDbLine
 10
37507.4230615693
 20
3857.237191785205
 30
0.0
 11
37507.4230615693
 21
3882.237191785204
 31
0.0
  0
LINE
  5
22FDAE
330
6C
100
AcDbEntity
  8
0
 62
     4
100
AcDbLine
 10
37584.78648733646
 20
3832.237191785205
 30
0.0
 11
37572.4230615693
 21
3832.237191785205
 31
0.0
  0
LINE
  5
22FDAF
330
6C
100
AcDbEntity
  8
0
 62
     4
100
AcDbLine
 10
37572.4230615693
 20
3832.237191785205
 30
0.0
 11
37572.4230615693
 21
3848.271436575607
 31
0.0
  0
LINE
  5
22FDB0
330
6C
100
AcDbEntity
  8
0
 62
     4
100
AcDbLine
 10
37572.4230615693
 20
3807.237191785205
 30
0.0
 11
37602.20514633944
 21
3807.237191785205
 31
0.0
  0
LINE
  5
22FDB2
330
6C
100
AcDbEntity
  8
0
 62
     4
100
AcDbLine
 10
37617.58639855613
 20
3782.237191785205
 30
0.0
 11
37572.4230615693
 21
3782.237191785205
 31
0.0
  0
LINE
  5
22FDB3
330
6C
100
AcDbEntity
  8
0
 62
     4
100
AcDbLine
 10
37572.4230615693
 20
3782.237191785205
 30
0.0
 11
37572.4230615693
 21
3807.237191785205
 31
0.0
  0
LINE
  5
22FDB4
330
6C
100
AcDbEntity
  8
0
 62
     4
100
AcDbLine
 10
37572.4230615693
 20
3757.237191785204
 30
0.0
 11
37631.1310815775
 21
3757.237191785204
 31
0.0
  0
LINE
  5
22FDB6
330
6C
100
AcDbEntity
  8
0
 62
     4
100
AcDbLine
 10
37642.99467081109
 20
3732.237191785205
 30
0.0
 11
37572.4230615693
 21
3732.237191785205
 31
0.0
  0
LINE
  5
22FDB7
330
6C
100
AcDbEntity
  8
0
 62
     4
100
AcDbLine
 10
37572.4230615693
 20
3732.237191785205
 30
0.0
 11
37572.4230615693
 21
3757.237191785204
 31
0.0
  0
LINE
  5
22FDB8
330
6C
100
AcDbEntity
  8
0
 62
     4
100
AcDbLine
 10
37637.4230615693
 20
3732.237191785205
 30
0.0
 11
37642.99467081109
 21
3732.237191785205
 31
0.0
  0
LINE
  5
22FDBA
330
6C
100
AcDbEntity
  8
0
 62
     4
100
AcDbLine
 10
37653.29919271763
 20
3707.237191785205
 30
0.0
 11
37637.4230615693
 21
3707.237191785205
 31
0.0
  0
LINE
  5
22FDBB
330
6C
100
AcDbEntity
  8
0
 62
     4
100
AcDbLine
 10
37637.4230615693
 20
3707.237191785205
 30
0.0
 11
37637.4230615693
 21
3732.237191785205
 31
0.0
  0
LINE
  5
22FDBC
330
6C
100
AcDbEntity
  8
0
 62
     4
100
AcDbLine
 10
37637.4230615693
 20
3682.237191785205
 30
0.0
 11
37662.1412002622
 21
3682.237191785205
 31
0.0
  0
LINE
  5
22FDBE
330
6C
100
AcDbEntity
  8
0
 62
     4
100
AcDbLine
 10
37669.59726655708
 20
3657.237191785205
 30
0.0
 11
37637.4230615693
 21
3657.237191785205
 31
0.0
  0
LINE
  5
22FDBF
330
6C
100
AcDbEntity
  8
0
 62
     4
100
AcDbLine
 10
37637.4230615693
 20
3657.237191785205
 30
0.0
 11
37637.4230615693
 21
3682.237191785205
 31
0.0
  0
LINE
  5
22FDC0
330
6C
100
AcDbEntity
  8
0
 62
     4
100
AcDbLine
 10
37637.4230615693
 20
3582.237191785205
 30
0.0
 11
37684.18954811913
 21
3582.237191785205
 31
0.0
  0
LINE
  5
22FDC2
330
6C
100
AcDbEntity
  8
0
 62
     4
100
AcDbLine
 10
37686.58206321064
 20
3557.237191785205
 30
0.0
 11
37637.4230615693
 21
3557.237191785205
 31
0.0
  0
LINE
  5
22FDC3
330
6C
100
AcDbEntity
  8
0
 62
     4
100
AcDbLine
 10
37637.4230615693
 20
3557.237191785205
 30
0.0
 11
37637.4230615693
 21
3582.237191785205
 31
0.0
  0
LINE
  5
22FDC4
330
6C
100
AcDbEntity
  8
0
 62
     4
100
AcDbLine
 10
37637.4230615693
 20
3532.237191785205
 30
0.0
 11
37687.77423094973
 21
3532.237191785205
 31
0.0
  0
LINE
  5
22FDC6
330
6C
100
AcDbEntity
  8
0
 62
     4
100
AcDbLine
 10
37687.77423094973
 20
3507.237191785204
 30
0.0
 11
37637.4230615693
 21
3507.237191785204
 31
0.0
  0
LINE
  5
22FDC7
330
6C
100
AcDbEntity
  8
0
 62
     4
100
AcDbLine
 10
37637.4230615693
 20
3507.237191785204
 30
0.0
 11
37637.4230615693
 21
3532.237191785205
 31
0.0
  0
LINE
  5
22FDC8
330
6C
100
AcDbEntity
  8
0
 62
     4
100
AcDbLine
 10
37637.4230615693
 20
3482.237191785205
 30
0.0
 11
37686.58206321064
 21
3482.237191785205
 31
0.0
  0
LINE
  5
22FDCA
330
6C
100
AcDbEntity
  8
0
 62
     4
100
AcDbLine
 10
37684.18954811913
 20
3457.237191785205
 30
0.0
 11
37637.4230615693
 21
3457.237191785205
 31
0.0
  0
LINE
  5
22FDCB
330
6C
100
AcDbEntity
  8
0
 62
     4
100
AcDbLine
 10
37637.4230615693
 20
3457.237191785205
 30
0.0
 11
37637.4230615693
 21
3482.237191785205
 31
0.0
  0
LINE
  5
22FDCC
330
6C
100
AcDbEntity
  8
0
 62
     4
100
AcDbLine
 10
37637.4230615693
 20
3432.237191785205
 30
0.0
 11
37680.58004259052
 21
3432.237191785205
 31
0.0
  0
LINE
  5
22FDCE
330
6C
100
AcDbEntity
  8
0
 62
     4
100
AcDbLine
 10
37675.72784898845
 20
3407.237191785205
 30
0.0
 11
37637.4230615693
 21
3407.237191785205
 31
0.0
  0
LINE
  5
22FDCF
330
6C
100
AcDbEntity
  8
0
 62
     4
100
AcDbLine
 10
37637.4230615693
 20
3407.237191785205
 30
0.0
 11
37637.4230615693
 21
3432.237191785205
 31
0.0
  0
LINE
  5
22FDD0
330
6C
100
AcDbEntity
  8
0
 62
     4
100
AcDbLine
 10
37637.4230615693
 20
3382.237191785204
 30
0.0
 11
37669.59726655708
 21
3382.237191785204
 31
0.0
  0
LINE
  5
22FDD2
330
6C
100
AcDbEntity
  8
0
 62
     4
100
AcDbLine
 10
37662.1412002622
 20
3357.237191785205
 30
0.0
 11
37637.4230615693
 21
3357.237191785205
 31
0.0
  0
LINE
  5
22FDD3
330
6C
100
AcDbEntity
  8
0
 62
     4
100
AcDbLine
 10
37637.4230615693
 20
3357.237191785205
 30
0.0
 11
37637.4230615693
 21
3382.237191785204
 31
0.0
  0
LINE
  5
22FDD4
330
6C
100
AcDbEntity
  8
0
 62
     4
100
AcDbLine
 10
37572.4230615693
 20
3357.237191785205
 30
0.0
 11
37662.1412002622
 21
3357.237191785205
 31
0.0
  0
LINE
  5
22FDD6
330
6C
100
AcDbEntity
  8
0
 62
     4
100
AcDbLine
 10
37653.29919271763
 20
3332.237191785205
 30
0.0
 11
37572.4230615693
 21
3332.237191785205
 31
0.0
  0
LINE
  5
22FDD7
330
6C
100
AcDbEntity
  8
0
 62
     4
100
AcDbLine
 10
37572.4230615693
 20
3332.237191785205
 30
0.0
 11
37572.4230615693
 21
3357.237191785205
 31
0.0
  0
LINE
  5
22FDD8
330
6C
100
AcDbEntity
  8
0
 62
     4
100
AcDbLine
 10
37572.4230615693
 20
3307.237191785205
 30
0.0
 11
37642.99467081109
 21
3307.237191785205
 31
0.0
  0
LINE
  5
22FDDA
330
6C
100
AcDbEntity
  8
0
 62
     4
100
AcDbLine
 10
37631.1310815775
 20
3282.237191785205
 30
0.0
 11
37572.4230615693
 21
3282.237191785205
 31
0.0
  0
LINE
  5
22FDDB
330
6C
100
AcDbEntity
  8
0
 62
     4
100
AcDbLine
 10
37572.4230615693
 20
3282.237191785205
 30
0.0
 11
37572.4230615693
 21
3307.237191785205
 31
0.0
  0
LINE
  5
22FDDC
330
6C
100
AcDbEntity
  8
0
 62
     4
100
AcDbLine
 10
37572.4230615693
 20
3257.237191785204
 30
0.0
 11
37617.58639855613
 21
3257.237191785204
 31
0.0
  0
LINE
  5
22FDDE
330
6C
100
AcDbEntity
  8
0
 62
     4
100
AcDbLine
 10
37602.20514633944
 20
3232.237191785205
 30
0.0
 11
37572.4230615693
 21
3232.237191785205
 31
0.0
  0
LINE
  5
22FDDF
330
6C
100
AcDbEntity
  8
0
 62
     4
100
AcDbLine
 10
37572.4230615693
 20
3232.237191785205
 30
0.0
 11
37572.4230615693
 21
3257.237191785204
 31
0.0
  0
LINE
  5
22FDE0
330
6C
100
AcDbEntity
  8
0
 62
     4
100
AcDbLine
 10
37572.4230615693
 20
3207.237191785205
 30
0.0
 11
37584.78648733646
 21
3207.237191785205
 31
0.0
  0
LINE
  5
22FDE3
330
6C
100
AcDbEntity
  8
0
 62
     4
100
AcDbLine
 10
37572.4230615693
 20
3191.202946994802
 30
0.0
 11
37572.4230615693
 21
3207.237191785205
 31
0.0
  0
LINE
  5
22FDE4
330
6C
100
AcDbEntity
  8
0
 62
     4
100
AcDbLine
 10
37507.4230615693
 20
3232.237191785205
 30
0.0
 11
37598.4230615693
 21
3232.237191785205
 31
0.0
  0
LINE
  5
22FDE5
330
6C
100
AcDbEntity
  8
0
 62
     4
100
AcDbLine
 10
37598.4230615693
 20
3232.237191785205
 30
0.0
 11
37598.4230615693
 21
3226.539732723909
 31
0.0
  0
LINE
  5
22FDE6
330
6C
100
AcDbEntity
  8
0
 62
     4
100
AcDbLine
 10
37584.78648733646
 20
3207.237191785205
 30
0.0
 11
37507.4230615693
 21
3207.237191785205
 31
0.0
  0
LINE
  5
22FDE7
330
6C
100
AcDbEntity
  8
0
 62
     4
100
AcDbLine
 10
37507.4230615693
 20
3207.237191785205
 30
0.0
 11
37507.4230615693
 21
3232.237191785205
 31
0.0
  0
LINE
  5
22FDE8
330
6C
100
AcDbEntity
  8
0
 62
     4
100
AcDbLine
 10
37507.4230615693
 20
3182.237191785204
 30
0.0
 11
37565.06576012294
 21
3182.237191785204
 31
0.0
  0
LINE
  5
22FDEA
330
6C
100
AcDbEntity
  8
0
 62
     4
100
AcDbLine
 10
37542.68449984338
 20
3157.237191785204
 30
0.0
 11
37507.4230615693
 21
3157.237191785204
 31
0.0
  0
LINE
  5
22FDEB
330
6C
100
AcDbEntity
  8
0
 62
     4
100
AcDbLine
 10
37507.4230615693
 20
3157.237191785204
 30
0.0
 11
37507.4230615693
 21
3182.237191785204
 31
0.0
  0
LINE
  5
22FDEC
330
6C
100
AcDbEntity
  8
0
 62
     4
100
AcDbLine
 10
37442.4230615693
 20
3157.237191785204
 30
0.0
 11
37533.4230615693
 21
3157.237191785204
 31
0.0
  0
LINE
  5
22FDED
330
6C
100
AcDbEntity
  8
0
 62
     4
100
AcDbLine
 10
37533.4230615693
 20
3157.237191785204
 30
0.0
 11
37533.4230615693
 21
3147.776508379014
 31
0.0
  0
LINE
  5
22FDEE
330
6C
100
AcDbEntity
  8
0
 62
     4
100
AcDbLine
 10
37517.13874445192
 20
3132.237191785204
 30
0.0
 11
37442.4230615693
 21
3132.237191785204
 31
0.0
  0
LINE
  5
22FDEF
330
6C
100
AcDbEntity
  8
0
 62
     4
100
AcDbLine
 10
37442.4230615693
 20
3132.237191785204
 30
0.0
 11
37442.4230615693
 21
3157.237191785204
 31
0.0
  0
LINE
  5
22FDF0
330
6C
100
AcDbEntity
  8
0
 62
     4
100
AcDbLine
 10
37507.4230615693
 20
3132.237191785204
 30
0.0
 11
37517.13874445192
 21
3132.237191785204
 31
0.0
  0
LINE
  5
22FDF3
330
6C
100
AcDbEntity
  8
0
 62
     4
100
AcDbLine
 10
37507.4230615693
 20
3123.574662007337
 30
0.0
 11
37507.4230615693
 21
3132.237191785204
 31
0.0
  0
LINE
  5
22FDF4
330
6C
100
AcDbEntity
  8
0
 62
     4
100
AcDbLine
 10
37442.4230615693
 20
3107.237191785204
 30
0.0
 11
37487.68258798846
 21
3107.237191785204
 31
0.0
  0
LINE
  5
22FDF6
330
6C
100
AcDbEntity
  8
0
 62
     4
100
AcDbLine
 10
37453.1277307254
 20
3082.237191785204
 30
0.0
 11
37442.4230615693
 21
3082.237191785204
 31
0.0
  0
LINE
  5
22FDF7
330
6C
100
AcDbEntity
  8
0
 62
     4
100
AcDbLine
 10
37442.4230615693
 20
3082.237191785204
 30
0.0
 11
37442.4230615693
 21
3107.237191785204
 31
0.0
  0
LINE
  5
22FDF8
330
6C
100
AcDbEntity
  8
0
 62
     4
100
AcDbLine
 10
37377.4230615693
 20
3082.237191785204
 30
0.0
 11
37453.1277307254
 21
3082.237191785204
 31
0.0
  0
LINE
  5
22FDFA
330
6C
100
AcDbEntity
  8
0
 62
     4
100
AcDbLine
 10
37411.3556479987
 20
3057.237191785204
 30
0.0
 11
37377.4230615693
 21
3057.237191785204
 31
0.0
  0
LINE
  5
22FDFB
330
6C
100
AcDbEntity
  8
0
 62
     4
100
AcDbLine
 10
37377.4230615693
 20
3057.237191785204
 30
0.0
 11
37377.4230615693
 21
3082.237191785204
 31
0.0
  0
LINE
  5
22FDFC
330
6C
100
AcDbEntity
  8
0
 62
     4
100
AcDbLine
 10
37312.4230615693
 20
3057.237191785204
 30
0.0
 11
37403.4230615693
 21
3057.237191785204
 31
0.0
  0
LINE
  5
22FDFD
330
6C
100
AcDbEntity
  8
0
 62
     4
100
AcDbLine
 10
37403.4230615693
 20
3057.237191785204
 30
0.0
 11
37403.4230615693
 21
3053.063054940232
 31
0.0
  0
LINE
  5
22FDFE
330
6C
100
AcDbEntity
  8
0
 62
     4
100
AcDbLine
 10
37357.7787774208
 20
3032.237191785204
 30
0.0
 11
37312.4230615693
 21
3032.237191785204
 31
0.0
  0
LINE
  5
22FDFF
330
6C
100
AcDbEntity
  8
0
 62
     4
100
AcDbLine
 10
37312.4230615693
 20
3032.237191785204
 30
0.0
 11
37312.4230615693
 21
3057.237191785204
 31
0.0
  0
LINE
  5
22FE00
330
6C
100
AcDbEntity
  8
0
 62
     4
100
AcDbLine
 10
37247.4230615693
 20
3032.237191785204
 30
0.0
 11
37338.4230615693
 21
3032.237191785204
 31
0.0
  0
LINE
  5
22FE01
330
6C
100
AcDbEntity
  8
0
 62
     4
100
AcDbLine
 10
37338.4230615693
 20
3032.237191785204
 30
0.0
 11
37338.4230615693
 21
3024.939505856905
 31
0.0
  0
LINE
  5
22FE02
330
6C
100
AcDbEntity
  8
0
 62
     4
100
AcDbLine
 10
37276.80348130861
 20
3007.237191785204
 30
0.0
 11
37247.4230615693
 21
3007.237191785204
 31
0.0
  0
LINE
  5
22FE03
330
6C
100
AcDbEntity
  8
0
 62
     4
100
AcDbLine
 10
37247.4230615693
 20
3007.237191785204
 30
0.0
 11
37247.4230615693
 21
3032.237191785204
 31
0.0
  0
LINE
  5
22FE04
330
6C
100
AcDbEntity
  8
0
 62
     4
100
AcDbLine
 10
37052.4230615693
 20
3007.237191785204
 30
0.0
 11
37143.4230615693
 21
3007.237191785204
 31
0.0
  0
LINE
  5
22FE05
330
6C
100
AcDbEntity
  8
0
 62
     4
100
AcDbLine
 10
37143.4230615693
 20
3007.237191785204
 30
0.0
 11
37143.4230615693
 21
2995.099459630911
 31
0.0
  0
LINE
  5
22FE07
330
6C
100
AcDbEntity
  8
0
 62
     4
100
AcDbLine
 10
37052.4230615693
 20
3006.4977252591
 30
0.0
 11
37052.4230615693
 21
3007.237191785204
 31
0.0
  0
LINE
  5
22FE08
330
6C
100
AcDbEntity
  8
0
 62
     4
100
AcDbLine
 10
36987.4230615693
 20
3032.237191785204
 30
0.0
 11
37078.4230615693
 21
3032.237191785204
 31
0.0
  0
LINE
  5
22FE09
330
6C
100
AcDbEntity
  8
0
 62
     4
100
AcDbLine
 10
37078.4230615693
 20
3032.237191785204
 30
0.0
 11
37078.4230615693
 21
3007.237191785204
 31
0.0
  0
LINE
  5
22FE0A
330
6C
100
AcDbEntity
  8
0
 62
     4
100
AcDbLine
 10
37078.4230615693
 20
3007.237191785204
 30
0.0
 11
37049.04264183
 21
3007.237191785204
 31
0.0
  0
LINE
  5
22FE0B
330
6C
100
AcDbEntity
  8
0
 62
     4
100
AcDbLine
 10
36987.4230615693
 20
3024.939505856905
 30
0.0
 11
36987.4230615693
 21
3032.237191785204
 31
0.0
  0
LINE
  5
22FE0C
330
6C
100
AcDbEntity
  8
0
 62
     4
100
AcDbLine
 10
36922.4230615693
 20
3057.237191785204
 30
0.0
 11
37013.4230615693
 21
3057.237191785204
 31
0.0
  0
LINE
  5
22FE0D
330
6C
100
AcDbEntity
  8
0
 62
     4
100
AcDbLine
 10
37013.4230615693
 20
3057.237191785204
 30
0.0
 11
37013.4230615693
 21
3032.237191785204
 31
0.0
  0
LINE
  5
22FE0E
330
6C
100
AcDbEntity
  8
0
 62
     4
100
AcDbLine
 10
37013.4230615693
 20
3032.237191785204
 30
0.0
 11
36968.06734571781
 21
3032.237191785204
 31
0.0
  0
LINE
  5
22FE0F
330
6C
100
AcDbEntity
  8
0
 62
     4
100
AcDbLine
 10
36922.4230615693
 20
3053.063054940232
 30
0.0
 11
36922.4230615693
 21
3057.237191785204
 31
0.0
  0
LINE
  5
22FE10
330
6C
100
AcDbEntity
  8
0
 62
     4
100
AcDbLine
 10
36808.70737868668
 20
3132.237191785204
 30
0.0
 11
36818.4230615693
 21
3132.237191785204
 31
0.0
  0
LINE
  5
22FE11
330
6C
100
AcDbEntity
  8
0
 62
     4
100
AcDbLine
 10
36818.4230615693
 20
3132.237191785204
 30
0.0
 11
36818.4230615693
 21
3123.574662007337
 31
0.0
  0
LINE
  5
22FE18
330
6C
100
AcDbEntity
  8
0
 62
     4
100
AcDbLine
 10
36872.7183924132
 20
3082.237191785204
 30
0.0
 11
36948.4230615693
 21
3082.237191785204
 31
0.0
  0
LINE
  5
22FE19
330
6C
100
AcDbEntity
  8
0
 62
     4
100
AcDbLine
 10
36948.4230615693
 20
3082.237191785204
 30
0.0
 11
36948.4230615693
 21
3057.237191785204
 31
0.0
  0
LINE
  5
22FE1A
330
6C
100
AcDbEntity
  8
0
 62
     4
100
AcDbLine
 10
36948.4230615693
 20
3057.237191785204
 30
0.0
 11
36914.4904751399
 21
3057.237191785204
 31
0.0
  0
LINE
  5
22FE1C
330
6C
100
AcDbEntity
  8
0
 62
     4
100
AcDbLine
 10
36838.16353515014
 20
3107.237191785204
 30
0.0
 11
36883.4230615693
 21
3107.237191785204
 31
0.0
  0
LINE
  5
22FE1D
330
6C
100
AcDbEntity
  8
0
 62
     4
100
AcDbLine
 10
36883.4230615693
 20
3107.237191785204
 30
0.0
 11
36883.4230615693
 21
3082.237191785204
 31
0.0
  0
LINE
  5
22FE1E
330
6C
100
AcDbEntity
  8
0
 62
     4
100
AcDbLine
 10
36883.4230615693
 20
3082.237191785204
 30
0.0
 11
36872.7183924132
 21
3082.237191785204
 31
0.0
  0
LINE
  5
22FE28
330
6C
100
AcDbEntity
  8
0
 62
     4
100
AcDbLine
 10
36760.78036301567
 20
3182.237191785204
 30
0.0
 11
36818.4230615693
 21
3182.237191785204
 31
0.0
  0
LINE
  5
22FE29
330
6C
100
AcDbEntity
  8
0
 62
     4
100
AcDbLine
 10
36818.4230615693
 20
3182.237191785204
 30
0.0
 11
36818.4230615693
 21
3157.237191785204
 31
0.0
  0
LINE
  5
22FE2A
330
6C
100
AcDbEntity
  8
0
 62
     4
100
AcDbLine
 10
36818.4230615693
 20
3157.237191785204
 30
0.0
 11
36783.16162329522
 21
3157.237191785204
 31
0.0
  0
LINE
  5
22FE2C
330
6C
100
AcDbEntity
  8
0
 62
     4
100
AcDbLine
 10
36741.05963580215
 20
3207.237191785205
 30
0.0
 11
36753.4230615693
 21
3207.237191785205
 31
0.0
  0
LINE
  5
22FE2D
330
6C
100
AcDbEntity
  8
0
 62
     4
100
AcDbLine
 10
36753.4230615693
 20
3207.237191785205
 30
0.0
 11
36753.4230615693
 21
3191.202946994802
 31
0.0
  0
LINE
  5
22FE30
330
6C
100
AcDbEntity
  8
0
 62
     4
100
AcDbLine
 10
36727.4230615693
 20
3232.237191785205
 30
0.0
 11
36818.4230615693
 21
3232.237191785205
 31
0.0
  0
LINE
  5
22FE31
330
6C
100
AcDbEntity
  8
0
 62
     4
100
AcDbLine
 10
36818.4230615693
 20
3232.237191785205
 30
0.0
 11
36818.4230615693
 21
3207.237191785205
 31
0.0
  0
LINE
  5
22FE32
330
6C
100
AcDbEntity
  8
0
 62
     4
100
AcDbLine
 10
36818.4230615693
 20
3207.237191785205
 30
0.0
 11
36741.05963580215
 21
3207.237191785205
 31
0.0
  0
LINE
  5
22FE33
330
6C
100
AcDbEntity
  8
0
 62
     4
100
AcDbLine
 10
36727.4230615693
 20
3226.539732723909
 30
0.0
 11
36727.4230615693
 21
3232.237191785205
 31
0.0
  0
LINE
  5
22FE34
330
6C
100
AcDbEntity
  8
0
 62
     4
100
AcDbLine
 10
36708.25972458247
 20
3257.237191785204
 30
0.0
 11
36753.4230615693
 21
3257.237191785204
 31
0.0
  0
LINE
  5
22FE35
330
6C
100
AcDbEntity
  8
0
 62
     4
100
AcDbLine
 10
36753.4230615693
 20
3257.237191785204
 30
0.0
 11
36753.4230615693
 21
3232.237191785205
 31
0.0
  0
LINE
  5
22FE36
330
6C
100
AcDbEntity
  8
0
 62
     4
100
AcDbLine
 10
36753.4230615693
 20
3232.237191785205
 30
0.0
 11
36723.64097679917
 21
3232.237191785205
 31
0.0
  0
LINE
  5
22FE38
330
6C
100
AcDbEntity
  8
0
 62
     4
100
AcDbLine
 10
36682.85145232752
 20
3307.237191785205
 30
0.0
 11
36753.4230615693
 21
3307.237191785205
 31
0.0
  0
LINE
  5
22FE39
330
6C
100
AcDbEntity
  8
0
 62
     4
100
AcDbLine
 10
36753.4230615693
 20
3307.237191785205
 30
0.0
 11
36753.4230615693
 21
3282.237191785205
 31
0.0
  0
LINE
  5
22FE3A
330
6C
100
AcDbEntity
  8
0
 62
     4
100
AcDbLine
 10
36753.4230615693
 20
3282.237191785205
 30
0.0
 11
36694.7150415611
 21
3282.237191785205
 31
0.0
  0
LINE
  5
22FE3C
330
6C
100
AcDbEntity
  8
0
 62
     4
100
AcDbLine
 10
36672.54693042098
 20
3332.237191785205
 30
0.0
 11
36688.4230615693
 21
3332.237191785205
 31
0.0
  0
LINE
  5
22FE3D
330
6C
100
AcDbEntity
  8
0
 62
     4
100
AcDbLine
 10
36688.4230615693
 20
3332.237191785205
 30
0.0
 11
36688.4230615693
 21
3307.237191785205
 31
0.0
  0
LINE
  5
22FE3E
330
6C
100
AcDbEntity
  8
0
 62
     4
100
AcDbLine
 10
36688.4230615693
 20
3307.237191785205
 30
0.0
 11
36682.85145232752
 21
3307.237191785205
 31
0.0
  0
LINE
  5
22FE40
330
6C
100
AcDbEntity
  8
0
 62
     4
100
AcDbLine
 10
36656.24885658152
 20
3382.237191785204
 30
0.0
 11
36688.4230615693
 21
3382.237191785204
 31
0.0
  0
LINE
  5
22FE41
330
6C
100
AcDbEntity
  8
0
 62
     4
100
AcDbLine
 10
36688.4230615693
 20
3382.237191785204
 30
0.0
 11
36688.4230615693
 21
3357.237191785205
 31
0.0
  0
LINE
  5
22FE42
330
6C
100
AcDbEntity
  8
0
 62
     4
100
AcDbLine
 10
36688.4230615693
 20
3357.237191785205
 30
0.0
 11
36663.70492287641
 21
3357.237191785205
 31
0.0
  0
LINE
  5
22FE44
330
6C
100
AcDbEntity
  8
0
 62
     4
100
AcDbLine
 10
36663.70492287641
 20
3357.237191785205
 30
0.0
 11
36753.4230615693
 21
3357.237191785205
 31
0.0
  0
LINE
  5
22FE45
330
6C
100
AcDbEntity
  8
0
 62
     4
100
AcDbLine
 10
36753.4230615693
 20
3357.237191785205
 30
0.0
 11
36753.4230615693
 21
3332.237191785205
 31
0.0
  0
LINE
  5
22FE46
330
6C
100
AcDbEntity
  8
0
 62
     4
100
AcDbLine
 10
36753.4230615693
 20
3332.237191785205
 30
0.0
 11
36672.54693042098
 21
3332.237191785205
 31
0.0
  0
LINE
  5
22FE49
330
6C
100
AcDbEntity
  8
0
 62
     4
100
AcDbLine
 10
37143.42306156931
 20
4044.374923939498
 30
0.0
 11
37143.42306156931
 21
4032.237191785204
 31
0.0
  0
LINE
  5
22FE4A
330
6C
100
AcDbEntity
  8
0
 62
     4
100
AcDbLine
 10
37143.42306156931
 20
4032.237191785204
 30
0.0
 11
37052.42306156931
 21
4032.237191785204
 31
0.0
  0
LINE
  5
22FE4B
330
6C
100
AcDbEntity
  8
0
 62
     4
100
AcDbLine
 10
37052.42306156931
 20
4032.237191785204
 30
0.0
 11
37052.42306156931
 21
4032.97665831131
 31
0.0
  0
LINE
  5
22FE4C
330
6C
100
AcDbEntity
  8
0
 62
     4
100
AcDbLine
 10
37049.04264183
 20
4032.237191785204
 30
0.0
 11
37078.4230615693
 21
4032.237191785204
 31
0.0
  0
LINE
  5
22FE4D
330
6C
100
AcDbEntity
  8
0
 62
     4
100
AcDbLine
 10
37078.4230615693
 20
4032.237191785204
 30
0.0
 11
37078.4230615693
 21
4007.237191785204
 31
0.0
  0
LINE
  5
22FE4E
330
6C
100
AcDbEntity
  8
0
 62
     4
100
AcDbLine
 10
37078.4230615693
 20
4007.237191785204
 30
0.0
 11
36987.4230615693
 21
4007.237191785204
 31
0.0
  0
LINE
  5
22FE4F
330
6C
100
AcDbEntity
  8
0
 62
     4
100
AcDbLine
 10
36987.4230615693
 20
4007.237191785204
 30
0.0
 11
36987.4230615693
 21
4014.534877713503
 31
0.0
  0
LINE
  5
22FE50
330
6C
100
AcDbEntity
  8
0
 62
     4
100
AcDbLine
 10
36968.06734571781
 20
4007.237191785204
 30
0.0
 11
37013.4230615693
 21
4007.237191785204
 31
0.0
  0
LINE
  5
22FE51
330
6C
100
AcDbEntity
  8
0
 62
     4
100
AcDbLine
 10
37013.4230615693
 20
4007.237191785204
 30
0.0
 11
37013.4230615693
 21
3982.237191785205
 31
0.0
  0
LINE
  5
22FE52
330
6C
100
AcDbEntity
  8
0
 62
     4
100
AcDbLine
 10
37013.4230615693
 20
3982.237191785205
 30
0.0
 11
36922.4230615693
 21
3982.237191785205
 31
0.0
  0
LINE
  5
22FE53
330
6C
100
AcDbEntity
  8
0
 62
     4
100
AcDbLine
 10
36922.4230615693
 20
3982.237191785205
 30
0.0
 11
36922.4230615693
 21
3986.411328630177
 31
0.0
  0
LINE
  5
22FE54
330
6C
100
AcDbEntity
  8
0
 62
     4
100
AcDbLine
 10
36914.4904751399
 20
3982.237191785205
 30
0.0
 11
36948.4230615693
 21
3982.237191785205
 31
0.0
  0
LINE
  5
22FE55
330
6C
100
AcDbEntity
  8
0
 62
     4
100
AcDbLine
 10
36948.4230615693
 20
3982.237191785205
 30
0.0
 11
36948.4230615693
 21
3957.237191785205
 31
0.0
  0
LINE
  5
22FE56
330
6C
100
AcDbEntity
  8
0
 62
     4
100
AcDbLine
 10
36948.4230615693
 20
3957.237191785205
 30
0.0
 11
36872.7183924132
 21
3957.237191785205
 31
0.0
  0
LINE
  5
22FE58
330
6C
100
AcDbEntity
  8
0
 62
     4
100
AcDbLine
 10
36872.7183924132
 20
3957.237191785205
 30
0.0
 11
36883.4230615693
 21
3957.237191785205
 31
0.0
  0
LINE
  5
22FE59
330
6C
100
AcDbEntity
  8
0
 62
     4
100
AcDbLine
 10
36883.4230615693
 20
3957.237191785205
 30
0.0
 11
36883.4230615693
 21
3932.237191785205
 31
0.0
  0
LINE
  5
22FE5A
330
6C
100
AcDbEntity
  8
0
 62
     4
100
AcDbLine
 10
36883.4230615693
 20
3932.237191785205
 30
0.0
 11
36838.16353515014
 21
3932.237191785205
 31
0.0
  0
LINE
  5
22FE5D
330
6C
100
AcDbEntity
  8
0
 62
     4
100
AcDbLine
 10
36818.4230615693
 20
3915.899721563072
 30
0.0
 11
36818.4230615693
 21
3907.237191785205
 31
0.0
  0
LINE
  5
22FE5E
330
6C
100
AcDbEntity
  8
0
 62
     4
100
AcDbLine
 10
36818.4230615693
 20
3907.237191785205
 30
0.0
 11
36808.70737868668
 21
3907.237191785205
 31
0.0
  0
LINE
  5
22FE60
330
6C
100
AcDbEntity
  8
0
 62
     4
100
AcDbLine
 10
36808.70737868668
 20
3907.237191785205
 30
0.0
 11
36883.4230615693
 21
3907.237191785205
 31
0.0
  0
LINE
  5
22FE61
330
6C
100
AcDbEntity
  8
0
 62
     4
100
AcDbLine
 10
36883.4230615693
 20
3907.237191785205
 30
0.0
 11
36883.4230615693
 21
3882.237191785204
 31
0.0
  0
LINE
  5
22FE62
330
6C
100
AcDbEntity
  8
0
 62
     4
100
AcDbLine
 10
36883.4230615693
 20
3882.237191785204
 30
0.0
 11
36792.4230615693
 21
3882.237191785204
 31
0.0
  0
LINE
  5
22FE63
330
6C
100
AcDbEntity
  8
0
 62
     4
100
AcDbLine
 10
36792.4230615693
 20
3882.237191785204
 30
0.0
 11
36792.4230615693
 21
3891.697875191395
 31
0.0
  0
LINE
  5
22FE64
330
6C
100
AcDbEntity
  8
0
 62
     4
100
AcDbLine
 10
36783.16162329522
 20
3882.237191785204
 30
0.0
 11
36818.4230615693
 21
3882.237191785204
 31
0.0
  0
LINE
  5
22FE65
330
6C
100
AcDbEntity
  8
0
 62
     4
100
AcDbLine
 10
36818.4230615693
 20
3882.237191785204
 30
0.0
 11
36818.4230615693
 21
3857.237191785205
 31
0.0
  0
LINE
  5
22FE66
330
6C
100
AcDbEntity
  8
0
 62
     4
100
AcDbLine
 10
36818.4230615693
 20
3857.237191785205
 30
0.0
 11
36760.78036301567
 21
3857.237191785205
 31
0.0
  0
LINE
  5
22FE69
330
6C
100
AcDbEntity
  8
0
 62
     4
100
AcDbLine
 10
36753.4230615693
 20
3848.271436575607
 30
0.0
 11
36753.4230615693
 21
3832.237191785205
 31
0.0
  0
LINE
  5
22FE6A
330
6C
100
AcDbEntity
  8
0
 62
     4
100
AcDbLine
 10
36753.4230615693
 20
3832.237191785205
 30
0.0
 11
36741.05963580215
 21
3832.237191785205
 31
0.0
  0
LINE
  5
22FE6C
330
6C
100
AcDbEntity
  8
0
 62
     4
100
AcDbLine
 10
36741.05963580215
 20
3832.237191785205
 30
0.0
 11
36818.4230615693
 21
3832.237191785205
 31
0.0
  0
LINE
  5
22FE6D
330
6C
100
AcDbEntity
  8
0
 62
     4
100
AcDbLine
 10
36818.4230615693
 20
3832.237191785205
 30
0.0
 11
36818.4230615693
 21
3807.237191785205
 31
0.0
  0
LINE
  5
22FE6E
330
6C
100
AcDbEntity
  8
0
 62
     4
100
AcDbLine
 10
36818.4230615693
 20
3807.237191785205
 30
0.0
 11
36727.4230615693
 21
3807.237191785205
 31
0.0
  0
LINE
  5
22FE6F
330
6C
100
AcDbEntity
  8
0
 62
     4
100
AcDbLine
 10
36727.4230615693
 20
3807.237191785205
 30
0.0
 11
36727.4230615693
 21
3812.9346508465
 31
0.0
  0
LINE
  5
22FE70
330
6C
100
AcDbEntity
  8
0
 62
     4
100
AcDbLine
 10
36694.7150415611
 20
3757.237191785204
 30
0.0
 11
36753.4230615693
 21
3757.237191785204
 31
0.0
  0
LINE
  5
22FE71
330
6C
100
AcDbEntity
  8
0
 62
     4
100
AcDbLine
 10
36753.4230615693
 20
3757.237191785204
 30
0.0
 11
36753.4230615693
 21
3732.237191785205
 31
0.0
  0
LINE
  5
22FE72
330
6C
100
AcDbEntity
  8
0
 62
     4
100
AcDbLine
 10
36753.4230615693
 20
3732.237191785205
 30
0.0
 11
36682.85145232752
 21
3732.237191785205
 31
0.0
  0
LINE
  5
22FE74
330
6C
100
AcDbEntity
  8
0
 62
     4
100
AcDbLine
 10
36682.85145232752
 20
3732.237191785205
 30
0.0
 11
36688.4230615693
 21
3732.237191785205
 31
0.0
  0
LINE
  5
22FE75
330
6C
100
AcDbEntity
  8
0
 62
     4
100
AcDbLine
 10
36688.4230615693
 20
3732.237191785205
 30
0.0
 11
36688.4230615693
 21
3707.237191785205
 31
0.0
  0
LINE
  5
22FE76
330
6C
100
AcDbEntity
  8
0
 62
     4
100
AcDbLine
 10
36688.4230615693
 20
3707.237191785205
 30
0.0
 11
36672.54693042098
 21
3707.237191785205
 31
0.0
  0
LINE
  5
22FE78
330
6C
100
AcDbEntity
  8
0
 62
     4
100
AcDbLine
 10
36672.54693042098
 20
3707.237191785205
 30
0.0
 11
36753.4230615693
 21
3707.237191785205
 31
0.0
  0
LINE
  5
22FE79
330
6C
100
AcDbEntity
  8
0
 62
     4
100
AcDbLine
 10
36753.4230615693
 20
3707.237191785205
 30
0.0
 11
36753.4230615693
 21
3682.237191785205
 31
0.0
  0
LINE
  5
22FE7A
330
6C
100
AcDbEntity
  8
0
 62
     4
100
AcDbLine
 10
36753.4230615693
 20
3682.237191785205
 30
0.0
 11
36663.70492287641
 21
3682.237191785205
 31
0.0
  0
LINE
  5
22FE7C
330
6C
100
AcDbEntity
  8
0
 62
     4
100
AcDbLine
 10
36663.70492287641
 20
3682.237191785205
 30
0.0
 11
36688.4230615693
 21
3682.237191785205
 31
0.0
  0
LINE
  5
22FE7D
330
6C
100
AcDbEntity
  8
0
 62
     4
100
AcDbLine
 10
36688.4230615693
 20
3682.237191785205
 30
0.0
 11
36688.4230615693
 21
3657.237191785205
 31
0.0
  0
LINE
  5
22FE7E
330
6C
100
AcDbEntity
  8
0
 62
     4
100
AcDbLine
 10
36688.4230615693
 20
3657.237191785205
 30
0.0
 11
36656.24885658152
 21
3657.237191785205
 31
0.0
  0
LINE
  5
22FE80
330
6C
100
AcDbEntity
  8
0
 62
     4
100
AcDbLine
 10
36650.11827415015
 20
3632.237191785204
 30
0.0
 11
36688.4230615693
 21
3632.237191785204
 31
0.0
  0
LINE
  5
22FE81
330
6C
100
AcDbEntity
  8
0
 62
     4
100
AcDbLine
 10
36688.4230615693
 20
3632.237191785204
 30
0.0
 11
36688.4230615693
 21
3607.237191785205
 31
0.0
  0
LINE
  5
22FE82
330
6C
100
AcDbEntity
  8
0
 62
     4
100
AcDbLine
 10
36688.4230615693
 20
3607.237191785205
 30
0.0
 11
36645.26608054809
 21
3607.237191785205
 31
0.0
  0
LINE
  5
22FE84
330
6C
100
AcDbEntity
  8
0
 62
     4
100
AcDbLine
 10
36641.65657501948
 20
3582.237191785205
 30
0.0
 11
36688.4230615693
 21
3582.237191785205
 31
0.0
  0
LINE
  5
22FE85
330
6C
100
AcDbEntity
  8
0
 62
     4
100
AcDbLine
 10
36688.4230615693
 20
3582.237191785205
 30
0.0
 11
36688.4230615693
 21
3557.237191785205
 31
0.0
  0
LINE
  5
22FE86
330
6C
100
AcDbEntity
  8
0
 62
     4
100
AcDbLine
 10
36688.4230615693
 20
3557.237191785205
 30
0.0
 11
36639.26405992797
 21
3557.237191785205
 31
0.0
  0
LINE
  5
22FE88
330
6C
100
AcDbEntity
  8
0
 62
     4
100
AcDbLine
 10
36638.07189218888
 20
3532.237191785205
 30
0.0
 11
36688.4230615693
 21
3532.237191785205
 31
0.0
  0
LINE
  5
22FE89
330
6C
100
AcDbEntity
  8
0
 62
     4
100
AcDbLine
 10
36688.4230615693
 20
3532.237191785205
 30
0.0
 11
36688.4230615693
 21
3507.237191785204
 31
0.0
  0
LINE
  5
22FE8A
330
6C
100
AcDbEntity
  8
0
 62
     4
100
AcDbLine
 10
36688.4230615693
 20
3507.237191785204
 30
0.0
 11
36638.07189218888
 21
3507.237191785204
 31
0.0
  0
LINE
  5
22FE8C
330
6C
100
AcDbEntity
  8
0
 62
     4
100
AcDbLine
 10
36639.26405992797
 20
3482.237191785205
 30
0.0
 11
36688.4230615693
 21
3482.237191785205
 31
0.0
  0
LINE
  5
22FE8D
330
6C
100
AcDbEntity
  8
0
 62
     4
100
AcDbLine
 10
36688.4230615693
 20
3482.237191785205
 30
0.0
 11
36688.4230615693
 21
3457.237191785205
 31
0.0
  0
LINE
  5
22FE8E
330
6C
100
AcDbEntity
  8
0
 62
     4
100
AcDbLine
 10
36688.4230615693
 20
3457.237191785205
 30
0.0
 11
36641.65657501948
 21
3457.237191785205
 31
0.0
  0
LINE
  5
22FE90
330
6C
100
AcDbEntity
  8
0
 62
     4
100
AcDbLine
 10
36645.26608054809
 20
3432.237191785205
 30
0.0
 11
36688.4230615693
 21
3432.237191785205
 31
0.0
  0
LINE
  5
22FE91
330
6C
100
AcDbEntity
  8
0
 62
     4
100
AcDbLine
 10
36688.4230615693
 20
3432.237191785205
 30
0.0
 11
36688.4230615693
 21
3407.237191785205
 31
0.0
  0
LINE
  5
22FE92
330
6C
100
AcDbEntity
  8
0
 62
     4
100
AcDbLine
 10
36688.4230615693
 20
3407.237191785205
 30
0.0
 11
36650.11827415015
 21
3407.237191785205
 31
0.0
  0
LINE
  5
22FEA2
330
6C
100
AcDbEntity
  8
0
 62
     4
100
AcDbLine
 10
36723.64097679917
 20
3807.237191785205
 30
0.0
 11
36753.4230615693
 21
3807.237191785205
 31
0.0
  0
LINE
  5
22FEA3
330
6C
100
AcDbEntity
  8
0
 62
     4
100
AcDbLine
 10
36753.4230615693
 20
3807.237191785205
 30
0.0
 11
36753.4230615693
 21
3782.237191785205
 31
0.0
  0
LINE
  5
22FEA4
330
6C
100
AcDbEntity
  8
0
 62
     4
100
AcDbLine
 10
36753.4230615693
 20
3782.237191785205
 30
0.0
 11
36708.25972458247
 21
3782.237191785205
 31
0.0
  0
LINE
  5
22FEA6
330
6C
100
AcDbEntity
  8
0
 62
     4
100
AcDbLine
 10
36792.4230615693
 20
3157.237191785204
 30
0.0
 11
36883.4230615693
 21
3157.237191785204
 31
0.0
  0
LINE
  5
22FEA7
330
6C
100
AcDbEntity
  8
0
 62
     4
100
AcDbLine
 10
36883.4230615693
 20
3157.237191785204
 30
0.0
 11
36883.4230615693
 21
3132.237191785204
 31
0.0
  0
LINE
  5
22FEA8
330
6C
100
AcDbEntity
  8
0
 62
     4
100
AcDbLine
 10
36883.4230615693
 20
3132.237191785204
 30
0.0
 11
36808.70737868668
 21
3132.237191785204
 31
0.0
  0
LINE
  5
22FEA9
330
6C
100
AcDbEntity
  8
0
 62
     4
100
AcDbLine
 10
36792.4230615693
 20
3147.776508379014
 30
0.0
 11
36792.4230615693
 21
3157.237191785204
 31
0.0
  0
LINE
  5
22FEAA
330
6C
100
AcDbEntity
  8
0
 62
     4
100
AcDbLine
 10
37182.4230615693
 20
3007.237191785204
 30
0.0
 11
37273.4230615693
 21
3007.237191785204
 31
0.0
  0
LINE
  5
22FEAB
330
6C
100
AcDbEntity
  8
0
 62
     4
100
AcDbLine
 10
37273.4230615693
 20
3007.237191785204
 30
0.0
 11
37273.4230615693
 21
3006.4977252591
 31
0.0
  0
LINE
  5
22FEAD
330
6C
100
AcDbEntity
  8
0
 62
     4
100
AcDbLine
 10
37182.4230615693
 20
2995.099459630911
 30
0.0
 11
37182.4230615693
 21
3007.237191785204
 31
0.0
  0
LINE
  5
22FEAE
330
6C
100
AcDbEntity
  8
0
 62
     4
100
AcDbLine
 10
37637.4230615693
 20
3632.237191785204
 30
0.0
 11
37675.72784898845
 21
3632.237191785204
 31
0.0
  0
LINE
  5
22FEB0
330
6C
100
AcDbEntity
  8
0
 62
     4
100
AcDbLine
 10
37680.58004259052
 20
3607.237191785205
 30
0.0
 11
37637.4230615693
 21
3607.237191785205
 31
0.0
  0
LINE
  5
22FEB1
330
6C
100
AcDbEntity
  8
0
 62
     4
100
AcDbLine
 10
37637.4230615693
 20
3607.237191785205
 30
0.0
 11
37637.4230615693
 21
3632.237191785204
 31
0.0
  0
LINE
  5
22FEB2
330
6C
100
AcDbEntity
  8
0
 62
     4
100
AcDbLine
 10
37572.4230615693
 20
3707.237191785205
 30
0.0
 11
37653.29919271763
 21
3707.237191785205
 31
0.0
  0
LINE
  5
22FEB4
330
6C
100
AcDbEntity
  8
0
 62
     4
100
AcDbLine
 10
37662.1412002622
 20
3682.237191785205
 30
0.0
 11
37572.4230615693
 21
3682.237191785205
 31
0.0
  0
LINE
  5
22FEB5
330
6C
100
AcDbEntity
  8
0
 62
     4
100
AcDbLine
 10
37572.4230615693
 20
3682.237191785205
 30
0.0
 11
37572.4230615693
 21
3707.237191785205
 31
0.0
  0
LINE
  5
22FEB6
330
6C
100
AcDbEntity
  8
0
 62
     4
100
AcDbLine
 10
37442.4230615693
 20
3907.237191785205
 30
0.0
 11
37517.13874445192
 21
3907.237191785205
 31
0.0
  0
LINE
  5
22FEB7
330
6C
100
AcDbEntity
  8
0
 62
     4
100
AcDbLine
 10
37533.4230615693
 20
3891.697875191395
 30
0.0
 11
37533.4230615693
 21
3882.237191785204
 31
0.0
  0
LINE
  5
22FEB8
330
6C
100
AcDbEntity
  8
0
 62
     4
100
AcDbLine
 10
37533.4230615693
 20
3882.237191785204
 30
0.0
 11
37442.4230615693
 21
3882.237191785204
 31
0.0
  0
LINE
  5
22FEB9
330
6C
100
AcDbEntity
  8
0
 62
     4
100
AcDbLine
 10
37442.4230615693
 20
3882.237191785204
 30
0.0
 11
37442.4230615693
 21
3907.237191785205
 31
0.0
  0
LINE
  5
22FEBA
330
6C
100
AcDbEntity
  8
0
 62
     4
100
AcDbLine
 10
37507.4230615693
 20
3832.237191785205
 30
0.0
 11
37584.78648733646
 21
3832.237191785205
 31
0.0
  0
LINE
  5
22FEBB
330
6C
100
AcDbEntity
  8
0
 62
     4
100
AcDbLine
 10
37598.4230615693
 20
3812.9346508465
 30
0.0
 11
37598.4230615693
 21
3807.237191785205
 31
0.0
  0
LINE
  5
22FEBC
330
6C
100
AcDbEntity
  8
0
 62
     4
100
AcDbLine
 10
37598.4230615693
 20
3807.237191785205
 30
0.0
 11
37507.4230615693
 21
3807.237191785205
 31
0.0
  0
LINE
  5
22FEBD
330
6C
100
AcDbEntity
  8
0
 62
     4
100
AcDbLine
 10
37507.4230615693
 20
3807.237191785205
 30
0.0
 11
37507.4230615693
 21
3832.237191785205
 31
0.0
  0
ENDSEC
  0
SECTION
  2
OBJECTS
  0
DICTIONARY
  5
C
330
0
100
AcDbDictionary
281
     1
  3
ACAD_2007HEADERVARS_RT
350
22FF40
  3
ACAD_COLOR
350
63
  3
ACAD_GROUP
350
D
  3
ACAD_LAYOUT
350
62
  3
ACAD_MATERIAL
350
10
  3
ACAD_MLEADERSTYLE
350
66
  3
ACAD_MLINESTYLE
350
5F
  3
ACAD_PLOTSETTINGS
350
61
  3
ACAD_PLOTSTYLENAME
350
E
  3
ACAD_SCALELIST
350
42
  3
ACAD_TABLESTYLE
350
64
  3
ACAD_VISUALSTYLE
350
29
  3
ACDB_RECOMPOSE_DATA
350
22FF3E
  3
AcDbVariableDictionary
350
22DB7
  3
AcmDictionary
350
22E11
  3
AMG
350
22DC3
  3
AMGSNAPSETTINGS
350
22E52
  3
DWGPROPS
350
22FF3F
  0
DICTIONARY
  5
22E5D
330
2
100
AcDbDictionary
280
     1
281
     1
  3
ACAD_LAYERSTATES
360
22E5E
  3
AMLAYER_GROUPCOLORS
360
79095
  0
DICTIONARY
  5
2D669
330
6C
100
AcDbDictionary
280
     1
281
     1
  3
ACAD_SORTENTS
360
2D66A
  0
DICTIONARY
  5
22FD92
330
21D8C1
100
AcDbDictionary
280
     1
281
     1
  3
ACAD_SORTENTS
360
22FD93
  0
DICTIONARY
  5
22FF40
102
{ACAD_REACTORS
330
C
102
}
330
C
100
AcDbDictionary
281
     1
  3
DIMARCSYM
350
22FF41
  3
DIMLTEX1
350
22FF43
  3
DIMLTEX2
350
22FF44
  3
DIMLTYPE
350
22FF42
  0
DICTIONARY
  5
63
102
{ACAD_REACTORS
330
C
102
}
330
C
100
AcDbDictionary
281
     1
  0
DICTIONARY
  5
D
102
{ACAD_REACTORS
330
C
102
}
330
C
100
AcDbDictionary
281
     1
  0
DICTIONARY
  5
62
102
{ACAD_REACTORS
330
C
102
}
330
C
100
AcDbDictionary
281
     1
  3
Layout1
350
6B
  3
Layout2
350
73
  3
Model
350
6F
  0
DICTIONARY
  5
10
102
{ACAD_REACTORS
330
C
102
}
330
C
100
AcDbDictionary
281
     1
  3
ByBlock
350
19
  3
ByLayer
350
11
  3
Global
350
21
  0
DICTIONARY
  5
66
102
{ACAD_REACTORS
330
C
102
}
330
C
100
AcDbDictionary
281
     1
  3
Standard
350
67
  0
DICTIONARY
  5
5F
102
{ACAD_REACTORS
330
C
102
}
330
C
100
AcDbDictionary
281
     1
  3
Standard
350
60
  0
DICTIONARY
  5
61
102
{ACAD_REACTORS
330
C
102
}
330
C
100
AcDbDictionary
281
     1
  0
ACDBDICTIONARYWDFLT
  5
E
102
{ACAD_REACTORS
330
C
102
}
330
C
100
AcDbDictionary
281
     1
  3
Normal
350
F
100
AcDbDictionaryWithDefault
340
F
  0
DICTIONARY
  5
42
102
{ACAD_REACTORS
330
C
102
}
330
C
100
AcDbDictionary
281
     1
  3
A0
350
43
  3
A1
350
44
  3
A2
350
45
  3
A3
350
46
  3
A4
350
47
  3
A5
350
48
  3
A6
350
49
  3
A7
350
4A
  3
A8
350
4B
  3
A9
350
4C
  3
B0
350
4D
  3
B1
350
4E
  3
B2
350
4F
  3
B3
350
50
  3
B4
350
51
  3
B5
350
52
  3
B6
350
53
  0
DICTIONARY
  5
64
102
{ACAD_REACTORS
330
C
102
}
330
C
100
AcDbDictionary
281
     1
  3
Standard
350
65
  0
DICTIONARY
  5
29
102
{ACAD_REACTORS
330
C
102
}
330
C
100
AcDbDictionary
281
     1
  3
2dWireframe
350
2F
  3
3dWireframe
350
22EE4
  3
Basic
350
2E
  3
Brighten
350
35
  3
ColorChange
350
39
  3
Conceptual
350
32
  3
Dim
350
34
  3
EdgeColorOff
350
41
  3
Facepattern
350
38
  3
Flat
350
2A
  3
FlatWithEdges
350
2B
  3
Gouraud
350
2C
  3
GouraudWithEdges
350
2D
  3
Hidden
350
31
  3
JitterOff
350
3F
  3
Linepattern
350
37
  3
OverhangOff
350
40
  3
Realistic
350
33
  3
Shaded
350
3E
  3
Shaded with edges
350
3D
  3
Shades of Gray
350
3A
  3
Sketchy
350
3B
  3
Thicken
350
36
  3
Wireframe
350
30
  3
X-Ray
350
3C
  0
XRECORD
  5
22FF3E
102
{ACAD_REACTORS
330
C
102
}
330
C
100
AcDbXrecord
280
     1
 90
        1
330
65
  0
DICTIONARY
  5
22DB7
102
{ACAD_REACTORS
330
C
102
}
330
C
100
AcDbDictionary
281
     1
  3
CANNOSCALE
350
22DBA
  3
CMLEADERSTYLE
350
22DB9
  3
CTABLESTYLE
350
22DB8
  3
DIMASSOC
350
21D4C6
  3
HIDETEXT
350
21D4C5
  3
HPORIGIN
350
7A31F
  3
INDEXCTL
350
21D4C4
  3
LAYEREVAL
350
21D4C1
  3
LAYERNOTIFY
350
21D4C2
  3
LIGHTINGUNITS
350
21D4C0
  3
MSLTSCALE
350
21D4BF
  3
SORTENTS
350
21D4C3
  3
XCLIPFRAME
350
22FF3C
  0
DICTIONARY
  5
22E11
102
{ACAD_REACTORS
330
C
102
}
330
C
100
AcDbDictionary
281
     1
  3
AcmStdDictionary
350
22E1C
  0
DICTIONARY
  5
22DC3
102
{ACAD_REACTORS
330
C
102
}
330
C
100
AcDbDictionary
281
     1
  0
DICTIONARY
  5
22E52
102
{ACAD_REACTORS
330
C
102
}
330
C
100
AcDbDictionary
281
     1
  0
XRECORD
  5
22FF3F
102
{ACAD_REACTORS
330
C
102
}
330
C
100
AcDbXrecord
280
     1
  1
DWGPROPS COOKIE
  2

  3

  4
Daniel Mazur
  6

  7

  8
Jumpo
  9

300
Menadżer=
301
Firma=
302
Kategoria=
303
Numer części=
304
Opis=
305
Projekt=
306
Projektant=Daniel Mazur
307
Inżynier=
308
Zatwierdził=
309
Centrum kosztów=
 40
1.568774270833333
 41
2458022.861501852
 42
2458667.563414445
  1

 90
       16
300
Dostawca=
300
Stan użytkownika=
300
Stan projektu=PracaWToku
300
Sprawdził=
300
Zatwierdził konstrukcję=
300
Zatwierdził do produkcji=
  0
DICTIONARY
  5
22E5E
102
{ACAD_REACTORS
330
22E5D
102
}
330
22E5D
100
AcDbDictionary
281
     1
  0
DICTIONARY
  5
79095
102
{ACAD_REACTORS
330
22E5D
102
}
330
22E5D
100
AcDbDictionary
280
     1
281
     1
  0
SORTENTSTABLE
  5
2D66A
102
{ACAD_REACTORS
330
2D669
102
}
330
2D669
100
AcDbSortentsTable
330
6C
331
22FEBD
  5
22FDFA
331
22FEB9
  5
22FDD2
331
22FE3E
  5
22FBAF
331
22FDFF
  5
22FE70
331
22FE7D
  5
22FB7F
331
22FE79
  5
22FB7A
331
22FEB5
  5
22FE29
331
22FE3A
  5
22FBB4
331
22FDBC
  5
22FE4D
331
22FDFB
  5
22FDCC
331
22FE75
  5
22FB74
331
22FEB1
  5
22FE53
331
22FDF7
  5
22FDF0
331
22FE36
  5
22FBB8
331
22FCC9
  5
22FEA9
331
22FDB8
  5
22FE46
331
22FBAD
  5
22FBFD
331
22FBE4
  5
22FC42
331
22FC23
  5
22FDAA
331
22FE32
  5
22FC86
331
22FE71
  5
22FB6A
331
22FDB4
  5
22FE1F
331
22FC56
  5
22FE08
331
22FDF3
  5
22FE15
331
22FC1F
  5
22FDA1
331
22FB6A
  5
22FB9E
331
22FBA9
  5
22FBF9
331
22FBE0
  5
22FC3D
331
22FCC1
  5
22FE90
331
22FDB0
  5
22FE1B
331
22FC52
  5
22FE01
331
22FB66
  5
22FB90
331
22FBA5
  5
22FBF5
331
22FBDC
  5
22FC37
331
22FBA1
  5
22FBF1
331
22FBD8
  5
22FC31
331
22FB62
  5
22FB82
331
22FDEF
  5
22FDED
331
22FE6D
  5
22FBC5
331
22FDEB
  5
22FE13
331
22FE69
  5
22FB5E
331
22FC17
  5
22FCD0
331
22FE65
  5
22FBC1
331
22FCB9
  5
22FE88
331
22FC13
  5
22FCBE
331
22FDE7
  5
22FE10
331
22FB9D
  5
22FBED
331
22FEA8
  5
22FDA7
331
22FE2A
  5
22FD97
331
22FDE3
  5
22FE45
331
22FC0F
  5
22FC8B
331
22FB99
  5
22FBE9
331
22FE61
  5
22FBBC
331
22FDA8
  5
22FDF3
331
22FC0B
  5
22FC7A
331
22FB95
  5
22FBE5
331
22FBD4
  5
22FC2C
331
22FBD0
  5
22FC26
331
22FB91
  5
22FBE1
331
22FEA4
  5
22FB65
331
22FE1E
  5
22FDBE
331
22FDDF
  5
22FE42
331
22FE5D
  5
22FBB9
331
22FE1A
  5
22FDC6
331
22FDDB
  5
22FE3D
331
22FC07
  5
22FC75
331
22FC46
  5
22FDE5
331
22FE59
  5
22FE83
331
22FDD7
  5
22FE37
331
22FDA0
  5
22FE93
331
22FC42
  5
22FDDD
331
22FB8D
  5
22FBDD
331
22FBCC
  5
22FC22
331
22FC03
  5
22FC69
331
22FE55
  5
22FE8B
331
22FE90
  5
22FB9F
331
22FE51
  5
22FEA5
331
22FC85
  5
22FE6A
331
22FD9C
  5
22FEAA
331
22FDD3
  5
22FE63
331
22FC3E
  5
22FDD7
331
22FBFF
  5
22FC63
331
22FB89
  5
22FBD9
331
22FBC8
  5
22FC1D
331
22FBFB
  5
22FC5F
331
22FBC4
  5
22FC17
331
22FB85
  5
22FBD5
331
22FD98
  5
22FEB3
331
22FB81
  5
22FBD1
331
22FBC0
  5
22FC12
331
22FE8C
  5
22FB99
331
22FE4D
  5
22FEAF
331
22FDCF
  5
22FE5F
331
22FE0E
  5
22FE67
331
22FE49
  5
22FEB7
331
22FE0A
  5
22FE74
331
22FE88
  5
22FB93
331
22FBF7
  5
22FC59
331
22FDCB
  5
22FE5C
331
22FE45
  5
22FBA9
331
22FDC7
  5
22FE59
331
22FBBC
  5
22FC0C
331
22FBF3
  5
22FC55
331
22FC32
  5
22FDC1
331
22FE84
  5
22FB8B
331
22FB7D
  5
22FBCD
331
22FE80
  5
22FB84
331
22FE02
  5
22FE79
331
22FE41
  5
22FBA5
331
22FDC3
  5
22FE56
331
22FBEF
  5
22FC4F
331
22FB79
  5
22FBC9
331
22FBB8
  5
22FC08
331
22FC65
  5
22FE2E
331
22FC2A
  5
22FDB3
331
22FBB4
  5
22FC04
331
22FBEB
  5
22FC49
331
22FBB0
  5
22FC00
331
22FEBC
  5
22FDF9
331
22FEB8
  5
22FDD0
331
22FE3D
  5
22FBAD
331
22FDFE
  5
22FE6F
331
22FE7C
  5
22FB7E
331
22FDBF
  5
22FE4F
331
22FE78
  5
22FB79
331
22FEB4
  5
22FE28
331
22FE39
  5
22FBB1
331
22FDBB
  5
22FE4C
331
22FBE7
  5
22FC45
331
22FC26
  5
22FDAD
331
22FDFA
  5
22FDCB
331
22FE74
  5
22FB73
331
22FEB0
  5
22FE52
331
22FDF6
  5
22FDEF
331
22FE35
  5
22FBB7
331
22FC59
  5
22FE0C
331
22FBAC
  5
22FBFC
331
22FBE3
  5
22FC41
331
22FCC8
  5
22FEA8
331
22FDB7
  5
22FE21
331
22FE31
  5
22FC85
331
22FDB3
  5
22FE1D
331
22FC55
  5
22FE06
331
22FE70
  5
22FB69
331
22FBA8
  5
22FBF8
331
22FBDF
  5
22FC3C
331
22FC1E
  5
22FDA0
331
22FCC0
  5
22FE8F
331
22FBA4
  5
22FBF4
331
22FBDB
  5
22FC36
331
22FC51
  5
22FDFE
331
21D628
  5
21D3F4
331
22FBA0
  5
22FBF0
331
22FE6C
  5
22FBC4
331
22FDEE
  5
22FDEC
331
22FDEA
  5
22FE12
331
22FC16
  5
22FCC9
331
22FEAB
  5
22FE7F
331
22FE64
  5
22FBC0
331
22FE2D
  5
22FCC1
331
22FCB8
  5
22FE87
331
22FDAF
  5
22FE19
331
22FC12
  5
22FCB8
331
22FDE6
  5
22FE0F
331
22FB9C
  5
22FBEC
331
22FE60
  5
22FBBB
331
22FE29
  5
22FD96
331
22FB98
  5
22FBE8
331
22FBD7
  5
22FC30
331
22FDAB
  5
22FDF5
331
22FC49
  5
22FDE9
331
22FBD3
  5
22FC2B
331
22FB94
  5
22FBE4
331
22FC0A
  5
22FC79
331
22FB90
  5
22FBE0
331
22FEA7
  5
22FDA6
331
22FE1D
  5
22FDBC
331
22FDDE
  5
22FE41
331
22FEA3
  5
22FB64
331
22FDA7
  5
22FDF2
331
22FE58
  5
22FE82
331
22FE19
  5
22FDC5
331
22FDDA
  5
22FE39
331
22FDA3
  5
22FEA3
331
22FBCF
  5
22FC25
331
22FC06
  5
22FC74
331
22FC45
  5
22FDE4
331
22FDD6
  5
22FE35
331
22FC41
  5
22FDDC
331
22FB8C
  5
22FBDC
331
22FBCB
  5
22FC20
331
22FC02
  5
22FC68
331
22FD9F
  5
22FEAD
331
22FE54
  5
22FE8A
331
22FE11
  5
22FDAF
331
22FE50
  5
22FEA4
331
22FC84
  5
22FE69
331
22FD9B
  5
22FEB6
331
22FDD2
  5
22FE62
331
22FC3D
  5
22FDD5
331
22FBFE
  5
22FC62
331
22FB88
  5
22FBD8
331
22FBC7
  5
22FC1C
331
22FC39
  5
22FDC9
331
22FBFA
  5
22FC5C
331
22FBC3
  5
22FC16
331
21D859
  5
21D859
331
21BB9D
  5
21BB9D
331
22FB84
  5
22FBD4
331
22FB80
  5
22FBD0
331
22FE0D
  5
22FE65
331
22FD97
  5
22FEBC
331
22FDCE
  5
22FE5E
331
22FE4C
  5
22FEAE
331
22FDCA
  5
22FE5B
331
22FE09
  5
22FE72
331
22FBBF
  5
22FC11
331
22FBF6
  5
22FC58
331
22FE44
  5
22FBA8
331
22FC68
  5
22FE32
331
22FDC6
  5
22FE58
331
22FBBB
  5
22FC0B
331
22FBF2
  5
22FC54
331
22FC31
  5
22FDC0
331
22FB7C
  5
22FBCC
331
22FE05
  5
22FE7C
331
22FDC2
  5
22FE55
331
22FC64
  5
22FE2D
331
22FE01
  5
22FE78
331
22FBB7
  5
22FC07
331
22FBEE
  5
22FC4E
331
22FB78
  5
22FBC8
331
22FC2D
  5
22FDBA
331
22FE40
  5
22FBA4
331
22FC29
  5
22FDB2
331
22FBB3
  5
22FC03
331
22FBEA
  5
22FC48
331
22FEBB
  5
22FDF8
331
22FEB7
  5
22FDCF
331
22FE3C
  5
22FBAC
331
22FDBE
  5
22FE4E
331
22FDFD
  5
22FE6D
331
22FDBA
  5
22FE4B
331
22FBAF
  5
22FBFF
331
22FBE6
  5
22FC44
331
22FC25
  5
22FDAC
331
22FE38
  5
22FBB0
331
22FDB6
  5
22FE20
331
22FC58
  5
22FE0A
331
22FB6C
  5
22FBA3
331
22FBAB
  5
22FBFB
331
22FBE2
  5
22FC40
331
22FE34
  5
22FBB5
331
22FE30
  5
22FC84
331
22FDB2
  5
22FE1C
331
22FC1D
  5
22FD9F
331
22FC54
  5
22FE05
331
22FBA7
  5
22FBF7
331
22FBDE
  5
22FC39
331
22FB68
  5
22FB97
331
22FC50
  5
22FDFD
331
22FBA3
  5
22FBF3
331
22FBDA
  5
22FC35
331
22FC19
  5
22FD83
331
22FB64
  5
22FB89
331
22FE6F
  5
22FBC7
331
22FCBF
  5
22FE8E
331
22FDED
  5
22FDEB
331
22FC15
  5
22FCC7
331
22FB9F
  5
22FBEF
331
22FEAE
  5
22FE50
331
22FEAA
  5
22FE7E
331
22FE63
  5
22FBBF
331
22FE2C
  5
22FCBF
331
22FCB7
  5
22FE86
331
22FDAE
  5
22FE18
331
22FB9B
  5
22FBEB
331
22FC11
  5
22FC92
331
22FDE5
  5
22FE0E
331
22FE28
  5
22FD95
331
22FB97
  5
22FBE7
331
22FBD6
  5
22FC2F
331
22FDAA
  5
22FDF4
331
22FC09
  5
22FC78
331
22FBD2
  5
22FC2A
331
22FB93
  5
22FBE3
331
22FC48
  5
22FDE8
331
22FEA6
  5
22FDA5
331
22FE1C
  5
22FDBB
331
22FEA2
  5
22FB63
331
22FDA6
  5
22FDF1
331
22FE18
  5
22FDC4
331
22FC8B
  5
22FE76
331
22FDA2
  5
22FEA2
331
22FB8F
  5
22FBDF
331
22FBCE
  5
22FC24
331
22FC05
  5
22FC73
331
22FC44
  5
22FDE1
331
22FD9E
  5
22FEAC
331
22FE53
  5
22FEA7
331
22FC01
  5
22FC66
331
22FC40
  5
22FDDA
331
22FB8B
  5
22FBDB
331
22FBCA
  5
22FC1F
331
22FE92
  5
22FBA1
331
22FE10
  5
22FDAE
331
22FD9A
  5
22FEB5
331
22FC3C
  5
22FDD3
331
22FBC6
  5
22FC19
331
22FB87
  5
22FBD7
331
22FBFD
  5
22FC61
331
22FC38
  5
22FDC8
331
22FBF9
  5
22FC5B
331
22FBC2
  5
22FC15
331
22FB83
  5
22FBD3
331
22FE8E
  5
22FB9C
331
22FE4F
  5
22FEB1
331
22FE4B
  5
22FEB9
331
22FE0C
  5
22FE64
331
22FE8A
  5
22FB95
331
22FD96
  5
22FEBB
331
22FE86
  5
22FB8E
331
22FE08
  5
22FE71
331
22FB7F
  5
22FBCF
331
22FBBE
  5
22FC10
331
22FBF5
  5
22FC57
331
22FE04
  5
22FE7B
331
22FC67
  5
22FE30
331
22FBBA
  5
22FC0A
331
22FBF1
  5
22FC53
331
22FC30
  5
22FDBF
331
22FE82
  5
22FB86
331
22FB7B
  5
22FBCB
331
22FC63
  5
22FE2A
331
22FE00
  5
22FE77
331
22FBB6
  5
22FC06
331
22FBED
  5
22FC4D
331
22FC2C
  5
22FDB5
331
22FBB2
  5
22FC02
331
22FBE9
  5
22FC47
331
22FEBA
  5
22FDF7
331
22FE7E
  5
22FB80
331
22FEB6
  5
22FDCE
331
22FDFC
  5
22FE6C
331
22FE7A
  5
22FB7C
331
22FDF8
  5
22FDCA
331
22FBAE
  5
22FBFE
331
22FBE5
  5
22FC43
331
22FC24
  5
22FDAB
331
22FE76
  5
22FB78
331
22FEB2
  5
22FE24
331
22FE72
  5
22FB6E
331
22FC57
  5
22FE09
331
22FC20
  5
22FDA2
331
22FDF4
  5
22FDEE
331
22FBAA
  5
22FBFA
331
22FBE1
  5
22FC3E
331
22FE33
  5
22FC8A
331
22FDF0
  5
22FE14
331
22FC1C
  5
22FD98
331
22FC53
  5
22FE04
331
22FBA6
  5
22FBF6
331
22FBDD
  5
22FC38
331
22FBA2
  5
22FBF2
331
22FBD9
  5
22FC32
331
22FC18
  5
22FCDC
331
22FE6E
  5
22FBC6
331
22FE6A
  5
22FB5F
331
22FDEC
  5
22FDEA
331
22FEAD
  5
22FE81
331
22FE66
  5
22FBC2
331
22FDE8
  5
22FE11
331
22FB9E
  5
22FBEE
331
22FEA9
  5
22FDA9
331
22FE62
  5
22FBBD
331
22FC4F
  5
22FDFC
331
22FCB6
  5
22FE85
331
22FB9A
  5
22FBEA
331
22FC10
  5
22FC8C
331
22FDE4
  5
22FE0D
331
22FDE0
  5
22FE43
331
22FC0C
  5
22FC83
331
22FB96
  5
22FBE6
331
22FBD5
  5
22FC2D
331
22FC08
  5
22FC76
331
22FBD1
  5
22FC29
331
22FB92
  5
22FBE2
331
22FE5E
  5
22FBBA
331
22FDDC
  5
22FE3E
331
22FC47
  5
22FDE6
331
22FE5A
  5
22FE84
331
22FE56
  5
22FE8C
331
22FC43
  5
22FDDF
331
22FB8E
  5
22FBDE
331
22FBCD
  5
22FC23
331
22FC04
  5
22FC6B
331
22FDD8
  5
22FE38
331
22FE52
  5
22FEA6
331
22FD9D
  5
22FEAB
331
22FDD4
  5
22FE34
331
22FC00
  5
22FC65
331
22FC3F
  5
22FDD8
331
22FB8A
  5
22FBDA
331
22FBC9
  5
22FC1E
331
22FE91
  5
22FBA0
331
22FBFC
  5
22FC60
331
22FBC5
  5
22FC18
331
22FB86
  5
22FBD6
331
22FD99
  5
22FEB4
331
22FDD0
  5
22FE61
331
22FBF8
  5
22FC5A
331
22FB82
  5
22FBD2
331
22FBC1
  5
22FC13
331
22FE8D
  5
22FB9A
331
22FE4E
  5
22FEB0
331
22FE0F
  5
22FE68
331
22FE4A
  5
22FEB8
331
22FE0B
  5
22FE75
331
22FE89
  5
22FB94
331
22FD95
  5
22FEBA
331
22FDCC
  5
22FE5D
331
22FC37
  5
22FDC7
331
22FE46
  5
22FBAB
331
22FE85
  5
22FB8D
331
22FDC8
  5
22FE5A
331
22FBBD
  5
22FC0F
331
22FBF4
  5
22FC56
331
22FC33
  5
22FDC3
331
22FB7E
  5
22FBCE
331
22FE07
  5
22FE7D
331
22FE81
  5
22FB85
331
22FE03
  5
22FE7A
331
22FE42
  5
22FBA7
331
22FDC4
  5
22FE57
331
22FB7A
  5
22FBCA
331
22FBB9
  5
22FC09
331
22FBF0
  5
22FC52
331
22FC66
  5
22FE2F
331
22FCD1
  5
22FEB2
331
22FDC0
  5
22FE54
331
22FB76
  5
22FBC3
331
22FBB5
  5
22FC05
331
22FBEC
  5
22FC4B
331
22FC2B
  5
22FDB4
331
22FBE8
  5
22FC46
331
22FBB1
  5
22FC01
  0
SORTENTSTABLE
  5
22FD93
102
{ACAD_REACTORS
330
22FD92
102
}
330
22FD92
100
AcDbSortentsTable
330
21D8C1
  0
XRECORD
  5
22FF41
102
{ACAD_REACTORS
330
22FF40
102
}
330
22FF40
100
AcDbXrecord
280
     1
 70
     1
  0
XRECORD
  5
22FF43
102
{ACAD_REACTORS
330
22FF40
102
}
330
22FF40
100
AcDbXrecord
280
     1
340
5B
  0
XRECORD
  5
22FF44
102
{ACAD_REACTORS
330
22FF40
102
}
330
22FF40
100
AcDbXrecord
280
     1
340
5B
  0
XRECORD
  5
22FF42
102
{ACAD_REACTORS
330
22FF40
102
}
330
22FF40
100
AcDbXrecord
280
     1
340
5B
  0
LAYOUT
  5
6B
102
{ACAD_XDICTIONARY
360
22FF76
102
}
102
{ACAD_REACTORS
330
62
102
}
330
62
100
AcDbPlotSettings
  1

  2

  4

  6

 40
0.0
 41
0.0
 42
0.0
 43
0.0
 44
0.0
 45
0.0
 46
0.0
 47
0.0
 48
0.0
 49
0.0
140
0.0
141
0.0
142
1.0
143
1.0
 70
   688
 72
     0
 73
     0
 74
     5
  7
monochrome.ctb
 75
    16
147
1.0
148
0.0
149
0.0
100
AcDbLayout
  1
Layout1
 70
     1
 71
     1
 10
0.0
 20
0.0
 11
420.0
 21
297.0
 12
0.0
 22
0.0
 32
0.0
 14
0.0
 24
0.0
 34
0.0
 15
420.0
 25
297.0
 35
0.0
146
0.0
 13
0.0
 23
0.0
 33
0.0
 16
1.0
 26
0.0
 36
0.0
 17
0.0
 27
1.0
 37
0.0
 76
     0
330
68
  0
LAYOUT
  5
73
102
{ACAD_XDICTIONARY
360
22FF79
102
}
102
{ACAD_REACTORS
330
62
102
}
330
62
100
AcDbPlotSettings
  1

  2

  4

  6

 40
0.0
 41
0.0
 42
0.0
 43
0.0
 44
0.0
 45
0.0
 46
0.0
 47
0.0
 48
0.0
 49
0.0
140
0.0
141
0.0
142
1.0
143
1.0
 70
   688
 72
     0
 73
     0
 74
     5
  7
monochrome.ctb
 75
    16
147
1.0
148
0.0
149
0.0
100
AcDbLayout
  1
Layout2
 70
     1
 71
     2
 10
0.0
 20
0.0
 11
12.0
 21
9.0
 12
0.0
 22
0.0
 32
0.0
 14
0.0
 24
0.0
 34
0.0
 15
0.0
 25
0.0
 35
0.0
146
0.0
 13
0.0
 23
0.0
 33
0.0
 16
1.0
 26
0.0
 36
0.0
 17
0.0
 27
1.0
 37
0.0
 76
     0
330
70
  0
LAYOUT
  5
6F
102
{ACAD_XDICTIONARY
360
22E63
102
}
102
{ACAD_REACTORS
330
62
102
}
330
62
100
AcDbPlotSettings
  1

  2
PDFCreator
  4
A4
  6

 40
3.174999952316281
 41
3.174999952316281
 42
3.175003051757812
 43
3.17498779296875
 44
209.8886566162109
 45
297.0530090332031
 46
0.0
 47
0.0
 48
0.0
 49
0.0
140
0.0
141
0.0
142
1.0
143
44.55739079110222
 70
 11952
 72
     1
 73
     1
 74
     0
  7
monochrome.ctb
 75
     0
147
0.022442965852473
148
3615.822218811902
149
2375.763017350619
100
AcDbLayout
  1
Model
 70
     1
 71
     0
 10
0.0
 20
0.0
 11
12.0
 21
9.0
 12
0.0
 22
0.0
 32
0.0
 14
0.0
 24
0.0
 34
0.0
 15
0.0
 25
0.0
 35
0.0
146
0.0
 13
0.0
 23
0.0
 33
0.0
 16
1.0
 26
0.0
 36
0.0
 17
0.0
 27
1.0
 37
0.0
 76
     0
330
6C
331
57
1001
ACAD_PSEXT
1000
PDFCreator
1000
PDFCreator
1000
pdfcmon
1000
PDFCreator Printer
1070
     0
  0
MATERIAL
  5
19
102
{ACAD_XDICTIONARY
360
1A
102
}
102
{ACAD_REACTORS
330
10
102
}
330
10
100
AcDbMaterial
  1
ByBlock
 72
     0
 43
0.0208333333333333
 43
0.0
 43
0.0
 43
0.0
 43
0.0
 43
0.0208333333333333
 43
0.0
 43
0.0
 43
0.0
 43
0.0
 43
1.0
 43
0.0
 43
0.0
 43
0.0
 43
0.0
 43
1.0
 77
     0
 47
0.0208333333333333
 47
0.0
 47
0.0
 47
0.0
 47
0.0
 47
0.0208333333333333
 47
0.0
 47
0.0
 47
0.0
 47
0.0
 47
1.0
 47
0.0
 47
0.0
 47
0.0
 47
0.0
 47
1.0
171
     0
 49
0.0208333333333333
 49
0.0
 49
0.0
 49
0.0
 49
0.0
 49
0.0208333333333333
 49
0.0
 49
0.0
 49
0.0
 49
0.0
 49
1.0
 49
0.0
 49
0.0
 49
0.0
 49
0.0
 49
1.0
175
     0
142
0.0208333333333333
142
0.0
142
0.0
142
0.0
142
0.0
142
0.0208333333333333
142
0.0
142
0.0
142
0.0
142
0.0
142
1.0
142
0.0
142
0.0
142
0.0
142
0.0
142
1.0
179
     0
144
0.0208333333333333
144
0.0
144
0.0
144
0.0
144
0.0
144
0.0208333333333333
144
0.0
144
0.0
144
0.0
144
0.0
144
1.0
144
0.0
144
0.0
144
0.0
144
0.0
144
1.0
147
0.0208333333333333
147
0.0
147
0.0
147
0.0
147
0.0
147
0.0208333333333333
147
0.0
147
0.0
147
0.0
147
0.0
147
1.0
147
0.0
147
0.0
147
0.0
147
0.0
147
1.0
  0
MATERIAL
  5
11
102
{ACAD_XDICTIONARY
360
12
102
}
102
{ACAD_REACTORS
330
10
102
}
330
10
100
AcDbMaterial
  1
ByLayer
 72
     0
 43
0.0208333333333333
 43
0.0
 43
0.0
 43
0.0
 43
0.0
 43
0.0208333333333333
 43
0.0
 43
0.0
 43
0.0
 43
0.0
 43
1.0
 43
0.0
 43
0.0
 43
0.0
 43
0.0
 43
1.0
 77
     0
 47
0.0208333333333333
 47
0.0
 47
0.0
 47
0.0
 47
0.0
 47
0.0208333333333333
 47
0.0
 47
0.0
 47
0.0
 47
0.0
 47
1.0
 47
0.0
 47
0.0
 47
0.0
 47
0.0
 47
1.0
171
     0
 49
0.0208333333333333
 49
0.0
 49
0.0
 49
0.0
 49
0.0
 49
0.0208333333333333
 49
0.0
 49
0.0
 49
0.0
 49
0.0
 49
1.0
 49
0.0
 49
0.0
 49
0.0
 49
0.0
 49
1.0
175
     0
142
0.0208333333333333
142
0.0
142
0.0
142
0.0
142
0.0
142
0.0208333333333333
142
0.0
142
0.0
142
0.0
142
0.0
142
1.0
142
0.0
142
0.0
142
0.0
142
0.0
142
1.0
179
     0
144
0.0208333333333333
144
0.0
144
0.0
144
0.0
144
0.0
144
0.0208333333333333
144
0.0
144
0.0
144
0.0
144
0.0
144
1.0
144
0.0
144
0.0
144
0.0
144
0.0
144
1.0
147
0.0208333333333333
147
0.0
147
0.0
147
0.0
147
0.0
147
0.0208333333333333
147
0.0
147
0.0
147
0.0
147
0.0
147
1.0
147
0.0
147
0.0
147
0.0
147
0.0
147
1.0
  0
MATERIAL
  5
21
102
{ACAD_XDICTIONARY
360
22
102
}
102
{ACAD_REACTORS
330
10
102
}
330
10
100
AcDbMaterial
  1
Global
 72
     0
 43
0.0208333333333333
 43
0.0
 43
0.0
 43
0.0
 43
0.0
 43
0.0208333333333333
 43
0.0
 43
0.0
 43
0.0
 43
0.0
 43
1.0
 43
0.0
 43
0.0
 43
0.0
 43
0.0
 43
1.0
 77
     0
 47
0.0208333333333333
 47
0.0
 47
0.0
 47
0.0
 47
0.0
 47
0.0208333333333333
 47
0.0
 47
0.0
 47
0.0
 47
0.0
 47
1.0
 47
0.0
 47
0.0
 47
0.0
 47
0.0
 47
1.0
171
     0
 49
0.0208333333333333
 49
0.0
 49
0.0
 49
0.0
 49
0.0
 49
0.0208333333333333
 49
0.0
 49
0.0
 49
0.0
 49
0.0
 49
1.0
 49
0.0
 49
0.0
 49
0.0
 49
0.0
 49
1.0
175
     0
142
0.0208333333333333
142
0.0
142
0.0
142
0.0
142
0.0
142
0.0208333333333333
142
0.0
142
0.0
142
0.0
142
0.0
142
1.0
142
0.0
142
0.0
142
0.0
142
0.0
142
1.0
179
     0
144
0.0208333333333333
144
0.0
144
0.0
144
0.0
144
0.0
144
0.0208333333333333
144
0.0
144
0.0
144
0.0
144
0.0
144
1.0
144
0.0
144
0.0
144
0.0
144
0.0
144
1.0
147
0.0208333333333333
147
0.0
147
0.0
147
0.0
147
0.0
147
0.0208333333333333
147
0.0
147
0.0
147
0.0
147
0.0
147
1.0
147
0.0
147
0.0
147
0.0
147
0.0
147
1.0
  0
MLEADERSTYLE
  5
67
102
{ACAD_REACTORS
330
66
102
}
330
66
100
AcDbMLeaderStyle
170
     2
171
     1
172
     0
 90
        2
 40
0.0
 41
0.0
173
     1
 91
-1056964608
340
5B
 92
       -2
290
     1
 42
0.09
291
     1
 43
0.36
  3
Standard
 44
0.18
300

342
55
174
     1
178
     6
175
     1
176
     0
 93
-1056964608
 45
0.18
292
     0
297
     0
 46
0.18
 94
-1056964608
 47
1.0
 49
1.0
140
1.0
293
     1
141
0.0
294
     1
177
     0
142
1.0
295
     0
296
     0
143
0.125
1001
ACAD_MLEADERVER
1070
     2
  0
MLINESTYLE
  5
60
102
{ACAD_REACTORS
330
5F
102
}
330
5F
100
AcDbMlineStyle
  2
STANDARD
 70
     0
  3

 62
   256
 51
90.0
 52
90.0
 71
     2
 49
0.5
 62
   256
  6
BYLAYER
 49
-0.5
 62
   256
  6
BYLAYER
  0
ACDBPLACEHOLDER
  5
F
102
{ACAD_REACTORS
330
E
102
}
330
E
  0
SCALE
  5
43
102
{ACAD_REACTORS
330
42
102
}
330
42
100
AcDbScale
 70
     0
300
1:1
140
1.0
141
1.0
290
     1
  0
SCALE
  5
44
102
{ACAD_REACTORS
330
42
102
}
330
42
100
AcDbScale
 70
     0
300
1/128" = 1'-0"
140
0.0078125
141
12.0
290
     0
  0
SCALE
  5
45
102
{ACAD_REACTORS
330
42
102
}
330
42
100
AcDbScale
 70
     0
300
1/64" = 1'-0"
140
0.015625
141
12.0
290
     0
  0
SCALE
  5
46
102
{ACAD_REACTORS
330
42
102
}
330
42
100
AcDbScale
 70
     0
300
1/32" = 1'-0"
140
0.03125
141
12.0
290
     0
  0
SCALE
  5
47
102
{ACAD_REACTORS
330
42
102
}
330
42
100
AcDbScale
 70
     0
300
1/16" = 1'-0"
140
0.0625
141
12.0
290
     0
  0
SCALE
  5
48
102
{ACAD_REACTORS
330
42
102
}
330
42
100
AcDbScale
 70
     0
300
3/32" = 1'-0"
140
0.09375
141
12.0
290
     0
  0
SCALE
  5
49
102
{ACAD_REACTORS
330
42
102
}
330
42
100
AcDbScale
 70
     0
300
1/8" = 1'-0"
140
0.125
141
12.0
290
     0
  0
SCALE
  5
4A
102
{ACAD_REACTORS
330
42
102
}
330
42
100
AcDbScale
 70
     0
300
3/16" = 1'-0"
140
0.1875
141
12.0
290
     0
  0
SCALE
  5
4B
102
{ACAD_REACTORS
330
42
102
}
330
42
100
AcDbScale
 70
     0
300
1/4" = 1'-0"
140
0.25
141
12.0
290
     0
  0
SCALE
  5
4C
102
{ACAD_REACTORS
330
42
102
}
330
42
100
AcDbScale
 70
     0
300
3/8" = 1'-0"
140
0.375
141
12.0
290
     0
  0
SCALE
  5
4D
102
{ACAD_REACTORS
330
42
102
}
330
42
100
AcDbScale
 70
     0
300
1/2" = 1'-0"
140
0.5
141
12.0
290
     0
  0
SCALE
  5
4E
102
{ACAD_REACTORS
330
42
102
}
330
42
100
AcDbScale
 70
     0
300
3/4" = 1'-0"
140
0.75
141
12.0
290
     0
  0
SCALE
  5
4F
102
{ACAD_REACTORS
330
42
102
}
330
42
100
AcDbScale
 70
     0
300
1" = 1'-0"
140
1.0
141
12.0
290
     0
  0
SCALE
  5
50
102
{ACAD_REACTORS
330
42
102
}
330
42
100
AcDbScale
 70
     0
300
1-1/2" = 1'-0"
140
1.5
141
12.0
290
     0
  0
SCALE
  5
51
102
{ACAD_REACTORS
330
42
102
}
330
42
100
AcDbScale
 70
     0
300
3" = 1'-0"
140
3.0
141
12.0
290
     0
  0
SCALE
  5
52
102
{ACAD_REACTORS
330
42
102
}
330
42
100
AcDbScale
 70
     0
300
6" = 1'-0"
140
6.0
141
12.0
290
     0
  0
SCALE
  5
53
102
{ACAD_REACTORS
330
42
102
}
330
42
100
AcDbScale
 70
     0
300
1'-0" = 1'-0"
140
12.0
141
12.0
290
     0
  0
TABLESTYLE
  5
65
102
{ACAD_XDICTIONARY
360
21D4C8
102
}
102
{ACAD_REACTORS
330
64
102
}
330
64
100
AcDbTableStyle
  3
Standard
 70
     0
 71
     0
 40
0.06
 41
0.06
280
     0
281
     0
  7
Standard
140
0.18
170
     2
 62
     0
 63
     7
283
     0
274
    -2
284
     1
 64
     0
275
    -2
285
     1
 65
     0
276
    -2
286
     1
 66
     0
277
    -2
287
     1
 67
     0
278
    -2
288
     1
 68
     0
279
    -2
289
     1
 69
     0
  7
Standard
140
0.25
170
     5
 62
     0
 63
     7
283
     0
274
    -2
284
     1
 64
     0
275
    -2
285
     1
 65
     0
276
    -2
286
     1
 66
     0
277
    -2
287
     1
 67
     0
278
    -2
288
     1
 68
     0
279
    -2
289
     1
 69
     0
  7
Standard
140
0.18
170
     5
 62
     0
 63
     7
283
     0
274
    -2
284
     1
 64
     0
275
    -2
285
     1
 65
     0
276
    -2
286
     1
 66
     0
277
    -2
287
     1
 67
     0
278
    -2
288
     1
 68
     0
279
    -2
289
     1
 69
     0
  0
VISUALSTYLE
  5
2F
102
{ACAD_XDICTIONARY
360
22FF4F
102
}
102
{ACAD_REACTORS
330
29
102
}
330
29
100
AcDbVisualStyle
  2

 70
     4
 71
     0
 72
     2
 73
     0
 90
        0
 40
-0.6
 41
-30.0
 62
     5
 63
     7
 74
     1
 91
        4
 64
     7
 65
   257
 75
     1
175
     1
 42
1.0
 92
        0
 66
   257
 43
1.0
 76
     1
 77
     6
 78
     2
 67
     7
 79
     5
170
     0
171
     0
290
     0
174
     0
 93
        1
 44
0.0
173
     0
291
     0
 45
0.0
1001
ACAD
1000
AcDbSavedByObjectVersion
1070
     0
  0
VISUALSTYLE
  5
22EE4
102
{ACAD_XDICTIONARY
360
22FF7B
102
}
102
{ACAD_REACTORS
330
29
102
}
330
29
100
AcDbVisualStyle
  2

 70
     5
 71
     0
 72
     2
 73
     1
 90
        0
 40
-0.6
 41
-30.0
 62
     5
 63
     7
 74
     1
 91
        4
 64
     7
 65
   257
 75
     1
175
     1
 42
1.0
 92
        0
 66
   257
 43
1.0
 76
     1
 77
     6
 78
     2
 67
     7
 79
     5
170
     0
171
     0
290
     0
174
     0
 93
        1
 44
0.0
173
     0
291
     0
 45
0.0
1001
ACAD
1000
AcDbSavedByObjectVersion
1070
     0
  0
VISUALSTYLE
  5
2E
102
{ACAD_XDICTIONARY
360
22FF4D
102
}
102
{ACAD_REACTORS
330
29
102
}
330
29
100
AcDbVisualStyle
  2

 70
     7
 71
     1
 72
     0
 73
     1
 90
        0
 40
-0.6
 41
-30.0
 62
     5
 63
     7
 74
     0
 91
        4
 64
     7
 65
   257
 75
     1
175
     1
 42
1.0
 92
        8
 66
     7
 43
1.0
 76
     1
 77
     6
 78
     2
 67
     7
 79
     5
170
     0
171
     0
290
     0
174
     0
 93
        1
 44
0.0
173
     0
291
     1
 45
0.0
1001
ACAD
1000
AcDbSavedByObjectVersion
1070
     0
  0
VISUALSTYLE
  5
35
102
{ACAD_XDICTIONARY
360
22FF5B
102
}
102
{ACAD_REACTORS
330
29
102
}
330
29
100
AcDbVisualStyle
  2

 70
    12
 71
     2
 72
     2
 73
     0
 90
        0
 40
-0.6
 41
-30.0
 62
     5
 63
     7
 74
     1
 91
        4
 64
     7
 65
   257
 75
     1
175
     1
 42
1.0
 92
        8
 66
     7
 43
1.0
 76
     1
 77
     6
 78
     2
 67
     7
 79
     5
170
     0
171
     0
290
     0
174
     0
 93
        1
 44
50.0
173
     0
291
     1
 45
0.0
1001
ACAD
1000
AcDbSavedByObjectVersion
1070
     0
  0
VISUALSTYLE
  5
39
102
{ACAD_XDICTIONARY
360
22FF63
102
}
102
{ACAD_REACTORS
330
29
102
}
330
29
100
AcDbVisualStyle
  2

 70
    16
 71
     2
 72
     2
 73
     3
 90
        0
 40
-0.6
 41
-30.0
 62
     5
 63
     8
 74
     1
 91
        4
 64
     7
 65
   257
 75
     1
175
     1
 42
1.0
 92
        8
 66
     8
 43
1.0
 76
     1
 77
     6
 78
     2
 67
     7
 79
     5
170
     0
171
     0
290
     0
174
     0
 93
        1
 44
0.0
173
     0
291
     1
 45
0.0
1001
ACAD
1000
AcDbSavedByObjectVersion
1070
     0
  0
VISUALSTYLE
  5
32
102
{ACAD_XDICTIONARY
360
22FF55
102
}
102
{ACAD_REACTORS
330
29
102
}
330
29
100
AcDbVisualStyle
  2

 70
     9
 71
     3
 72
     2
 73
     0
 90
        0
 40
-0.6
 41
-30.0
 62
     5
 63
     7
 74
     2
 91
        2
 64
     7
 65
   257
 75
     1
175
     1
 42
179.0
 92
        8
 66
     7
 43
1.0
 76
     1
 77
     6
 78
     2
 67
     7
 79
     3
170
     0
171
     0
290
     0
174
     0
 93
        1
 44
0.0
173
     0
291
     0
 45
0.0
1001
ACAD
1000
AcDbSavedByObjectVersion
1070
     0
  0
VISUALSTYLE
  5
34
102
{ACAD_XDICTIONARY
360
22FF59
102
}
102
{ACAD_REACTORS
330
29
102
}
330
29
100
AcDbVisualStyle
  2

 70
    11
 71
     2
 72
     2
 73
     0
 90
        0
 40
-0.6
 41
-30.0
 62
     5
 63
     7
 74
     1
 91
        4
 64
     7
 65
   257
 75
     1
175
     1
 42
1.0
 92
        8
 66
     7
 43
1.0
 76
     1
 77
     6
 78
     2
 67
     7
 79
     5
170
     0
171
     0
290
     0
174
     0
 93
        1
 44
-50.0
173
     0
291
     1
 45
0.0
1001
ACAD
1000
AcDbSavedByObjectVersion
1070
     0
  0
VISUALSTYLE
  5
41
102
{ACAD_XDICTIONARY
360
22FF73
102
}
102
{ACAD_REACTORS
330
29
102
}
330
29
100
AcDbVisualStyle
  2

 70
    22
 71
     2
 72
     2
 73
     0
 90
        0
 40
-0.6
 41
-30.0
 62
     5
 63
     7
 74
     1
 91
        4
 64
     7
 65
   257
 75
     1
175
     1
 42
1.0
 92
        8
 66
     7
 43
1.0
 76
     1
 77
     6
 78
     2
 67
     7
 79
     5
170
     0
171
     0
290
     0
174
     0
 93
        1
 44
0.0
173
     0
291
     1
 45
0.0
1001
ACAD
1000
AcDbSavedByObjectVersion
1070
     0
  0
VISUALSTYLE
  5
38
102
{ACAD_XDICTIONARY
360
22FF61
102
}
102
{ACAD_REACTORS
330
29
102
}
330
29
100
AcDbVisualStyle
  2

 70
    15
 71
     2
 72
     2
 73
     0
 90
        0
 40
-0.6
 41
-30.0
 62
     5
 63
     7
 74
     1
 91
        4
 64
     7
 65
   257
 75
     1
175
     1
 42
1.0
 92
        8
 66
     7
 43
1.0
 76
     1
 77
     6
 78
     2
 67
     7
 79
     5
170
     0
171
     0
290
     0
174
     0
 93
        1
 44
0.0
173
     0
291
     1
 45
0.0
1001
ACAD
1000
AcDbSavedByObjectVersion
1070
     0
  0
VISUALSTYLE
  5
2A
102
{ACAD_XDICTIONARY
360
22FF45
102
}
102
{ACAD_REACTORS
330
29
102
}
330
29
100
AcDbVisualStyle
  2

 70
     0
 71
     2
 72
     1
 73
     1
 90
        2
 40
-0.6
 41
30.0
 62
     5
 63
     7
 74
     0
 91
        0
 64
     7
 65
   257
 75
     1
175
     1
 42
1.0
 92
        8
 66
     7
 43
1.0
 76
     1
 77
     6
 78
     2
 67
     7
 79
     5
170
     0
171
     0
290
     0
174
     0
 93
       13
 44
0.0
173
     0
291
     1
 45
0.0
1001
ACAD
1000
AcDbSavedByObjectVersion
1070
     0
  0
VISUALSTYLE
  5
2B
102
{ACAD_XDICTIONARY
360
22FF47
102
}
102
{ACAD_REACTORS
330
29
102
}
330
29
100
AcDbVisualStyle
  2

 70
     1
 71
     2
 72
     1
 73
     1
 90
        2
 40
-0.6
 41
30.0
 62
     5
 63
     7
 74
     1
 91
        0
 64
     7
 65
   257
 75
     1
175
     1
 42
1.0
 92
        0
 66
   257
 43
1.0
 76
     1
 77
     6
 78
     2
 67
     7
 79
     5
170
     0
171
     0
290
     0
174
     0
 93
       13
 44
0.0
173
     0
291
     1
 45
0.0
1001
ACAD
1000
AcDbSavedByObjectVersion
1070
     0
  0
VISUALSTYLE
  5
2C
102
{ACAD_XDICTIONARY
360
22FF49
102
}
102
{ACAD_REACTORS
330
29
102
}
330
29
100
AcDbVisualStyle
  2

 70
     2
 71
     2
 72
     2
 73
     1
 90
        2
 40
-0.6
 41
30.0
 62
     5
 63
     7
 74
     0
 91
        0
 64
     7
 65
   257
 75
     1
175
     1
 42
1.0
 92
        0
 66
     7
 43
1.0
 76
     1
 77
     6
 78
     2
 67
     7
 79
     5
170
     0
171
     0
290
     0
174
     0
 93
       13
 44
0.0
173
     0
291
     1
 45
0.0
1001
ACAD
1000
AcDbSavedByObjectVersion
1070
     0
  0
VISUALSTYLE
  5
2D
102
{ACAD_XDICTIONARY
360
22FF4B
102
}
102
{ACAD_REACTORS
330
29
102
}
330
29
100
AcDbVisualStyle
  2

 70
     3
 71
     2
 72
     2
 73
     1
 90
        2
 40
-0.6
 41
30.0
 62
     5
 63
     7
 74
     1
 91
        0
 64
     7
 65
   257
 75
     1
175
     1
 42
1.0
 92
        0
 66
   257
 43
1.0
 76
     1
 77
     6
 78
     2
 67
     7
 79
     5
170
     0
171
     0
290
     0
174
     0
 93
       13
 44
0.0
173
     0
291
     1
 45
0.0
1001
ACAD
1000
AcDbSavedByObjectVersion
1070
     0
  0
VISUALSTYLE
  5
31
102
{ACAD_XDICTIONARY
360
22FF53
102
}
102
{ACAD_REACTORS
330
29
102
}
330
29
100
AcDbVisualStyle
  2

 70
     6
 71
     1
 72
     2
 73
     2
 90
        0
 40
-0.6
 41
-30.0
 62
     5
 63
     7
 74
     2
 91
        2
 64
     7
 65
   257
 75
     2
175
     1
 42
40.0
 92
        0
 66
   257
 43
1.0
 76
     1
 77
     6
 78
     2
 67
     7
 79
     3
170
     0
171
     0
290
     0
174
     0
 93
        1
 44
0.0
173
     0
291
     0
 45
0.0
1001
ACAD
1000
AcDbSavedByObjectVersion
1070
     0
  0
VISUALSTYLE
  5
3F
102
{ACAD_XDICTIONARY
360
22FF6F
102
}
102
{ACAD_REACTORS
330
29
102
}
330
29
100
AcDbVisualStyle
  2

 70
    20
 71
     2
 72
     2
 73
     0
 90
        0
 40
-0.6
 41
-30.0
 62
     5
 63
     7
 74
     1
 91
        4
 64
     7
 65
   257
 75
     1
175
     1
 42
1.0
 92
       10
 66
     7
 43
1.0
 76
     1
 77
     6
 78
     2
 67
     7
 79
     5
170
     0
171
     0
290
     0
174
     0
 93
        1
 44
0.0
173
     0
291
     1
 45
0.0
1001
ACAD
1000
AcDbSavedByObjectVersion
1070
     0
  0
VISUALSTYLE
  5
37
102
{ACAD_XDICTIONARY
360
22FF5F
102
}
102
{ACAD_REACTORS
330
29
102
}
330
29
100
AcDbVisualStyle
  2

 70
    14
 71
     2
 72
     2
 73
     0
 90
        0
 40
-0.6
 41
-30.0
 62
     5
 63
     7
 74
     1
 91
        4
 64
     7
 65
   257
 75
     7
175
     7
 42
1.0
 92
        8
 66
     7
 43
1.0
 76
     1
 77
     6
 78
     2
 67
     7
 79
     5
170
     0
171
     0
290
     0
174
     0
 93
        1
 44
0.0
173
     0
291
     1
 45
0.0
1001
ACAD
1000
AcDbSavedByObjectVersion
1070
     0
  0
VISUALSTYLE
  5
40
102
{ACAD_XDICTIONARY
360
22FF71
102
}
102
{ACAD_REACTORS
330
29
102
}
330
29
100
AcDbVisualStyle
  2

 70
    21
 71
     2
 72
     2
 73
     0
 90
        0
 40
-0.6
 41
-30.0
 62
     5
 63
     7
 74
     1
 91
        4
 64
     7
 65
   257
 75
     1
175
     1
 42
1.0
 92
        9
 66
     7
 43
1.0
 76
     1
 77
     6
 78
     2
 67
     7
 79
     5
170
     0
171
     0
290
     0
174
     0
 93
        1
 44
0.0
173
     0
291
     1
 45
0.0
1001
ACAD
1000
AcDbSavedByObjectVersion
1070
     0
  0
VISUALSTYLE
  5
33
102
{ACAD_XDICTIONARY
360
22FF57
102
}
102
{ACAD_REACTORS
330
29
102
}
330
29
100
AcDbVisualStyle
  2

 70
     8
 71
     2
 72
     3
 73
     0
 90
        2
 40
-0.6
 41
30.0
 62
     5
 63
     7
 74
     0
 91
        0
 64
     7
 65
   257
 75
     1
175
     1
 42
1.0
 92
        8
 66
   257
 43
1.0
 76
     1
 77
     6
 78
     2
 67
     7
 79
     3
170
     0
171
     0
290
     0
174
     0
 93
       13
 44
0.0
173
     0
291
     0
 45
0.0
1001
ACAD
1000
AcDbSavedByObjectVersion
1070
     0
  0
VISUALSTYLE
  5
3E
102
{ACAD_XDICTIONARY
360
22FF6D
102
}
102
{ACAD_REACTORS
330
29
102
}
330
29
100
AcDbVisualStyle
  2

 70
    27
 71
     2
 72
     2
 73
     1
 90
        2
 40
-0.6
 41
30.0
 62
     5
 63
     7
 74
     0
 91
        4
 64
     7
 65
   257
 75
     1
175
     1
 42
1.0
 92
        8
 66
   257
 43
1.0
 76
     1
 77
     6
 78
     2
 67
     8
 79
     3
170
     0
171
     0
290
     0
174
     0
 93
        5
 44
0.0
173
     0
291
     0
 45
0.0
1001
ACAD
1000
AcDbSavedByObjectVersion
1070
     0
  0
VISUALSTYLE
  5
3D
102
{ACAD_XDICTIONARY
360
22FF6B
102
}
102
{ACAD_REACTORS
330
29
102
}
330
29
100
AcDbVisualStyle
  2

 70
    26
 71
     2
 72
     2
 73
     1
 90
        2
 40
-0.6
 41
30.0
 62
     5
 63
     7
 74
     1
 91
       10
 64
     7
 65
   257
 75
     2
175
     1
 42
1.0
 92
        8
 66
   257
 43
1.0
 76
     1
 77
     6
 78
     2
 67
     7
 79
     3
170
     0
171
     0
290
     0
174
     0
 93
        5
 44
0.0
173
     0
291
     0
 45
0.0
1001
ACAD
1000
AcDbSavedByObjectVersion
1070
     0
  0
VISUALSTYLE
  5
3A
102
{ACAD_XDICTIONARY
360
22FF65
102
}
102
{ACAD_REACTORS
330
29
102
}
330
29
100
AcDbVisualStyle
  2

 70
    23
 71
     2
 72
     2
 73
     3
 90
        0
 40
-0.6
 41
-30.0
 62
     5
 63
     7
 74
     2
 91
        2
 64
     7
 65
     7
 75
     1
175
     1
 42
40.0
 92
        8
 66
     7
 43
1.0
 76
     1
 77
     6
 78
     2
 67
     7
 79
     3
170
     0
171
     0
290
     0
174
     0
 93
        1
 44
0.0
173
     0
291
     0
 45
0.0
1001
ACAD
1000
AcDbSavedByObjectVersion
1070
     0
  0
VISUALSTYLE
  5
3B
102
{ACAD_XDICTIONARY
360
22FF67
102
}
102
{ACAD_REACTORS
330
29
102
}
330
29
100
AcDbVisualStyle
  2

 70
    24
 71
     1
 72
     2
 73
     2
 90
        0
 40
-0.6
 41
-30.0
 62
     5
 63
     7
 74
     2
 91
        2
 64
     7
 65
     7
 75
     1
175
     1
 42
40.0
 92
       11
 66
     7
 43
1.0
 76
     1
 77
     6
 78
     2
 67
     7
 79
     6
170
     0
171
     0
290
     0
174
     0
 93
        1
 44
0.0
173
     0
291
     0
 45
0.0
1001
ACAD
1000
AcDbSavedByObjectVersion
1070
     0
  0
VISUALSTYLE
  5
36
102
{ACAD_XDICTIONARY
360
22FF5D
102
}
102
{ACAD_REACTORS
330
29
102
}
330
29
100
AcDbVisualStyle
  2

 70
    13
 71
     2
 72
     2
 73
     0
 90
        0
 40
-0.6
 41
-30.0
 62
     5
 63
     7
 74
     1
 91
        4
 64
     7
 65
   257
 75
     1
175
     1
 42
1.0
 92
       12
 66
     7
 43
1.0
 76
     1
 77
     6
 78
     2
 67
     7
 79
     5
170
     0
171
     0
290
     0
174
     0
 93
        1
 44
0.0
173
     0
291
     1
 45
0.0
1001
ACAD
1000
AcDbSavedByObjectVersion
1070
     0
  0
VISUALSTYLE
  5
30
102
{ACAD_XDICTIONARY
360
22FF51
102
}
102
{ACAD_REACTORS
330
29
102
}
330
29
100
AcDbVisualStyle
  2

 70
     5
 71
     0
 72
     2
 73
     0
 90
        0
 40
-0.6
 41
-30.0
 62
     5
 63
     7
 74
     1
 91
        4
 64
     7
 65
   257
 75
     1
175
     1
 42
1.0
 92
        0
 66
   257
 43
1.0
 76
     1
 77
     6
 78
     2
 67
     7
 79
     3
170
     0
171
     0
290
     0
174
     0
 93
        1
 44
0.0
173
     0
291
     0
 45
0.0
1001
ACAD
1000
AcDbSavedByObjectVersion
1070
     0
  0
VISUALSTYLE
  5
3C
102
{ACAD_XDICTIONARY
360
22FF69
102
}
102
{ACAD_REACTORS
330
29
102
}
330
29
100
AcDbVisualStyle
  2

 70
    25
 71
     2
 72
     2
 73
     1
 90
        1
 40
0.5
 41
-30.0
 62
     5
 63
     7
 74
     1
 91
        0
 64
     7
 65
   257
 75
     1
175
     1
 42
1.0
 92
        8
 66
     7
 43
1.0
 76
     1
 77
     6
 78
     2
 67
     7
 79
     3
170
     0
171
     0
290
     0
174
     0
 93
       13
 44
0.0
173
     0
291
     0
 45
0.0
1001
ACAD
1000
AcDbSavedByObjectVersion
1070
     0
  0
DICTIONARYVAR
  5
22DBA
102
{ACAD_REACTORS
330
22DB7
102
}
330
22DB7
100
DictionaryVariables
280
     0
  1
1:1
  0
DICTIONARYVAR
  5
22DB9
102
{ACAD_REACTORS
330
22DB7
102
}
330
22DB7
100
DictionaryVariables
280
     0
  1
STANDARD
  0
DICTIONARYVAR
  5
22DB8
102
{ACAD_REACTORS
330
22DB7
102
}
330
22DB7
100
DictionaryVariables
280
     0
  1
STANDARD
  0
DICTIONARYVAR
  5
21D4C6
102
{ACAD_REACTORS
330
22DB7
102
}
330
22DB7
100
DictionaryVariables
280
     0
  1
1
  0
DICTIONARYVAR
  5
21D4C5
102
{ACAD_REACTORS
330
22DB7
102
}
330
22DB7
100
DictionaryVariables
280
     0
  1
1
  0
DICTIONARYVAR
  5
7A31F
102
{ACAD_REACTORS
330
22DB7
102
}
330
22DB7
100
DictionaryVariables
280
     0
  1
-201.059514;-1326.672515
  0
DICTIONARYVAR
  5
21D4C4
102
{ACAD_REACTORS
330
22DB7
102
}
330
22DB7
100
DictionaryVariables
280
     0
  1
0
  0
DICTIONARYVAR
  5
21D4C1
102
{ACAD_REACTORS
330
22DB7
102
}
330
22DB7
100
DictionaryVariables
280
     0
  1
0
  0
DICTIONARYVAR
  5
21D4C2
102
{ACAD_REACTORS
330
22DB7
102
}
330
22DB7
100
DictionaryVariables
280
     0
  1
0
  0
DICTIONARYVAR
  5
21D4C0
102
{ACAD_REACTORS
330
22DB7
102
}
330
22DB7
100
DictionaryVariables
280
     0
  1
2
  0
DICTIONARYVAR
  5
21D4BF
102
{ACAD_REACTORS
330
22DB7
102
}
330
22DB7
100
DictionaryVariables
280
     0
  1
1
  0
DICTIONARYVAR
  5
21D4C3
102
{ACAD_REACTORS
330
22DB7
102
}
330
22DB7
100
DictionaryVariables
280
     0
  1
127
  0
DICTIONARYVAR
  5
22FF3C
102
{ACAD_REACTORS
330
22DB7
102
}
330
22DB7
100
DictionaryVariables
280
     0
  1
2
  0
DICTIONARY
  5
22E1C
102
{ACAD_REACTORS
330
22E11
102
}
330
22E11
100
AcDbDictionary
281
     1
  0
DICTIONARY
  5
22FF76
330
6B
100
AcDbDictionary
280
     1
281
     1
  3
ACAD_XREC_ROUNDTRIP
360
22FF77
  0
DICTIONARY
  5
22FF79
330
73
100
AcDbDictionary
280
     1
281
     1
  3
ACAD_XREC_ROUNDTRIP
360
22FF7A
  0
DICTIONARY
  5
22E63
330
6F
100
AcDbDictionary
280
     1
281
     1
  3
ACAD_XREC_ROUNDTRIP
360
22FF78
  3
ADSK_XREC_LAYOUTTHUMBNAIL
360
22E64
  0
DICTIONARY
  5
1A
330
19
100
AcDbDictionary
280
     1
281
     1
  3
ACAD_XREC_ROUNDTRIP
360
21D4CD
  3
BUMPTILE
360
1C
  3
DIFFUSETILE
360
1B
  3
OPACITYTILE
360
1F
  3
REFLECTIONTILE
360
1E
  3
REFRACTIONTILE
360
20
  3
SPECULARTILE
360
1D
  0
DICTIONARY
  5
12
330
11
100
AcDbDictionary
280
     1
281
     1
  3
ACAD_XREC_ROUNDTRIP
360
21D4CC
  3
BUMPTILE
360
14
  3
DIFFUSETILE
360
13
  3
OPACITYTILE
360
17
  3
REFLECTIONTILE
360
16
  3
REFRACTIONTILE
360
18
  3
SPECULARTILE
360
15
  0
DICTIONARY
  5
22
330
21
100
AcDbDictionary
280
     1
281
     1
  3
ACAD_XREC_ROUNDTRIP
360
21D4CE
  3
BUMPTILE
360
24
  3
DIFFUSETILE
360
23
  3
OPACITYTILE
360
27
  3
REFLECTIONTILE
360
26
  3
REFRACTIONTILE
360
28
  3
SPECULARTILE
360
25
  0
DICTIONARY
  5
21D4C8
330
65
100
AcDbDictionary
280
     1
281
     1
  3
ACAD_ROUNDTRIP_2008_TABLESTYLE_CELLSTYLEMAP
360
22FF3D
  3
ACAD_XREC_ROUNDTRIP
360
22FF75
  0
DICTIONARY
  5
22FF4F
330
2F
100
AcDbDictionary
280
     1
281
     1
  3
ACAD_XREC_ROUNDTRIP
360
22FF50
  0
DICTIONARY
  5
22FF7B
330
22EE4
100
AcDbDictionary
280
     1
281
     1
  3
ACAD_XREC_ROUNDTRIP
360
22FF7C
  0
DICTIONARY
  5
22FF4D
330
2E
100
AcDbDictionary
280
     1
281
     1
  3
ACAD_XREC_ROUNDTRIP
360
22FF4E
  0
DICTIONARY
  5
22FF5B
330
35
100
AcDbDictionary
280
     1
281
     1
  3
ACAD_XREC_ROUNDTRIP
360
22FF5C
  0
DICTIONARY
  5
22FF63
330
39
100
AcDbDictionary
280
     1
281
     1
  3
ACAD_XREC_ROUNDTRIP
360
22FF64
  0
DICTIONARY
  5
22FF55
330
32
100
AcDbDictionary
280
     1
281
     1
  3
ACAD_XREC_ROUNDTRIP
360
22FF56
  0
DICTIONARY
  5
22FF59
330
34
100
AcDbDictionary
280
     1
281
     1
  3
ACAD_XREC_ROUNDTRIP
360
22FF5A
  0
DICTIONARY
  5
22FF73
330
41
100
AcDbDictionary
280
     1
281
     1
  3
ACAD_XREC_ROUNDTRIP
360
22FF74
  0
DICTIONARY
  5
22FF61
330
38
100
AcDbDictionary
280
     1
281
     1
  3
ACAD_XREC_ROUNDTRIP
360
22FF62
  0
DICTIONARY
  5
22FF45
330
2A
100
AcDbDictionary
280
     1
281
     1
  3
ACAD_XREC_ROUNDTRIP
360
22FF46
  0
DICTIONARY
  5
22FF47
330
2B
100
AcDbDictionary
280
     1
281
     1
  3
ACAD_XREC_ROUNDTRIP
360
22FF48
  0
DICTIONARY
  5
22FF49
330
2C
100
AcDbDictionary
280
     1
281
     1
  3
ACAD_XREC_ROUNDTRIP
360
22FF4A
  0
DICTIONARY
  5
22FF4B
330
2D
100
AcDbDictionary
280
     1
281
     1
  3
ACAD_XREC_ROUNDTRIP
360
22FF4C
  0
DICTIONARY
  5
22FF53
330
31
100
AcDbDictionary
280
     1
281
     1
  3
ACAD_XREC_ROUNDTRIP
360
22FF54
  0
DICTIONARY
  5
22FF6F
330
3F
100
AcDbDictionary
280
     1
281
     1
  3
ACAD_XREC_ROUNDTRIP
360
22FF70
  0
DICTIONARY
  5
22FF5F
330
37
100
AcDbDictionary
280
     1
281
     1
  3
ACAD_XREC_ROUNDTRIP
360
22FF60
  0
DICTIONARY
  5
22FF71
330
40
100
AcDbDictionary
280
     1
281
     1
  3
ACAD_XREC_ROUNDTRIP
360
22FF72
  0
DICTIONARY
  5
22FF57
330
33
100
AcDbDictionary
280
     1
281
     1
  3
ACAD_XREC_ROUNDTRIP
360
22FF58
  0
DICTIONARY
  5
22FF6D
330
3E
100
AcDbDictionary
280
     1
281
     1
  3
ACAD_XREC_ROUNDTRIP
360
22FF6E
  0
DICTIONARY
  5
22FF6B
330
3D
100
AcDbDictionary
280
     1
281
     1
  3
ACAD_XREC_ROUNDTRIP
360
22FF6C
  0
DICTIONARY
  5
22FF65
330
3A
100
AcDbDictionary
280
     1
281
     1
  3
ACAD_XREC_ROUNDTRIP
360
22FF66
  0
DICTIONARY
  5
22FF67
330
3B
100
AcDbDictionary
280
     1
281
     1
  3
ACAD_XREC_ROUNDTRIP
360
22FF68
  0
DICTIONARY
  5
22FF5D
330
36
100
AcDbDictionary
280
     1
281
     1
  3
ACAD_XREC_ROUNDTRIP
360
22FF5E
  0
DICTIONARY
  5
22FF51
330
30
100
AcDbDictionary
280
     1
281
     1
  3
ACAD_XREC_ROUNDTRIP
360
22FF52
  0
DICTIONARY
  5
22FF69
330
3C
100
AcDbDictionary
280
     1
281
     1
  3
ACAD_XREC_ROUNDTRIP
360
22FF6A
  0
XRECORD
  5
22FF77
102
{ACAD_REACTORS
330
22FF76
102
}
330
22FF76
100
AcDbXrecord
280
     1
102
SHADEPLOT
 70
     0
102
SHADEPLOTRESLEVEL
 70
     2
102
SHADEPLOTCUSTOMDPI
 70
   300
  0
XRECORD
  5
22FF7A
102
{ACAD_REACTORS
330
22FF79
102
}
330
22FF79
100
AcDbXrecord
280
     1
102
SHADEPLOT
 70
     0
102
SHADEPLOTRESLEVEL
 70
     2
102
SHADEPLOTCUSTOMDPI
 70
   300
  0
XRECORD
  5
22FF78
102
{ACAD_REACTORS
330
22E63
102
}
330
22E63
100
AcDbXrecord
280
     1
102
SHADEPLOT
 70
     0
102
SHADEPLOTRESLEVEL
 70
     2
102
SHADEPLOTCUSTOMDPI
 70
   300
  0
XRECORD
  5
22E64
102
{ACAD_REACTORS
330
22E63
102
}
330
22E63
100
AcDbXrecord
280
     1
310
28000000000100005A0000000100080000000000005A0000000000000000000000010000000000003028210000000000FFFFFF000000000000000000000000000000000000000000000000000000000000000000330000006600000099000000CC000000FF00000000330000333300006633000099330000CC330000FF3300
310
0000660000336600006666000099660000CC660000FF66000000990000339900006699000099990000CC990000FF99000000CC000033CC000066CC000099CC0000CCCC0000FFCC000000FF000033FF000066FF000099FF0000CCFF0000FFFF000000003300330033006600330099003300CC003300FF003300003333003333
310
33006633330099333300CC333300FF33330000663300336633006666330099663300CC663300FF66330000993300339933006699330099993300CC993300FF99330000CC330033CC330066CC330099CC3300CCCC3300FFCC330000FF330033FF330066FF330099FF3300CCFF3300FFFF330000006600330066006600660099
310
006600CC006600FF00660000336600333366006633660099336600CC336600FF33660000666600336666006666660099666600CC666600FF66660000996600339966006699660099996600CC996600FF99660000CC660033CC660066CC660099CC6600CCCC6600FFCC660000FF660033FF660066FF660099FF6600CCFF6600
310
FFFF660000009900330099006600990099009900CC009900FF00990000339900333399006633990099339900CC339900FF33990000669900336699006666990099669900CC669900FF66990000999900339999006699990099999900CC999900FF99990000CC990033CC990066CC990099CC9900CCCC9900FFCC990000FF99
310
0033FF990066FF990099FF9900CCFF9900FFFF99000000CC003300CC006600CC009900CC00CC00CC00FF00CC000033CC003333CC006633CC009933CC00CC33CC00FF33CC000066CC003366CC006666CC009966CC00CC66CC00FF66CC000099CC003399CC006699CC009999CC00CC99CC00FF99CC0000CCCC0033CCCC0066CC
310
CC0099CCCC00CCCCCC00FFCCCC0000FFCC0033FFCC0066FFCC0099FFCC00CCFFCC00FFFFCC000000FF003300FF006600FF009900FF00CC00FF00FF00FF000033FF003333FF006633FF009933FF00CC33FF00FF33FF000066FF003366FF006666FF009966FF00CC66FF00FF66FF000099FF003399FF006699FF009999FF00CC
310
99FF00FF99FF0000CCFF0033CCFF0066CCFF0099CCFF00CCCCFF00FFCCFF0000FFFF0033FFFF0066FFFF0099FFFF00CCFFFF00FFFFFF00000000000D0D0D001A1A1A00282828003535350043434300505050005D5D5D006B6B6B00787878008686860093939300A1A1A100AEAEAE00BBBBBB00C9C9C900D6D6D600E4E4E400
310
F1F1F100FFFFFF000000000000000000000000000000000000000000000000000000000000000000000000000000000000C30000000000000000000000000000000000000000000000000000000000000000000000000000000000000000000000000000000000000000000000000000000000000000000000000000000000
310
00000000000000000000000000000000000000000000000000000000000000000000000000000000000000000000000000000000000000000000000000000000000000000000000000000000000000000000000000000000000000000000000000000000000000000000000000000000000000000000000000000000000000
310
000000000000000000000000000000000000000000000000000000000000000000000000000000000000000000000000000000C3000000000000000000000000000000000000000000000000000000000000000000000000000000000000000000000000000000000000000000000000000000000000000000000000000000
310
00000000000000000000000000000000000000000000000000000000000000000000000000000000000000000000000000000000000000000000000000000000000000000000000000000000000000000000000000000000000000000000000000000000000000000000000000000000000000000000000000000000000000
310
000000000000000000000000000000000000000000000000000000000000000000000000000000000000000000000000000000000000C3000000000000000000000000000000000000000000000000000000000000000000000000000000000000000000000000000000000000000000000000000000000000000000000000
310
00000000000000000000000000000000000000000000000000000000000000000000000000000000000000000000000000000000000000000000000000000000000000000000000000000000000000000000000000000000000000000000000000000000000000000000000000000000000000000000000000000000000000
310
0000000000000000000000000000000000000000000000000000000000000000000000000000000000000000000000000000000000000000C300000000000000000000000000000000000000000000000000000000000000000000000000000000000000000000000000000000000000000000000000000000000000000000
310
00000000000000000000000000000000000000000000000000000000000000000000000000000000000000000000000000000000000000000000000000000000000000000000000000000000000000000000000000000000000000000000000000000000000000000000000000000000000000000000000000000000000000
310
00000000000000000000000000000000000000000000000000000000000000000000000000000000000000000000000000000000000000000000C30000000000000000000000000000000000000000000000000000000000000000000000000000000000000000000000000000000000000000000000000000000000000000
310
00000000000000000000000000000000000000000000000000000000000000000000000000000000000000000000000000000000000000000000000000000000000000000000000000000000000000000000000000000000000000000000000000000000000000000000000000000000000000000000000000000000000000
310
00000000000000000000000000000000000000000000000000000000000000000000000000000000000000000000000000000000000000000000000000C30000000000000000000000000000000000000000000000000000000000000000000000000000000000000000000000000000000000000000000000000000000000
310
00000000000000000000002D2D2D2D2D000000000000000000000000000000000000000000000000000000000000000000000000000000000000000000000000000000000000000000000000000000000000000000000000000000000000000000000000000000000000000000000000000000000000000000000000000000
310
000000000000000000000000000000000000000000000000000000000000000000000000000000000000000000000000000000000000000000000000000000C3000000000000000000000000000000000000000000000000000000000000000000000000000000000000000000000000000000000000000000000000000000
310
000000000000000000BEBEBEBEBEBEBE002D00000000000000000000000000000000000000000000000000000000000000000000000000000000000000000000000000000000000000000000000000000000000000000000000000000000000000000000000000000000000000000000000000000000000000000000000000
310
000000000000000000000000000000000000000000000000000000000000000000000000000000000000000000000000000000000000000000000000000000000000C3000000000000000000000000000000000000000000000000000000000000000000000000000000000000000000000000000000000000000000000000
310
000000000000BEBEBEBEBE2D2D2D2D2D2D2DBEBEBEBEBE0000000000000000000000000000000000000000000000000000000000000000000000000000000000000000000000000000000000000000000000000000000000000000000000000000000000000000000000000000000000000000000000000000000000000000
310
0000000000000000000000000000000000000000000000000000000000000000000000000000000000000000000000000000000000000000000000000000000000000000C300000000000000000000000000000000000000000000000000000000000000000000000000000000000000000000000000000000000000000000
310
000000000000BEBE2D2D2D2D2D2D2D2D2D2D2D2D2D2D2D2D2DBEBE00000000000000000000000000000000000000000000000000000000000000000000000000000000000000000000000000000000000000000000000000000000000000000000000000000000000000000000000000000000000000000000000000000000
310
00000000000000000000000000000000000000000000000000000000000000000000000000000000000000000000000000000000000000000000000000000000000000000000C30000000000000000000000000000000000000000000000000000000000000000000000000000000000000000000000000000000000000000
310
0000000000BEBEBE2D2D2D2D2D2D2D2D2D2D2D2D2D2D2D2D2D2D2D2D2DBEBEBE0000000000000000000000000000000000000000000000000000000000000000000000000000000000000000000000000000000000000000000000000000000000000000000000000000000000000000000000000000000000000000000000
310
00000000000000000000000000000000000000000000000000000000000000000000000000000000000000000000000000000000000000000000000000000000000000000000000000C30000000000000000000000000000000000000000000000000000000000000000000000000000000000000000000000000000000000
310
000000000000BE2D2D2D2D2D2D2D2D2D2D2D2D2D2D2D2D2D2D2D2D2D2D2D2D2D2D2DBE0000000000000000000000000000000000000000000000000000000000000000000000000000000000000000000000000000000000000000000000000000000000000000000000000000000000000000000000000000000000000000
310
000000000000000000000000000000000000000000000000000000000000000000000000000000000000000000000000000000000000000000000000000000000000000000000000000000C3000000000000000000000000000000000000000000000000000000000000000000000000000000000000000000000000000000
310
002D2D2D2D2D2DBE2D2D2D2D2D2D2D2D2D2D2D2D2D2D2D2D2D2D2D2D2D2D2D2D2D2D2D2D2DBEBE00000000000000000000000000000000000000000000000000000000000000000000000000000000000000000000000000000000000000000000000000000000000000000000000000000000000000000000000000000000
310
0000000000000000000000000000000000000000000000000000000000000000000000000000000000000000000000000000000000000000000000000000000000000000000000000000000000C300000000000000000000000000000000000000000000000000000000000000000000000000000000000000000000000000
310
00000000000000BEBE2D000000002D002D0000002D002D0000002D002D000000002D002D0000002D00BE00000000000000000000000000000000000000000000000000000000000000000000000000000000000000000000000000000000000000000000000000000000000000000000000000000000000000000000000000
310
0000000000000000000000000000000000000000000000000000000000000000000000000000000000000000000000000000000000000000000000000000000000000000000000000000000000000000C300000000000000000000000000000000000000000000000000000000000000000000000000000000000000000000
310
0000000000000000BE2D2D2D2D2D2D2D2D2D2D2D2D2D2D2D2D2D2D2D2D2D2D2D2D2D2D2D2D2D2D2D2D2D2D2DBE00000000000000000000000000000000000000000000000000000000000000000000000000000000000000000000000000000000000000000000000000000000000000000000000000000000000000000000
310
00000000000000000000000000000000000000000000000000000000000000000000000000000000000000000000000000000000000000000000000000000000000000000000000000000000000000000000C30000000000000000000000000000000000000000000000000000000000000000000000000000000000000000
310
00000000000000000000BE2D2D2D2D2D2D2D2D2D2D2D2D2D2D2D2D2D2D2D2D2D2D2D2D2D2D2D2D2D2D2D2D2D2D2D2DBE00000000000000000000000000000000000000000000000000000000000000000000000000000000000000000000000000000000000000000000000000000000000000000000000000000000000000
310
000000000000000000000000000000000000000000000000000000000000000000000000000000000000000000000000000000000000000000000000000000000000000000000000000000000000000000000000C3000000000000000000000000000000000000000000000000000000000000000000000000000000000000
310
000000000000000000002DBE2D2D2D2D2D2D2D2D2D2D2D2D2D2D2D2D2D2D2D2D2D2D2D2D2D2D2D2D2D2D2D2D2D2D2D2D2DBE2D00000000000000000000000000000000000000000000000000000000000000000000000000000000000000000000000000000000000000000000000000000000000000000000000000000000
310
0000000000000000000000000000000000000000000000000000000000000000000000000000000000000000000000000000000000000000000000000000000000000000000000000000000000000000000000000000C300000000000000000000000000000000000000000000000000000000000000000000000000000000
310
000000000000000000000000BE2D2D2D2D2D2D2D2D2D2D2D2D2D2D2D2D2D2D2D2D2D2D2D2D2D2D2D2D2D2D2D2D2D2D2D2D2D2D2DBE2D00000000000000000000000000000000000000000000000000000000000000000000000000000000000000000000000000000000000000000000000000000000000000000000000000
310
0000000000000000000000000000000000000000000000000000000000000000000000000000000000000000000000000000000000000000000000000000000000000000000000000000000000000000000000000000000000C300000000000000000000000000000000000000000000000000000000000000000000000000
310
00000000000000000000000000BE2D2D2D2D2D2D2D2D2D2D2D2D2D2D2D2D2D2D2D2D2D2D2D2D2D2D2D2D2D2D2D2D2D2D2D2D2D2D2D2D2DBE0000000000000000000000000000000000000000000000000000000000000000000000000000000000000000000000000000000000000000000000000000000000000000000000
310
00000000000000000000000000000000000000000000000000000000000000000000000000000000000000000000000000000000000000000000000000000000000000000000000000000000000000000000000000000000000000C30000000000000000000000000000000000000000000000000000000000000000000000
310
000000000000000000000000000000BE2D002D000000002D002D0000002D002D0000002D002D0000002D002D000000002D002D0000002D002D00BE0000000000000000000000000000000000000000000000000000000000000000000000000000000000000000000000000000000000000000000000000000000000000000
310
000000000000000000000000000000000000000000000000000000000000000000000000000000000000000000000000000000000000000000000000000000000000000000000000000000000000000000000000000000000000000000C3000000000000000000000000000000000000000000000000000000000000000000
310
00000000000000000000000000000000BE2D2D2D2D2D2D2D2D2D2D2D2D2D2D2D2D2D2D2D2D2D2D2D2D2D2D2D2D2D2D2D2D2D2D2D2D2D2D2D2D2D2D2DBE000000000000000000000000000000000000000000000000000000000000000000000000000000000000000000000000000000000000000000000000000000000000
310
0000000000000000000000000000000000000000000000000000000000000000000000000000000000000000000000000000000000000000000000000000000000000000000000000000000000000000000000000000000000000000000000C300000000000000000000000000000000000000000000000000000000000000
310
0000000000000000000000000000000000BE2D2D2D2D2D2D2D2D2D2D2D2D2D2D2D2D2D2D2D2D2D2D2D2D2D2D2D2D2D2D2D2D2D2D2D2D2D2D2D2D2D2D2D2D2DBE000000000000000000000000000000000000000000000000000000000000000000000000000000000000000000000000000000000000000000000000000000
310
0000000000000000000000000000000000000000000000000000000000000000000000000000000000000000000000000000000000000000000000000000000000000000000000000000000000000000000000000000000000000000000000000000C300000000000000000000000000000000000000000000000000000000
310
00000000000000000000000000000000000000BE2D2D2D2D2D2D2D2D2D2D2D2D2D2D2D2D2D2D2D2D2D2D2D2D2D2D2D2D2D2D2D2D2D2D2D2D2D2D2D2D2D2D2D2D2D2DBE000000000000000000000000000000000000000000000000000000000000000000000000000000000000000000000000000000000000000000000000
310
00000000000000000000000000000000000000000000000000000000000000000000000000000000000000000000000000000000000000000000000000000000000000000000000000000000000000000000000000000000000000000000000000000000C30000000000000000000000000000000000000000000000000000
310
00000000000000000000000000000000000000002DBE2D2D2D2D2D2D2D2D2D2D2D2D2D2D2D2D2D2D2D2D2D2D2D2D2D2D2D2D2D2D2D2D2D2D2D2D2D2D2D2D2D2D2D2D2D2DBE00000000000000000000000000000000000000000000000000000000000000000000000000000000000000000000000000000000000000000000
310
00000000000000000000000000000000000000000000000000000000000000000000000000000000000000000000000000000000000000000000000000000000000000000000000000000000000000000000000000000000000000000000000000000000000000000000000000000000000000000000000000000000000000
310
000000000000000000000000000000000000002D2D2DBE2D2D2D2D2D2D2D2D2D2D2D2D2D2D2D2D2D2D2D2D2D2D2D2D2D2D2D2D2D2D2D2D2D2D2D2D2D2D2D2D2D2D2D2D2D2D2DBE0000000000000000000000000000000000000000000000000000000000000000000000000000000000000000000000000000000000000000
310
0000000000000000000000000000000000000000000000000000000000000000000000000000000000000000000000000000000000000000000000000000000000000000000000000000000000000000000000000000000000000000000000000000000000000000C300000000000000000000000000000000000000000000
310
000000000000000000000000000000000000000000000000BE2D002D0000002D002D000000002D002D0000002D002D0000002D002D000000002D002D0000002D002D0000002D002D00BE0000000000000000000000000000000000000000000000000000000000000000000000000000000000000000000000000000000000
310
0000000000000000000000000000000000000000000000000000000000000000000000000000000000000000000000000000000000000000000000000000000000000000000000000000000000000000000000000000000000000000000000000000000000000000000000C300000000000000000000000000000000000000
310
0000000000000000000000000000000000000000000000000000BE2D2D2D2D2D2D2D2D2D2D2D2D2D2D2D2D2D2D2D2D2D2D2D2D2D2D2D2D2D2D2D2D2D2D2D2D2D2D2D2D2D2D2D2D2D2D2D2DBE000000000000000000000000000000000000000000000000000000000000000000000000000000000000000000000000000000
310
00000000000000000000000000000000000000000000000000000000000000000000000000000000000000000000000000000000000000000000000000000000000000000000000000000000000000000000000000000000000000000000000000000000000000000000000000C30000000000000000000000000000000000
310
000000000000000000000000000000000000000000000000000000BE2D2D2D2D2D2D2D2D2D2D2D2D2D2D2D2D2D2D2D2D2D2D2D2D2D2D2D2D2D2D2D2D2D2D2D2D2D2D2D2D2D2D2D2D2D2D2D2D2DBE00000000000000000000000000000000000000000000000000000000000000000000000000000000000000000000000000
310
000000000000000000000000000000000000000000000000000000000000000000000000000000000000000000000000000000000000000000000000000000000000000000000000000000000000000000000000000000000000000000000000000000000000000000000000000000C3000000000000000000000000000000
310
0000000000000000000000000000000000000000000000000000000000BE2D2D2D2D2D2D2D2D2D2D2D2D2D2D2D2D2D2D2D2D2D2D2D2D2D2D2D2D2D2D2D2D2D2D2D2D2D2D2D2D2D2D2D2D2D2D2D2D2DBE0000000000000000000000000000000000000000000000000000000000000000000000000000000000000000000000
310
0000000000000000000000000000000000000000000000000000000000000000000000000000000000000000000000000000000000000000000000000000000000000000000000000000000000000000000000000000000000000000000000000000000000000000000000000000000000C300000000000000000000000000
310
00000000000000000000000000000000000000000000000000000000000000BE2D2D2D2D2D2D2D2D2D2D2D2D2D2D2D2D2D2D2D2D2D2D2D2D2D2D2D2D2D2D2D2D2D2D2D2D2D2D2D2D2D2D2D2D2D2D2D2D2DBE000000000000000000000000000000000000000000000000000000000000000000000000000000000000000000
310
00000000000000000000000000000000000000000000000000000000000000000000000000000000000000000000000000000000000000000000000000000000000000000000000000000000000000000000000000000000000000000000000000000000000000000000000000000000000000C30000000000000000000000
310
000000000000000000000000000000000000000000000000000000000000000000BE2D2D2D2D2D2D2D2D2D2D2D2D2D2D2D2D2D2D2D2D2D2D2D2D2D2D2D2D2D2D2D2D2D2D2D2D2D2D2D2D2D2D2D2D2D2D2D2D2DBE00000000000000000000000000000000000000000000000000000000000000000000000000000000000000
310
000000000000000000000000000000000000000000000000000000000000000000000000000000000000000000000000000000000000000000000000000000000000000000000000000000000000000000000000000000000000000000000000000000000000000000000000000000000000000000C3000000000000000000
310
0000000000000000000000000000000000000000000000000000000000000000000000BE2D0000002D002D000000002D002D0000002D002D0000002D002D0000002D002D000000002D002D0000002D002D0000002DBE0000000000000000000000000000000000000000000000000000000000000000000000000000000000
310
0000000000000000000000000000000000000000000000000000000000000000000000000000000000000000000000000000000000000000000000000000000000000000000000000000000000000000000000000000000000000000000000000000000000000000000000000000000000000000000000C300000000000000
310
00000000000000000000000000000000000000000000000000000000000000000000000000BE2D2D2D2D2D2D2D2D2D2D2D2D2D2D2D2D2D2D2D2D2D2D2D2D2D2D2D2D2D2D2D2D2D2D2D2D2D2D2D2D2D2D2D2D2D2D2D2D2D2DBE0000000000000000000000000000000000000000000000000000000000000000000000000000
310
00000000000000000000000000000000000000000000000000000000000000000000000000000000000000000000000000000000000000000000000000000000000000000000000000000000000000000000000000000000000000000000000000000000000000000000000000000000000000000000000000C30000000000
310
000000000000000000000000000000000000000000000000000000000000000000000000000000BE2D2D2D2D2D2D2D2D2D2D2D2D2D2D2D2D2D2D2D2D2D2D2D2D2D2D2D2D2D2D2D2D2D2D2D2D2D2D2D2D2D2D2D2D2D2D2D2D2D2DBE000000000000000000000000000000000000000000000000000000000000000000000000
310
000000000000000000000000000000000000000000000000000000000000000000000000000000000000000000000000000000000000000000000000000000000000000000000000000000000000000000000000000000000000000000000000000000000000000000000000000000000000000000000000000000C3000000
310
0000000000000000000000000000000000000000000000000000000000000000000000000000000000BE2D2D2D2D2D2D2D2D2D2D2D2D2D2D2D2D2D2D2D2D2D2D2D2D2D2D2D2D2D2D2D2D2D2D2D2D2D2D2D2D2D2D2D2D2D2D2D2D2DBE0000000000000000000000000000000000000000000000000000000000000000000000
310
0000000000000000000000000000000000000000000000000000000000000000000000000000000000000000000000000000000000000000000000000000000000000000000000000000000000000000000000000000000000000000000000000000000000000000000000000000000000000000000000000000000000C300
310
00000000000000000000000000000000000000000000000000000000000000000000000000000000000000BE2D2D2D2D2D2D2D2D2D2D2D2D2D2D2D2D2D2D2D2D2D2D2D2D2D2D2D2D2D2D2D2D2D2D2D2D2D2D2D2D2D2D2D2D2D2D2D2D2DBE000000000000000000000000000000000000000000000000000000000000000000
310
00000000000000000000000000000000000000000000000000000000000000000000000000000000000000000000000000000000000000000000000000000000000000000000000000000000000000000000000000000000000000000000000000000000000000000000000000000000000000000000000000000000000000
310
00C300000000000000000000000000000000000000000000000000000000000000000000000000000000000000BE2D2D2D2D2D2D2D2D2D2D2D2D2D2D2D2D2D2D2D2D2D2D2D2D2D2D2D2D2D2D2D2D2D2D2D2D2D2D2D2D2D2D2D2D2D2D2D2D2DBE2D2D0000000000000000000000000000000000000000000000000000000000
310
00000000000000000000000000000000000000000000000000000000000000000000000000000000000000000000000000000000000000000000000000000000000000000000000000000000000000000000000000000000000000000000000000000000000000000000000000000000000000000000000000000000000000
310
000000C300000000000000000000000000000000000000000000000000000000000000000000000000000000000000BE002D002D0000002D002D000000002D002D0000002D002D0000002D002D000000002D002D0000002D002D0000002D002D00BE002D000000000000000000000000000000000000000000000000000000
310
00000000000000000000000000000000000000000000000000000000000000000000000000000000000000000000000000000000000000000000000000000000000000000000000000000000000000000000000000000000000000000000000000000000000000000000000000000000000000000000000000000000000000
310
0000000000C3000000000000000000000000000000000000000000000000000000000000000000000000000000000000002DBE2D2D2D2D2D2D2D2D2D2D2D2D2D2D2D2D2D2D2D2D2D2D2D2D2D2D2D2D2D2D2D2D2D2D2D2D2D2D2D2D2D2D2D2D2D2D2D2DBE2D2D00000000000000000000000000000000000000000000000000
310
00000000000000000000000000000000000000000000000000000000000000000000000000000000000000000000000000000000000000000000000000000000000000000000000000000000000000000000000000000000000000000000000000000000000000000000000000000000000000000000000000000000000000
310
00000000000000C30000000000000000000000000000000000000000000000000000000000000000000000000000000000000000BE2D2D2D2D2D2D2D2D2D2D2D2D2D2D2D2D2D2D2D2D2D2D2D2D2D2D2D2D2D2D2D2D2D2D2D2D2D2D2D2D2D2D2D2D2D2D2D2DBE00000000000000000000000000000000000000000000000000
310
00000000000000000000000000000000000000000000000000000000000000000000000000000000000000000000000000000000000000000000000000000000000000000000000000000000000000000000000000000000000000000000000000000000000000000000000000000000000000000000000000000000000000
310
000000000000000000C30000000000000000000000000000000000000000000000000000000000000000000000000000000000000000BE2D2D2D2D2D2D2D2D2D2D2D2D2D2D2D2D2D2D2D2D2D2D2D2D2D2D2D2D2D2D2D2D2D2D2D2D2D2D2D2D2D2D2D2D2D2D2DBE000000000000000000000000000000000000000000000000
310
00000000000000000000000000000000000000000000000000000000000000000000000000000000000000000000000000000000000000000000000000000000000000000000000000000000000000000000000000000000000000000000000000000000000000000000000000000000000000000000000000000000000000
310
0000000000000000000000C300000000000000000000000000000000000000000000000000000000000000000000000000000000000000002DBE2D2D2D2D2D2D2D2D2D2D2D2D2D2D2D2D2D2D2D2D2D2D2D2D2D2D2D2D2D2D2D2D2D2D2D2D2D2D2D2D2D2D2D2D2D2DBE00000000000000000000000000000000000000000000
310
00000000000000000000000000000000000000000000000000000000000000000000000000000000000000000000000000000000000000000000000000000000000000000000000000000000000000000000000000000000000000000000000000000000000000000000000000000000000000000000000000000000000000
310
00000000000000000000000000C3000000000000000000000000000000000000000000000000000000000000000000000000000000000000000000BE2D2D2D2D2D2D2D2D2D2D2D2D2D2D2D2D2D2D2D2D2D2D2D2D2D2D2D2D2D2D2D2D2D2D2D2D2D2D2D2D2D2D2D2D2D2DBE0000000000000000000000000000000000000000
310
00000000000000000000000000000000000000000000000000000000000000000000000000000000000000000000000000000000000000000000000000000000000000000000000000000000000000000000000000000000000000000000000000000000000000000000000000000000000000000000000000000000000000
310
000000000000000000000000000000C3000000000000000000000000000000000000000000000000000000000000000000000000000000000000000000BE00002D002D000000002D002D0000002D002D0000002D002D0000002D002D000000002D002D0000002D002D0000BE00000000000000000000000000000000000000
310
00000000000000000000000000000000000000000000000000000000000000000000000000000000000000000000000000000000000000000000000000000000000000000000000000000000000000000000000000000000000000000000000000000000000000000000000000000000000000000000000000000000000000
310
0000000000000000000000000000000000C30000000000000000000000000000000000000000000000000000000000000000000000000000000000000000002DBE2D2D2D2D2D2D2D2D2D2D2D2D2D2D2D2D2D2D2D2D2D2D2D2D2D2D2D2D2D2D2D2D2D2D2D2D2D2D2D2D2D2D2D2DBE0000000000000000000000000000000000
310
00000000000000000000000000000000000000000000000000000000000000000000000000000000000000000000000000000000000000000000000000000000000000000000000000000000000000000000000000000000000000000000000000000000000000000000000000000000000000000000000000000000000000
310
00000000000000000000000000000000000000C300000000000000000000000000000000000000000000000000000000000000000000000000000000000000002D2DBE2D2D2D2D2D2D2D2D2D2D2D2D2D2D2D2D2D2D2D2D2D2D2D2D2D2D2D2D2D2D2D2D2D2D2D2D2D2D2D2D2D2D2DBE00000000000000000000000000000000
310
00000000000000000000000000000000000000000000000000000000000000000000000000000000000000000000000000000000000000000000000000000000000000000000000000000000000000000000000000000000000000000000000000000000000000000000000000000000000000000000000000000000000000
310
000000000000000000000000000000000000000000C300000000000000000000000000000000000000000000000000000000000000000000000000000000000000002D2D2DBE2D2D2D2D2D2D2D2D2D2D2D2D2D2D2D2D2D2D2D2D2D2D2D2D2D2D2D2D2D2D2D2D2D2D2D2D2D2D2D2D2DBE000000000000000000000000000000
310
00000000000000000000000000000000000000000000000000000000000000000000000000000000000000000000000000000000000000000000000000000000000000000000000000000000000000000000000000000000000000000000000000000000000000000000000000000000000000000000000000000000000000
310
0000000000000000000000000000000000000000000000C3000000000000000000000000000000000000000000000000000000000000000000000000000000000000000000000000BE2D2D2D2D2D2D2D2D2D2D2D2D2D2D2D2D2D2D2D2D2D2D2D2D2D2D2D2D2D2D2D2D2D2D2D2D2D2D2D2DBE00000000000000000000000000
310
00000000000000000000000000000000000000000000000000000000000000000000000000000000000000000000000000000000000000000000000000000000000000000000000000000000000000000000000000000000000000000000000000000000000000000000000000000000000000000000000000000000000000
310
00000000000000000000000000000000000000000000000000C3000000000000000000000000000000000000000000000000000000000000000000000000000000000000000000000000BE2D2D2D2D2D2D2D2D2D2D2D2D2D2D2D2D2D2D2D2D2D2D2D2D2D2D2D2D2D2D2D2D2D2D2D2D2D2D2DBE000000000000000000000000
310
00000000000000000000000000000000000000000000000000000000000000000000000000000000000000000000000000000000000000000000000000000000000000000000000000000000000000000000000000000000000000000000000000000000000000000000000000000000000000000000000000000000000000
310
0000000000000000000000000000000000000000000000000000C30000000000000000000000000000000000000000000000000000000000000000000000000000000000000000000000000000BE002D002D000000002D002D0000002D002D0000002D002D000000002D002D0000002D002D00BE0000000000000000000000
310
00000000000000000000000000000000000000000000000000000000000000000000000000000000000000000000000000000000000000000000000000000000000000000000000000000000000000000000000000000000000000000000000000000000000000000000000000000000000000000000000000000000000000
310
00000000000000000000000000000000000000000000000000000000C3000000000000000000000000000000000000000000000000000000000000000000000000000000000000000000000000000000BE2D2D2D2D2D2D2D2D2D2D2D2D2D2D2D2D2D2D2D2D2D2D2D2D2D2D2D2D2D2D2D2D2D2D2DBE00000000000000000000
310
00000000000000000000000000000000000000000000000000000000000000000000000000000000000000000000000000000000000000000000000000000000000000000000000000000000000000000000000000000000000000000000000000000000000000000000000000000000000000000000000000000000000000
310
000000000000000000000000000000000000000000000000000000000000C300000000000000000000000000000000000000000000000000000000000000000000000000000000000000000000000000000000BE2D2D2D2D2D2D2D2D2D2D2D2D2D2D2D2D2D2D2D2D2D2D2D2D2D2D2D2D2D2D2D2D2DBE2D0000000000000000
310
00000000000000000000000000000000000000000000000000000000000000000000000000000000000000000000000000000000000000000000000000000000000000000000000000000000000000000000000000000000000000000000000000000000000000000000000000000000000000000000000000000000000000
310
0000000000000000000000000000000000000000000000000000000000000000C30000000000000000000000000000000000000000000000000000000000000000000000000000000000000000000000000000000000BEBE2D2D2D2D2D2D2D2D2D2D2D2D2D2D2D2D2D2D2D2D2D2D2D2D2D2D2D2D2D2DBE0000000000000000
310
00000000000000000000000000000000000000000000000000000000000000000000000000000000000000000000000000000000000000000000000000000000000000000000000000000000000000000000000000000000000000000000000000000000000000000000000000000000000000000000000000000000000000
310
00000000000000000000000000000000000000000000000000000000000000000000C300000000000000000000000000000000000000000000000000000000000000000000000000000000000000000000000000000000000000BE2D2D2D2D2D2D2D2D2D2D2D2D2D2D2D2D2D2D2D2D2D2D2D2D2D2D2DBEBE00000000000000
310
00000000000000000000000000000000000000000000000000000000000000000000000000000000000000000000000000000000000000000000000000000000000000000000000000000000000000000000000000000000000000000000000000000000000000000000000000000000000000000000000000000000000000
310
000000000000000000000000000000000000000000000000000000000000000000000000C30000000000000000000000000000000000000000000000000000000000000000000000000000000000000000000000000000000000000000BE2D2D2D2D2D2D2D2D2D2D2D2D2D2D2D2D2D2D2D2D2D2D2D2D2DBE00000000000000
310
00000000000000000000000000000000000000000000000000000000000000000000000000000000000000000000000000000000000000000000000000000000000000000000000000000000000000000000000000000000000000000000000000000000000000000000000000000000000000000000000000000000000000
310
0000000000000000000000000000000000000000000000000000000000000000000000000000C3000000000000000000000000000000000000000000000000000000000000000000000000000000000000000000000000000000000000000000BEBEBE00002D002D0000002D002D0000002D002D0000BEBEBE000000000000
310
00000000000000000000000000000000000000000000000000000000000000000000000000000000000000000000000000000000000000000000000000000000000000000000000000000000000000000000000000000000000000000000000000000000000000000000000000000000000000000000000000000000000000
310
00000000000000000000000000000000000000000000000000000000000000000000000000000000C3000000000000000000000000000000000000000000000000000000000000000000000000000000000000000000000000000000000000000000000000BEBEBEBE2D2D2D2D2D2D2D2D2D2D2D2DBEBEBE2D000000000000
310
00000000000000000000000000000000000000000000000000000000000000000000000000000000000000000000000000000000000000000000000000000000000000000000000000000000000000000000000000000000000000000000000000000000000000000000000000000000000000000000000000000000000000
310
0000000000000000000000000000000000000000000000000000000000000000000000000000000000C30000000000000000000000000000000000000000000000000000000000000000000000000000000000000000000000000000000000000000000000000000000000BEBEBEBEBEBEBEBEBEBEBEBE0000000000000000
310
00000000000000000000000000000000000000000000000000000000000000000000000000000000000000000000000000000000000000000000000000000000000000000000000000000000000000000000000000000000000000000000000000000000000000000000000000000000000000000000000000000000000000
310
00000000000000000000000000000000000000000000000000000000000000000000000000000000000000C30000000000000000000000000000000000000000000000000000000000000000000000000000000000000000000000000000000000000000000000000000000000000000000000000000000000000000000000
310
00000000000000000000000000000000000000000000000000000000000000000000000000000000000000000000000000000000000000000000000000000000000000000000000000000000000000000000000000000000000000000000000000000000000000000000000000000000000000000000000000000000000000
310
000000000000000000000000000000000000000000000000000000000000000000000000000000000000000000C3000000000000000000000000000000000000000000000000000000000000000000000000000000000000000000000000000000000000000000000000000000000000000000000000000000000000000000
310
00000000000000000000000000000000000000000000000000000000000000000000000000000000000000000000000000000000000000000000000000000000000000000000000000000000000000000000000000000000000000000000000000000000000000000000000000000000000000000000000000000000000000
310
0000000000000000000000000000000000000000000000000000000000000000000000000000000000000000000000C300000000000000000000000000000000000000000000000000000000000000000000000000000000000000000000000000000000000000000000000000000000000000000000000000000000000000
310
00000000000000000000000000000000000000000000000000000000000000000000000000000000000000000000000000000000000000000000000000000000000000000000000000000000000000000000000000000000000000000000000000000000000000000000000000000000000000000000000000000000000000
310
00000000000000000000000000000000000000000000000000000000000000000000000000000000000000000000000000C30000000000000000000000000000000000000000000000000000000000000000000000000000000000000000000000000000000000000000000000000000000000000000000000000000000000
310
00000000000000000000000000000000000000000000000000000000000000000000000000000000000000000000000000000000000000000000000000000000000000000000000000000000000000000000000000000000000000000000000000000000000000000000000000000000000000000000000000000000000000
310
0000000000000000000000000000000000000000000000000000000000000000000000000000000000000000000000000000C300000000000000000000000000000000000000000000000000000000000000000000000000000000000000000000000000000000000000000000000000000000000000000000000000000000
310
00000000000000000000000000000000000000000000000000000000000000000000000000000000000000000000000000000000000000000000000000000000000000000000000000000000000000000000000000000000000000000000000000000000000000000000000000000000000000000000000000000000000000
310
00000000000000000000000000000000000000000000000000000000000000000000000000000000000000000000000000000000C30000000000000000000000000000000000000000000000000000000000000000000000000000000000000000000000000000000000000000000000000000000000000000000000000000
310
00000000000000000000000000000000000000000000000000000000000000000000000000000000000000000000000000000000000000000000000000000000000000000000000000000000000000000000000000000000000000000000000000000000000000000000000000000000000000000000000000000000000000
310
00000000000000000000000000000000000000000000000000000000000000000000000000000000000000000000000000000000000000000000000000000000000000000000000000000000000000000000000000000000000000000000000000000000000000000000000000000000000000000000000000000000000000
310
00000000000000000000000000000000000000000000000000000000000000000000000000000000000000000000000000000000000000000000000000000000000000000000000000000000000000000000000000000000000000000000000000000000000000000000000000000000000000000000000000000000000000
310
0000000000000000000000000000000000000000000000000000000000000000000000000000000000000000000000000000000000000000C300000000000000000000000000000000000000000000000000000000000000000000000000000000000000000000000000000000000000000000000000000000000000000000
310
00000000000000000000000000000000000000000000000000000000000000000000000000000000000000000000000000000000000000000000000000000000000000000000000000000000000000000000000000000000000000000000000000000000000000000000000000000000000000000000000000000000000000
310
00000000000000000000000000000000000000000000000000000000000000000000000000000000000000000000000000000000000000000000C30000000000000000000000000000000000000000000000000000000000000000000000000000000000000000000000000000000000000000000000000000000000000000
310
00000000000000000000000000000000000000000000000000000000000000000000000000000000000000000000000000000000000000000000000000000000000000000000000000000000000000000000000000000000000000000000000000000000000000000000000000000000000000000000000000000000000000
310
0000000000000000000000000000000000000000000000000000000000000000000000000000000000000000000000000000000000000000000000C300000000000000000000000000000000000000000000000000000000000000000000000000000000000000000000000000000000000000000000000000000000000000
310
00000000000000000000000000000000000000000000000000000000000000000000000000000000000000000000000000000000000000000000000000000000000000000000000000000000000000000000000000000000000000000000000000000000000000000000000000000000000000000000000000000000000000
310
00000000000000000000000000000000000000000000000000000000000000000000000000000000000000000000000000000000000000000000000000C30000000000000000000000000000000000000000000000000000000000000000000000000000000000000000000000000000000000000000000000000000000000
310
00000000000000000000000000000000000000000000000000000000000000000000000000000000000000000000000000000000000000000000000000000000000000000000000000000000000000000000000000000000000000000000000000000000000000000000000000000000000000000000000000000000000000
310
0000000000000000000000000000000000000000000000000000000000000000000000000000000000000000000000000000000000000000000000000000C300000000000000000000000000000000000000000000000000000000000000000000000000000000000000000000000000000000000000000000000000000000
310
00000000000000000000000000000000000000000000000000000000000000000000000000000000000000000000000000000000000000000000000000000000000000000000000000000000000000000000000000000000000000000000000000000000000000000000000000000000000000000000000000000000000000
310
00000000000000000000000000000000000000000000000000000000000000000000000000000000000000000000000000000000000000000000000000000000C30000000000000000000000000000000000000000000000000000000000000000000000000000000000000000000000000000000000000000000000000000
310
00000000000000000000000000000000000000000000000000000000000000000000000000000000000000000000000000000000000000000000000000000000000000000000000000000000000000000000000000000000000000000000000000000000000000000000000000000000000000000000000000000000000000
310
000000000000000000000000000000000000000000000000000000000000000000000000000000000000000000000000000000000000000000000000000000000000C3000000000000000000000000000000000000000000000000000000000000000000000000000000000000000000000000000000000000000000000000
310
00000000000000000000000000000000000000000000000000000000000000000000000000000000000000000000000000000000000000000000000000000000000000000000000000000000000000000000000000000000000000000000000000000000000000000000000000000000000000000000000000000000000000
310
00000000000000000000000000000000000000000000000000000000000000000000000000000000000000000000000000000000000000000000000000000000000000000000000000000000000000000000000000000000000000000000000000000000000000000000000000000000000000000000000000000000000000
310
00000000000000000000000000000000000000000000000000000000000000000000000000000000000000000000000000000000000000000000000000000000000000000000000000000000000000000000000000000000000000000000000000000000000000000000000000000000000000000000000000000000000000
310
000000000000000000000000000000000000000000000000000000000000000000000000000000000000000000000000000000000000000000000000000000000000000000C3C30000000000000000000000000000000000000000000000000000000000000000000000000000000000000000000000000000000000000000
310
00000000000000000000000000000000000000000000000000000000000000000000000000000000000000000000000000000000000000000000000000000000000000000000000000000000000000000000000000000000000000000000000000000000000000000000000000000000000000000000000000000000000000
310
0000000000000000000000000000000000000000000000000000000000000000000000000000000000000000000000000000000000000000000000000000000000000000000000C300000000000000000000000000000000000000000000000000000000000000000000000000000000000000000000000000000000000000
310
00000000000000000000000000000000000000000000000000000000000000000000000000000000000000000000000000000000000000000000000000000000000000000000000000000000000000000000000000000000000000000000000000000000000000000000000000000000000000000000000000000000000000
310
00000000000000000000000000000000000000000000000000000000000000000000000000000000000000000000000000000000000000000000000000000000000000000000000000C30000000000000000000000000000000000000000000000000000000000000000000000000000000000000000000000000000000000
310
00000000000000000000000000000000000000000000000000000000000000000000000000000000000000000000000000000000000000000000000000000000000000000000000000000000000000000000000000000000000000000000000000000000000000000000000000000000000000000000000000000000000000
310
0000000000000000000000000000000000000000000000000000000000000000000000000000000000000000000000000000000000000000000000000000000000000000000000000000C300000000000000000000000000000000000000000000000000000000000000000000000000000000000000000000000000000000
310
00000000000000000000000000000000000000000000000000000000000000000000000000000000000000000000000000000000000000000000000000000000000000000000000000000000000000000000000000000000000000000000000000000000000000000000000000000000000000000000000000000000000000
310
00000000000000000000000000000000000000000000000000000000000000000000000000000000000000000000000000000000000000000000000000000000000000000000000000000000C30000000000000000000000000000000000000000000000000000000000000000000000000000000000000000000000000000
310
00000000000000000000000000000000000000000000000000000000000000000000000000000000000000000000000000000000000000000000000000000000000000000000000000000000000000000000000000000000000000000000000000000000000000000000000000000000000000000000000000000000000000
310
000000000000000000000000000000000000000000000000000000000000000000000000000000000000000000000000000000000000000000000000000000000000000000000000000000000000C3000000000000000000000000000000000000000000000000000000000000000000000000000000000000000000000000
310
00000000000000000000000000000000000000000000000000000000000000000000000000000000000000000000000000000000000000000000000000000000000000000000000000000000000000000000000000000000000000000000000000000000000000000000000000000000000000000000000000000000000000
310
00000000000000000000000000000000000000000000000000000000000000000000000000000000000000000000000000000000000000000000000000000000000000000000000000000000000000C30000000000000000000000000000000000000000000000000000000000000000000000000000000000000000000000
310
00000000000000000000000000000000000000000000000000000000000000000000000000000000000000000000000000000000000000000000000000000000000000000000000000000000000000000000000000000000000000000000000000000000000000000000000000000000000000000000000000000000000000
310
000000000000000000000000000000000000000000000000000000000000000000000000000000000000000000000000000000000000000000000000000000000000000000000000000000000000000000C3000000000000000000000000000000000000000000000000000000000000000000000000000000000000000000
310
00000000000000000000000000000000000000000000000000000000000000000000000000000000000000000000000000000000000000000000000000000000000000000000000000000000000000000000000000000000000000000000000000000000000000000000000000000000000000000000000000000000000000
310
00000000000000000000000000000000000000000000000000000000000000000000000000000000000000000000000000000000000000000000000000000000000000000000000000000000000000000000C30000000000000000000000000000000000000000000000000000000000000000000000000000000000000000
310
00000000000000000000000000000000000000000000000000000000000000000000000000000000000000000000000000000000000000000000000000000000000000000000000000000000000000000000000000000000000000000000000000000000000000000000000000000000000000000000000000000000000000
310
00000000000000000000000000000000000000000000000000000000000000000000000000000000000000000000000000000000000000000000000000000000000000000000000000000000000000000000000000000000000000000000000000000000000000000000000000000000000000000000000000000000000000
310
00000000000000000000000000000000000000000000000000000000000000000000000000000000000000000000000000000000000000000000000000000000000000000000000000000000000000000000000000000000000000000000000000000000000000000000000000000000000000000000000000000000000000
310
00000000000000000000000000000000000000000000000000000000000000000000000000000000000000000000000000000000000000000000000000000000000000000000000000000000000000000000000000C3C300000000000000000000000000000000000000000000000000000000000000000000000000000000
310
00000000000000000000000000000000000000000000000000000000000000000000000000000000000000000000000000000000000000000000000000000000000000000000000000000000000000000000000000000000000000000000000000000000000000000000000000000000000000000000000000000000000000
310
000000000000000000000000000000000000000000000000000000000000000000000000000000000000000000000000000000000000000000000000000000000000000000000000000000000000000000000000000000C3000000000000000000000000000000000000000000000000000000000000000000000000000000
310
00000000000000000000000000000000000000000000000000000000000000000000000000000000000000000000000000000000000000000000000000000000000000000000000000000000000000000000000000000000000000000000000000000000000000000000000000000000000000000000000000000000000000
310
0000000000000000000000000000000000000000000000000000000000000000000000000000000000000000000000000000000000000000000000000000000000000000000000000000000000000000000000000000000000C300000000000000000000000000000000000000000000000000000000000000000000000000
310
00000000000000000000000000000000000000000000000000000000000000000000000000000000000000000000000000000000000000000000000000000000000000000000000000000000000000000000000000000000000000000000000000000000000000000000000000000000000000000000000000000000000000
310
00000000000000000000000000000000000000000000000000000000000000000000000000000000000000000000000000000000000000000000000000000000000000000000000000000000000000000000000000000000000000000000000000000000000000000000000000000000000000000000000000000000000000
310
00000000000000000000000000000000000000000000000000000000000000000000000000000000000000000000000000000000000000000000000000000000000000000000000000000000000000000000000000000000000000000000000000000000000000000000000000000000000000000000000000000000000000
310
00000000000000000000000000000000000000000000000000000000000000000000000000000000000000000000000000000000000000000000000000000000000000000000000000000000000000000000000000000000000000000000000000000000000000000000000000000000000000000000000000000000000000
310
00000000000000000000000000000000000000000000000000000000000000000000000000000000000000000000000000000000000000000000000000000000000000000000000000000000000000000000000000000000000000000000000000000000000000000000000000000000000000000000000000000000000000
310
00000000000000000000000000000000000000000000000000000000000000000000000000000000000000000000000000000000000000000000000000000000000000000000000000000000000000000000000000000000000000000000000000000000000000000000000000000000000000000000000000000000000000
310
00000000000000000000000000000000000000000000000000000000000000000000000000000000000000000000000000000000000000000000000000000000000000000000000000000000000000000000000000000000000000000000000000000000000000000000000000000000000000000000000000000000000000
310
00000000000000000000000000000000000000000000000000000000000000000000000000000000000000000000000000000000000000000000000000000000000000000000000000000000000000000000000000000000000000000000000000000000000000000000000000000000000000000000000000000000000000
310
00000000000000000000000000000000000000000000000000000000000000000000000000000000000000000000000000000000000000000000000000000000000000000000000000000000000000000000000000000000000000000000000000000000000000000000000000000000000000000000000000000000000000
310
00000000000000000000000000000000000000000000000000000000000000000000000000000000000000000000000000000000000000000000000000000000000000000000000000000000000000000000000000000000000000000000000000000000000000000000000000000000000000000000000000000000000000
310
00000000000000000000000000000000000000000000000000000000000000000000000000000000000000000000000000000000000000000000000000000000000000000000000000000000000000000000000000000000000000000000000000000000000000000000000000000000000000000000000000000000000000
310
0000000000000000000000000000000000000000000000000000000000000000000000000000000000000000000000000000000000000000000000000000000000000000000000000000000000000000000000000000000000000000000000000000000000
  0
XRECORD
  5
21D4CD
102
{ACAD_REACTORS
330
1A
102
}
330
1A
100
AcDbXrecord
280
     1
102
MATERIAL
148
0.0
149
0.0
149
0.0
 93
        0
 94
      127
282
     0
 72
     0
 77
     0
171
     0
175
     0
179
     0
273
     0
  0
XRECORD
  5
1C
102
{ACAD_REACTORS
330
1A
102
}
330
1A
100
AcDbXrecord
280
     1
270
     1
271
     1
  0
XRECORD
  5
1B
102
{ACAD_REACTORS
330
1A
102
}
330
1A
100
AcDbXrecord
280
     1
270
     1
271
     1
  0
XRECORD
  5
1F
102
{ACAD_REACTORS
330
1A
102
}
330
1A
100
AcDbXrecord
280
     1
270
     1
271
     1
  0
XRECORD
  5
1E
102
{ACAD_REACTORS
330
1A
102
}
330
1A
100
AcDbXrecord
280
     1
270
     1
271
     1
  0
XRECORD
  5
20
102
{ACAD_REACTORS
330
1A
102
}
330
1A
100
AcDbXrecord
280
     1
270
     1
271
     1
  0
XRECORD
  5
1D
102
{ACAD_REACTORS
330
1A
102
}
330
1A
100
AcDbXrecord
280
     1
270
     1
271
     1
  0
XRECORD
  5
21D4CC
102
{ACAD_REACTORS
330
12
102
}
330
12
100
AcDbXrecord
280
     1
102
MATERIAL
148
0.0
149
0.0
149
0.0
 93
        0
 94
      127
282
     0
 72
     0
 77
     0
171
     0
175
     0
179
     0
273
     0
  0
XRECORD
  5
14
102
{ACAD_REACTORS
330
12
102
}
330
12
100
AcDbXrecord
280
     1
270
     1
271
     1
  0
XRECORD
  5
13
102
{ACAD_REACTORS
330
12
102
}
330
12
100
AcDbXrecord
280
     1
270
     1
271
     1
  0
XRECORD
  5
17
102
{ACAD_REACTORS
330
12
102
}
330
12
100
AcDbXrecord
280
     1
270
     1
271
     1
  0
XRECORD
  5
16
102
{ACAD_REACTORS
330
12
102
}
330
12
100
AcDbXrecord
280
     1
270
     1
271
     1
  0
XRECORD
  5
18
102
{ACAD_REACTORS
330
12
102
}
330
12
100
AcDbXrecord
280
     1
270
     1
271
     1
  0
XRECORD
  5
15
102
{ACAD_REACTORS
330
12
102
}
330
12
100
AcDbXrecord
280
     1
270
     1
271
     1
  0
XRECORD
  5
21D4CE
102
{ACAD_REACTORS
330
22
102
}
330
22
100
AcDbXrecord
280
     1
102
MATERIAL
148
0.0
149
0.0
149
0.0
 93
        0
 94
      127
282
     0
 72
     0
 77
     0
171
     0
175
     0
179
     0
273
     0
  0
XRECORD
  5
24
102
{ACAD_REACTORS
330
22
102
}
330
22
100
AcDbXrecord
280
     1
270
     1
271
     1
  0
XRECORD
  5
23
102
{ACAD_REACTORS
330
22
102
}
330
22
100
AcDbXrecord
280
     1
270
     1
271
     1
  0
XRECORD
  5
27
102
{ACAD_REACTORS
330
22
102
}
330
22
100
AcDbXrecord
280
     1
270
     1
271
     1
  0
XRECORD
  5
26
102
{ACAD_REACTORS
330
22
102
}
330
22
100
AcDbXrecord
280
     1
270
     1
271
     1
  0
XRECORD
  5
28
102
{ACAD_REACTORS
330
22
102
}
330
22
100
AcDbXrecord
280
     1
270
     1
271
     1
  0
XRECORD
  5
25
102
{ACAD_REACTORS
330
22
102
}
330
22
100
AcDbXrecord
280
     1
270
     1
271
     1
  0
CELLSTYLEMAP
  5
22FF3D
102
{ACAD_REACTORS
330
21D4C8
102
}
330
21D4C8
100
AcDbCellStyleMap
 90
        3
300
CELLSTYLE
  1
TABLEFORMAT_BEGIN
 90
        5
170
     1
 91
        0
 92
    32768
 62
   257
 93
        1
300
CONTENTFORMAT
  1
CONTENTFORMAT_BEGIN
 90
        0
 91
        0
 92
      512
 93
        0
300

 40
0.0
140
1.0
 94
        5
 62
     0
340
55
144
0.25
309
CONTENTFORMAT_END
171
     1
301
MARGIN
  1
CELLMARGIN_BEGIN
 40
0.06
 40
0.06
 40
0.06
 40
0.06
 40
0.18
 40
0.18
309
CELLMARGIN_END
 94
        6
 95
        1
302
GRIDFORMAT
  1
GRIDFORMAT_BEGIN
 90
        0
 91
        1
 62
     0
 92
       -2
340
0
 93
        0
 40
0.045
309
GRIDFORMAT_END
 95
        2
302
GRIDFORMAT
  1
GRIDFORMAT_BEGIN
 90
        0
 91
        1
 62
     0
 92
       -2
340
0
 93
        0
 40
0.045
309
GRIDFORMAT_END
 95
        4
302
GRIDFORMAT
  1
GRIDFORMAT_BEGIN
 90
        0
 91
        1
 62
     0
 92
       -2
340
0
 93
        0
 40
0.045
309
GRIDFORMAT_END
 95
        8
302
GRIDFORMAT
  1
GRIDFORMAT_BEGIN
 90
        0
 91
        1
 62
     0
 92
       -2
340
0
 93
        0
 40
0.045
309
GRIDFORMAT_END
 95
       16
302
GRIDFORMAT
  1
GRIDFORMAT_BEGIN
 90
        0
 91
        1
 62
     0
 92
       -2
340
0
 93
        0
 40
0.045
309
GRIDFORMAT_END
 95
       32
302
GRIDFORMAT
  1
GRIDFORMAT_BEGIN
 90
        0
 91
        1
 62
     0
 92
       -2
340
0
 93
        0
 40
0.045
309
GRIDFORMAT_END
309
TABLEFORMAT_END
  1
CELLSTYLE_BEGIN
 90
        1
 91
        1
300
_TITLE
309
CELLSTYLE_END
300
CELLSTYLE
  1
TABLEFORMAT_BEGIN
 90
        5
170
     1
 91
        0
 92
        0
 62
   257
 93
        1
300
CONTENTFORMAT
  1
CONTENTFORMAT_BEGIN
 90
        0
 91
        0
 92
      512
 93
        0
300

 40
0.0
140
1.0
 94
        5
 62
     0
340
55
144
0.18
309
CONTENTFORMAT_END
171
     1
301
MARGIN
  1
CELLMARGIN_BEGIN
 40
0.06
 40
0.06
 40
0.06
 40
0.06
 40
0.18
 40
0.18
309
CELLMARGIN_END
 94
        6
 95
        1
302
GRIDFORMAT
  1
GRIDFORMAT_BEGIN
 90
        0
 91
        1
 62
     0
 92
       -2
340
0
 93
        0
 40
0.045
309
GRIDFORMAT_END
 95
        2
302
GRIDFORMAT
  1
GRIDFORMAT_BEGIN
 90
        0
 91
        1
 62
     0
 92
       -2
340
0
 93
        0
 40
0.045
309
GRIDFORMAT_END
 95
        4
302
GRIDFORMAT
  1
GRIDFORMAT_BEGIN
 90
        0
 91
        1
 62
     0
 92
       -2
340
0
 93
        0
 40
0.045
309
GRIDFORMAT_END
 95
        8
302
GRIDFORMAT
  1
GRIDFORMAT_BEGIN
 90
        0
 91
        1
 62
     0
 92
       -2
340
0
 93
        0
 40
0.045
309
GRIDFORMAT_END
 95
       16
302
GRIDFORMAT
  1
GRIDFORMAT_BEGIN
 90
        0
 91
        1
 62
     0
 92
       -2
340
0
 93
        0
 40
0.045
309
GRIDFORMAT_END
 95
       32
302
GRIDFORMAT
  1
GRIDFORMAT_BEGIN
 90
        0
 91
        1
 62
     0
 92
       -2
340
0
 93
        0
 40
0.045
309
GRIDFORMAT_END
309
TABLEFORMAT_END
  1
CELLSTYLE_BEGIN
 90
        2
 91
        1
300
_HEADER
309
CELLSTYLE_END
300
CELLSTYLE
  1
TABLEFORMAT_BEGIN
 90
        5
170
     1
 91
        0
 92
        0
 62
   257
 93
        1
300
CONTENTFORMAT
  1
CONTENTFORMAT_BEGIN
 90
        0
 91
        0
 92
      512
 93
        0
300

 40
0.0
140
1.0
 94
        2
 62
     0
340
55
144
0.18
309
CONTENTFORMAT_END
171
     1
301
MARGIN
  1
CELLMARGIN_BEGIN
 40
0.06
 40
0.06
 40
0.06
 40
0.06
 40
0.18
 40
0.18
309
CELLMARGIN_END
 94
        6
 95
        1
302
GRIDFORMAT
  1
GRIDFORMAT_BEGIN
 90
        0
 91
        1
 62
     0
 92
       -2
340
0
 93
        0
 40
0.045
309
GRIDFORMAT_END
 95
        2
302
GRIDFORMAT
  1
GRIDFORMAT_BEGIN
 90
        0
 91
        1
 62
     0
 92
       -2
340
0
 93
        0
 40
0.045
309
GRIDFORMAT_END
 95
        4
302
GRIDFORMAT
  1
GRIDFORMAT_BEGIN
 90
        0
 91
        1
 62
     0
 92
       -2
340
0
 93
        0
 40
0.045
309
GRIDFORMAT_END
 95
        8
302
GRIDFORMAT
  1
GRIDFORMAT_BEGIN
 90
        0
 91
        1
 62
     0
 92
       -2
340
0
 93
        0
 40
0.045
309
GRIDFORMAT_END
 95
       16
302
GRIDFORMAT
  1
GRIDFORMAT_BEGIN
 90
        0
 91
        1
 62
     0
 92
       -2
340
0
 93
        0
 40
0.045
309
GRIDFORMAT_END
 95
       32
302
GRIDFORMAT
  1
GRIDFORMAT_BEGIN
 90
        0
 91
        1
 62
     0
 92
       -2
340
0
 93
        0
 40
0.045
309
GRIDFORMAT_END
309
TABLEFORMAT_END
  1
CELLSTYLE_BEGIN
 90
        3
 91
        2
300
_DATA
309
CELLSTYLE_END
  0
XRECORD
  5
22FF75
102
{ACAD_REACTORS
330
21D4C8
102
}
330
21D4C8
100
AcDbXrecord
280
     1
102
ACAD_ROUNDTRIP_PRE2007_TABLESTYLE
 90
      512
 91
        0
  1

 92
      512
 93
        0
  2

 94
      512
 95
        0
  3

  0
XRECORD
  5
22FF50
102
{ACAD_REACTORS
330
22FF4F
102
}
330
22FF4F
100
AcDbXrecord
280
     1
102
RTVSPropertyOp0
 70
     1
102
RTVSPropertyOp1
 70
     1
102
RTVSPropertyOp2
 70
     1
102
RTVSPropertyOp3
 70
     1
102
RTVSPropertyOp4
 70
     1
102
RTVSPropertyOp5
 70
     1
102
RTVSPropertyOp6
 70
     1
102
RTVSPropertyOp7
 70
     1
102
RTVSPropertyOp8
 70
     1
102
RTVSPropertyOp9
 70
     1
102
RTVSPropertyOp10
 70
     1
102
RTVSPropertyOp11
 70
     1
102
RTVSPropertyOp12
 70
     1
102
RTVSPropertyOp13
 70
     1
102
RTVSPropertyOp14
 70
     1
102
RTVSPropertyOp15
 70
     1
102
RTVSPropertyOp16
 70
     1
102
RTVSPropertyOp17
 70
     1
102
RTVSPropertyOp18
 70
     1
102
RTVSPropertyOp19
 70
     1
102
RTVSPropertyOp20
 70
     1
102
RTVSPropertyOp21
 70
     1
102
RTVSPropertyOp22
 70
     1
102
RTVSPropertyOp23
 70
     1
102
RTVSPropertyOp24
 70
     1
102
RTVSPropertyOp25
 70
     1
102
RTVSPropertyOp26
 70
     1
102
RTVSPropertyOp27
 70
     1
102
RTVSPropertyOp28
 70
     1
102
RTVSPropertyOp29
 70
     1
102
RTVSPropertyOp30
 70
     1
102
RTVSPropertyOp31
 70
     1
102
RTVSPropertyOp32
 70
     1
  0
XRECORD
  5
22FF7C
102
{ACAD_REACTORS
330
22FF7B
102
}
330
22FF7B
100
AcDbXrecord
280
     1
102
RTVSPropertyOp0
 70
     1
102
RTVSPropertyOp1
 70
     1
102
RTVSPropertyOp2
 70
     1
102
RTVSPropertyOp3
 70
     1
102
RTVSPropertyOp4
 70
     1
102
RTVSPropertyOp5
 70
     1
102
RTVSPropertyOp6
 70
     1
102
RTVSPropertyOp7
 70
     1
102
RTVSPropertyOp8
 70
     1
102
RTVSPropertyOp9
 70
     1
102
RTVSPropertyOp10
 70
     1
102
RTVSPropertyOp11
 70
     1
102
RTVSPropertyOp12
 70
     1
102
RTVSPropertyOp13
 70
     1
102
RTVSPropertyOp14
 70
     1
102
RTVSPropertyOp15
 70
     1
102
RTVSPropertyOp16
 70
     1
102
RTVSPropertyOp17
 70
     1
102
RTVSPropertyOp18
 70
     1
102
RTVSPropertyOp19
 70
     1
102
RTVSPropertyOp20
 70
     1
102
RTVSPropertyOp21
 70
     1
102
RTVSPropertyOp22
 70
     1
102
RTVSPropertyOp23
 70
     1
102
RTVSPropertyOp24
 70
     1
102
RTVSPropertyOp25
 70
     1
102
RTVSPropertyOp26
 70
     1
102
RTVSPropertyOp27
 70
     1
102
RTVSPropertyOp28
 70
     1
102
RTVSPropertyOp29
 70
     1
102
RTVSPropertyOp30
 70
     1
102
RTVSPropertyOp31
 70
     1
102
RTVSPropertyOp32
 70
     1
  0
XRECORD
  5
22FF4E
102
{ACAD_REACTORS
330
22FF4D
102
}
330
22FF4D
100
AcDbXrecord
280
     1
102
RTVSPropertyOp0
 70
     1
102
RTVSPropertyOp1
 70
     1
102
RTVSPropertyOp2
 70
     1
102
RTVSPropertyOp3
 70
     1
102
RTVSPropertyOp4
 70
     1
102
RTVSPropertyOp5
 70
     1
102
RTVSPropertyOp6
 70
     1
102
RTVSPropertyOp7
 70
     1
102
RTVSPropertyOp8
 70
     1
102
RTVSPropertyOp9
 70
     1
102
RTVSPropertyOp10
 70
     1
102
RTVSPropertyOp11
 70
     1
102
RTVSPropertyOp12
 70
     1
102
RTVSPropertyOp13
 70
     1
102
RTVSPropertyOp14
 70
     1
102
RTVSPropertyOp15
 70
     1
102
RTVSPropertyOp16
 70
     1
102
RTVSPropertyOp17
 70
     1
102
RTVSPropertyOp18
 70
     1
102
RTVSPropertyOp19
 70
     1
102
RTVSPropertyOp20
 70
     1
102
RTVSPropertyOp21
 70
     1
102
RTVSPropertyOp22
 70
     1
102
RTVSPropertyOp23
 70
     1
102
RTVSPropertyOp24
 70
     1
102
RTVSPropertyOp25
 70
     1
102
RTVSPropertyOp26
 70
     1
102
RTVSPropertyOp27
 70
     1
102
RTVSPropertyOp28
 70
     1
102
RTVSPropertyOp29
 70
     1
102
RTVSPropertyOp30
 70
     1
102
RTVSPropertyOp31
 70
     1
102
RTVSPropertyOp32
 70
     1
  0
XRECORD
  5
22FF5C
102
{ACAD_REACTORS
330
22FF5B
102
}
330
22FF5B
100
AcDbXrecord
280
     1
102
RTVSPropertyOp0
 70
     1
102
RTVSPropertyOp1
 70
     1
102
RTVSPropertyOp2
 70
     1
102
RTVSPropertyOp3
 70
     1
102
RTVSPropertyOp4
 70
     1
102
RTVSPropertyOp5
 70
     1
102
RTVSPropertyOp6
 70
     1
102
RTVSPropertyOp7
 70
     1
102
RTVSPropertyOp8
 70
     1
102
RTVSPropertyOp9
 70
     1
102
RTVSPropertyOp10
 70
     1
102
RTVSPropertyOp11
 70
     1
102
RTVSPropertyOp12
 70
     1
102
RTVSPropertyOp13
 70
     1
102
RTVSPropertyOp14
 70
     1
102
RTVSPropertyOp15
 70
     1
102
RTVSPropertyOp16
 70
     1
102
RTVSPropertyOp17
 70
     1
102
RTVSPropertyOp18
 70
     1
102
RTVSPropertyOp19
 70
     1
102
RTVSPropertyOp20
 70
     1
102
RTVSPropertyOp21
 70
     1
102
RTVSPropertyOp22
 70
     1
102
RTVSPropertyOp23
 70
     1
102
RTVSPropertyOp24
 70
     1
102
RTVSPropertyOp25
 70
     1
102
RTVSPropertyOp26
 70
     1
102
RTVSPropertyOp27
 70
     1
102
RTVSPropertyOp28
 70
     1
102
RTVSPropertyOp29
 70
     1
102
RTVSPropertyOp30
 70
     1
102
RTVSPropertyOp31
 70
     1
102
RTVSPropertyOp32
 70
     1
  0
XRECORD
  5
22FF64
102
{ACAD_REACTORS
330
22FF63
102
}
330
22FF63
100
AcDbXrecord
280
     1
102
RTVSPropertyOp0
 70
     1
102
RTVSPropertyOp1
 70
     1
102
RTVSPropertyOp2
 70
     1
102
RTVSPropertyOp3
 70
     1
102
RTVSPropertyOp4
 70
     1
102
RTVSPropertyOp5
 70
     1
102
RTVSPropertyOp6
 70
     1
102
RTVSPropertyOp7
 70
     1
102
RTVSPropertyOp8
 70
     1
102
RTVSPropertyOp9
 70
     1
102
RTVSPropertyOp10
 70
     1
102
RTVSPropertyOp11
 70
     1
102
RTVSPropertyOp12
 70
     1
102
RTVSPropertyOp13
 70
     1
102
RTVSPropertyOp14
 70
     1
102
RTVSPropertyOp15
 70
     1
102
RTVSPropertyOp16
 70
     1
102
RTVSPropertyOp17
 70
     1
102
RTVSPropertyOp18
 70
     1
102
RTVSPropertyOp19
 70
     1
102
RTVSPropertyOp20
 70
     1
102
RTVSPropertyOp21
 70
     1
102
RTVSPropertyOp22
 70
     1
102
RTVSPropertyOp23
 70
     1
102
RTVSPropertyOp24
 70
     1
102
RTVSPropertyOp25
 70
     1
102
RTVSPropertyOp26
 70
     1
102
RTVSPropertyOp27
 70
     1
102
RTVSPropertyOp28
 70
     1
102
RTVSPropertyOp29
 70
     1
102
RTVSPropertyOp30
 70
     1
102
RTVSPropertyOp31
 70
     1
102
RTVSPropertyOp32
 70
     1
  0
XRECORD
  5
22FF56
102
{ACAD_REACTORS
330
22FF55
102
}
330
22FF55
100
AcDbXrecord
280
     1
102
RTVSPropertyOp0
 70
     1
102
RTVSPropertyOp1
 70
     1
102
RTVSPropertyOp2
 70
     1
102
RTVSPropertyOp3
 70
     1
102
RTVSPropertyOp4
 70
     1
102
RTVSPropertyOp5
 70
     1
102
RTVSPropertyOp6
 70
     1
102
RTVSPropertyOp7
 70
     1
102
RTVSPropertyOp8
 70
     1
102
RTVSPropertyOp9
 70
     1
102
RTVSPropertyOp10
 70
     1
102
RTVSPropertyOp11
 70
     1
102
RTVSPropertyOp12
 70
     1
102
RTVSPropertyOp13
 70
     1
102
RTVSPropertyOp14
 70
     1
102
RTVSPropertyOp15
 70
     1
102
RTVSPropertyOp16
 70
     1
102
RTVSPropertyOp17
 70
     1
102
RTVSPropertyOp18
 70
     1
102
RTVSPropertyOp19
 70
     1
102
RTVSPropertyOp20
 70
     1
102
RTVSPropertyOp21
 70
     1
102
RTVSPropertyOp22
 70
     1
102
RTVSPropertyOp23
 70
     1
102
RTVSPropertyOp24
 70
     1
102
RTVSPropertyOp25
 70
     1
102
RTVSPropertyOp26
 70
     1
102
RTVSPropertyOp27
 70
     1
102
RTVSPropertyOp28
 70
     1
102
RTVSPropertyOp29
 70
     1
102
RTVSPropertyOp30
 70
     1
102
RTVSPropertyOp31
 70
     1
102
RTVSPropertyOp32
 70
     1
  0
XRECORD
  5
22FF5A
102
{ACAD_REACTORS
330
22FF59
102
}
330
22FF59
100
AcDbXrecord
280
     1
102
RTVSPropertyOp0
 70
     1
102
RTVSPropertyOp1
 70
     1
102
RTVSPropertyOp2
 70
     1
102
RTVSPropertyOp3
 70
     1
102
RTVSPropertyOp4
 70
     1
102
RTVSPropertyOp5
 70
     1
102
RTVSPropertyOp6
 70
     1
102
RTVSPropertyOp7
 70
     1
102
RTVSPropertyOp8
 70
     1
102
RTVSPropertyOp9
 70
     1
102
RTVSPropertyOp10
 70
     1
102
RTVSPropertyOp11
 70
     1
102
RTVSPropertyOp12
 70
     1
102
RTVSPropertyOp13
 70
     1
102
RTVSPropertyOp14
 70
     1
102
RTVSPropertyOp15
 70
     1
102
RTVSPropertyOp16
 70
     1
102
RTVSPropertyOp17
 70
     1
102
RTVSPropertyOp18
 70
     1
102
RTVSPropertyOp19
 70
     1
102
RTVSPropertyOp20
 70
     1
102
RTVSPropertyOp21
 70
     1
102
RTVSPropertyOp22
 70
     1
102
RTVSPropertyOp23
 70
     1
102
RTVSPropertyOp24
 70
     1
102
RTVSPropertyOp25
 70
     1
102
RTVSPropertyOp26
 70
     1
102
RTVSPropertyOp27
 70
     1
102
RTVSPropertyOp28
 70
     1
102
RTVSPropertyOp29
 70
     1
102
RTVSPropertyOp30
 70
     1
102
RTVSPropertyOp31
 70
     1
102
RTVSPropertyOp32
 70
     1
  0
XRECORD
  5
22FF74
102
{ACAD_REACTORS
330
22FF73
102
}
330
22FF73
100
AcDbXrecord
280
     1
102
RTVSPropertyOp0
 70
     0
102
RTVSPropertyOp1
 70
     0
102
RTVSPropertyOp2
 70
     0
102
RTVSPropertyOp3
 70
     0
102
RTVSPropertyOp4
 70
     0
102
RTVSPropertyOp5
 70
     0
102
RTVSPropertyOp6
 70
     0
102
RTVSPropertyOp7
 70
     0
102
RTVSPropertyOp8
 70
     0
102
RTVSPropertyOp9
 70
     0
102
RTVSPropertyOp10
 70
     0
102
RTVSPropertyOp11
 70
     0
102
RTVSPropertyOp12
 70
     0
102
RTVSPropertyOp13
 70
     0
102
RTVSPropertyOp14
 70
     2
102
RTVSPropertyOp15
 70
     0
102
RTVSPropertyOp16
 70
     0
102
RTVSPropertyOp17
 70
     0
102
RTVSPropertyOp18
 70
     0
102
RTVSPropertyOp19
 70
     0
102
RTVSPropertyOp20
 70
     0
102
RTVSPropertyOp21
 70
     0
102
RTVSPropertyOp22
 70
     0
102
RTVSPropertyOp23
 70
     0
102
RTVSPropertyOp24
 70
     0
102
RTVSPropertyOp25
 70
     0
102
RTVSPropertyOp26
 70
     0
102
RTVSPropertyOp27
 70
     0
102
RTVSPropertyOp28
 70
     1
102
RTVSPropertyOp29
 70
     1
102
RTVSPropertyOp30
 70
     1
102
RTVSPropertyOp31
 70
     1
102
RTVSPropertyOp32
 70
     1
  0
XRECORD
  5
22FF62
102
{ACAD_REACTORS
330
22FF61
102
}
330
22FF61
100
AcDbXrecord
280
     1
102
RTVSPropertyOp0
 70
     1
102
RTVSPropertyOp1
 70
     1
102
RTVSPropertyOp2
 70
     1
102
RTVSPropertyOp3
 70
     1
102
RTVSPropertyOp4
 70
     1
102
RTVSPropertyOp5
 70
     1
102
RTVSPropertyOp6
 70
     1
102
RTVSPropertyOp7
 70
     1
102
RTVSPropertyOp8
 70
     1
102
RTVSPropertyOp9
 70
     1
102
RTVSPropertyOp10
 70
     1
102
RTVSPropertyOp11
 70
     1
102
RTVSPropertyOp12
 70
     1
102
RTVSPropertyOp13
 70
     1
102
RTVSPropertyOp14
 70
     1
102
RTVSPropertyOp15
 70
     1
102
RTVSPropertyOp16
 70
     1
102
RTVSPropertyOp17
 70
     1
102
RTVSPropertyOp18
 70
     1
102
RTVSPropertyOp19
 70
     1
102
RTVSPropertyOp20
 70
     1
102
RTVSPropertyOp21
 70
     1
102
RTVSPropertyOp22
 70
     1
102
RTVSPropertyOp23
 70
     1
102
RTVSPropertyOp24
 70
     1
102
RTVSPropertyOp25
 70
     1
102
RTVSPropertyOp26
 70
     1
102
RTVSPropertyOp27
 70
     1
102
RTVSPropertyOp28
 70
     1
102
RTVSPropertyOp29
 70
     1
102
RTVSPropertyOp30
 70
     1
102
RTVSPropertyOp31
 70
     1
102
RTVSPropertyOp32
 70
     1
  0
XRECORD
  5
22FF46
102
{ACAD_REACTORS
330
22FF45
102
}
330
22FF45
100
AcDbXrecord
280
     1
102
RTVSPropertyOp0
 70
     1
102
RTVSPropertyOp1
 70
     1
102
RTVSPropertyOp2
 70
     1
102
RTVSPropertyOp3
 70
     1
102
RTVSPropertyOp4
 70
     1
102
RTVSPropertyOp5
 70
     1
102
RTVSPropertyOp6
 70
     1
102
RTVSPropertyOp7
 70
     1
102
RTVSPropertyOp8
 70
     1
102
RTVSPropertyOp9
 70
     1
102
RTVSPropertyOp10
 70
     1
102
RTVSPropertyOp11
 70
     1
102
RTVSPropertyOp12
 70
     1
102
RTVSPropertyOp13
 70
     1
102
RTVSPropertyOp14
 70
     1
102
RTVSPropertyOp15
 70
     1
102
RTVSPropertyOp16
 70
     1
102
RTVSPropertyOp17
 70
     1
102
RTVSPropertyOp18
 70
     1
102
RTVSPropertyOp19
 70
     1
102
RTVSPropertyOp20
 70
     1
102
RTVSPropertyOp21
 70
     1
102
RTVSPropertyOp22
 70
     1
102
RTVSPropertyOp23
 70
     1
102
RTVSPropertyOp24
 70
     1
102
RTVSPropertyOp25
 70
     1
102
RTVSPropertyOp26
 70
     1
102
RTVSPropertyOp27
 70
     1
102
RTVSPropertyOp28
 70
     1
102
RTVSPropertyOp29
 70
     1
102
RTVSPropertyOp30
 70
     1
102
RTVSPropertyOp31
 70
     1
102
RTVSPropertyOp32
 70
     1
  0
XRECORD
  5
22FF48
102
{ACAD_REACTORS
330
22FF47
102
}
330
22FF47
100
AcDbXrecord
280
     1
102
RTVSPropertyOp0
 70
     1
102
RTVSPropertyOp1
 70
     1
102
RTVSPropertyOp2
 70
     1
102
RTVSPropertyOp3
 70
     1
102
RTVSPropertyOp4
 70
     1
102
RTVSPropertyOp5
 70
     1
102
RTVSPropertyOp6
 70
     1
102
RTVSPropertyOp7
 70
     1
102
RTVSPropertyOp8
 70
     1
102
RTVSPropertyOp9
 70
     1
102
RTVSPropertyOp10
 70
     1
102
RTVSPropertyOp11
 70
     1
102
RTVSPropertyOp12
 70
     1
102
RTVSPropertyOp13
 70
     1
102
RTVSPropertyOp14
 70
     1
102
RTVSPropertyOp15
 70
     1
102
RTVSPropertyOp16
 70
     1
102
RTVSPropertyOp17
 70
     1
102
RTVSPropertyOp18
 70
     1
102
RTVSPropertyOp19
 70
     1
102
RTVSPropertyOp20
 70
     1
102
RTVSPropertyOp21
 70
     1
102
RTVSPropertyOp22
 70
     1
102
RTVSPropertyOp23
 70
     1
102
RTVSPropertyOp24
 70
     1
102
RTVSPropertyOp25
 70
     1
102
RTVSPropertyOp26
 70
     1
102
RTVSPropertyOp27
 70
     1
102
RTVSPropertyOp28
 70
     1
102
RTVSPropertyOp29
 70
     1
102
RTVSPropertyOp30
 70
     1
102
RTVSPropertyOp31
 70
     1
102
RTVSPropertyOp32
 70
     1
  0
XRECORD
  5
22FF4A
102
{ACAD_REACTORS
330
22FF49
102
}
330
22FF49
100
AcDbXrecord
280
     1
102
RTVSPropertyOp0
 70
     1
102
RTVSPropertyOp1
 70
     1
102
RTVSPropertyOp2
 70
     1
102
RTVSPropertyOp3
 70
     1
102
RTVSPropertyOp4
 70
     1
102
RTVSPropertyOp5
 70
     1
102
RTVSPropertyOp6
 70
     1
102
RTVSPropertyOp7
 70
     1
102
RTVSPropertyOp8
 70
     1
102
RTVSPropertyOp9
 70
     1
102
RTVSPropertyOp10
 70
     1
102
RTVSPropertyOp11
 70
     1
102
RTVSPropertyOp12
 70
     1
102
RTVSPropertyOp13
 70
     1
102
RTVSPropertyOp14
 70
     1
102
RTVSPropertyOp15
 70
     1
102
RTVSPropertyOp16
 70
     1
102
RTVSPropertyOp17
 70
     1
102
RTVSPropertyOp18
 70
     1
102
RTVSPropertyOp19
 70
     1
102
RTVSPropertyOp20
 70
     1
102
RTVSPropertyOp21
 70
     1
102
RTVSPropertyOp22
 70
     1
102
RTVSPropertyOp23
 70
     1
102
RTVSPropertyOp24
 70
     1
102
RTVSPropertyOp25
 70
     1
102
RTVSPropertyOp26
 70
     1
102
RTVSPropertyOp27
 70
     1
102
RTVSPropertyOp28
 70
     1
102
RTVSPropertyOp29
 70
     1
102
RTVSPropertyOp30
 70
     1
102
RTVSPropertyOp31
 70
     1
102
RTVSPropertyOp32
 70
     1
  0
XRECORD
  5
22FF4C
102
{ACAD_REACTORS
330
22FF4B
102
}
330
22FF4B
100
AcDbXrecord
280
     1
102
RTVSPropertyOp0
 70
     1
102
RTVSPropertyOp1
 70
     1
102
RTVSPropertyOp2
 70
     1
102
RTVSPropertyOp3
 70
     1
102
RTVSPropertyOp4
 70
     1
102
RTVSPropertyOp5
 70
     1
102
RTVSPropertyOp6
 70
     1
102
RTVSPropertyOp7
 70
     1
102
RTVSPropertyOp8
 70
     1
102
RTVSPropertyOp9
 70
     1
102
RTVSPropertyOp10
 70
     1
102
RTVSPropertyOp11
 70
     1
102
RTVSPropertyOp12
 70
     1
102
RTVSPropertyOp13
 70
     1
102
RTVSPropertyOp14
 70
     1
102
RTVSPropertyOp15
 70
     1
102
RTVSPropertyOp16
 70
     1
102
RTVSPropertyOp17
 70
     1
102
RTVSPropertyOp18
 70
     1
102
RTVSPropertyOp19
 70
     1
102
RTVSPropertyOp20
 70
     1
102
RTVSPropertyOp21
 70
     1
102
RTVSPropertyOp22
 70
     1
102
RTVSPropertyOp23
 70
     1
102
RTVSPropertyOp24
 70
     1
102
RTVSPropertyOp25
 70
     1
102
RTVSPropertyOp26
 70
     1
102
RTVSPropertyOp27
 70
     1
102
RTVSPropertyOp28
 70
     1
102
RTVSPropertyOp29
 70
     1
102
RTVSPropertyOp30
 70
     1
102
RTVSPropertyOp31
 70
     1
102
RTVSPropertyOp32
 70
     1
  0
XRECORD
  5
22FF54
102
{ACAD_REACTORS
330
22FF53
102
}
330
22FF53
100
AcDbXrecord
280
     1
102
RTVSPropertyOp0
 70
     1
102
RTVSPropertyOp1
 70
     1
102
RTVSPropertyOp2
 70
     1
102
RTVSPropertyOp3
 70
     1
102
RTVSPropertyOp4
 70
     1
102
RTVSPropertyOp5
 70
     1
102
RTVSPropertyOp6
 70
     1
102
RTVSPropertyOp7
 70
     1
102
RTVSPropertyOp8
 70
     1
102
RTVSPropertyOp9
 70
     1
102
RTVSPropertyOp10
 70
     1
102
RTVSPropertyOp11
 70
     1
102
RTVSPropertyOp12
 70
     1
102
RTVSPropertyOp13
 70
     1
102
RTVSPropertyOp14
 70
     1
102
RTVSPropertyOp15
 70
     1
102
RTVSPropertyOp16
 70
     1
102
RTVSPropertyOp17
 70
     1
102
RTVSPropertyOp18
 70
     1
102
RTVSPropertyOp19
 70
     1
102
RTVSPropertyOp20
 70
     1
102
RTVSPropertyOp21
 70
     1
102
RTVSPropertyOp22
 70
     1
102
RTVSPropertyOp23
 70
     1
102
RTVSPropertyOp24
 70
     1
102
RTVSPropertyOp25
 70
     1
102
RTVSPropertyOp26
 70
     1
102
RTVSPropertyOp27
 70
     1
102
RTVSPropertyOp28
 70
     1
102
RTVSPropertyOp29
 70
     1
102
RTVSPropertyOp30
 70
     1
102
RTVSPropertyOp31
 70
     1
102
RTVSPropertyOp32
 70
     1
  0
XRECORD
  5
22FF70
102
{ACAD_REACTORS
330
22FF6F
102
}
330
22FF6F
100
AcDbXrecord
280
     1
102
RTVSPropertyOp0
 70
     0
102
RTVSPropertyOp1
 70
     0
102
RTVSPropertyOp2
 70
     0
102
RTVSPropertyOp3
 70
     0
102
RTVSPropertyOp4
 70
     0
102
RTVSPropertyOp5
 70
     0
102
RTVSPropertyOp6
 70
     0
102
RTVSPropertyOp7
 70
     0
102
RTVSPropertyOp8
 70
     0
102
RTVSPropertyOp9
 70
     0
102
RTVSPropertyOp10
 70
     0
102
RTVSPropertyOp11
 70
     0
102
RTVSPropertyOp12
 70
     0
102
RTVSPropertyOp13
 70
     0
102
RTVSPropertyOp14
 70
     2
102
RTVSPropertyOp15
 70
     0
102
RTVSPropertyOp16
 70
     0
102
RTVSPropertyOp17
 70
     0
102
RTVSPropertyOp18
 70
     0
102
RTVSPropertyOp19
 70
     0
102
RTVSPropertyOp20
 70
     0
102
RTVSPropertyOp21
 70
     0
102
RTVSPropertyOp22
 70
     0
102
RTVSPropertyOp23
 70
     0
102
RTVSPropertyOp24
 70
     0
102
RTVSPropertyOp25
 70
     0
102
RTVSPropertyOp26
 70
     0
102
RTVSPropertyOp27
 70
     0
102
RTVSPropertyOp28
 70
     1
102
RTVSPropertyOp29
 70
     1
102
RTVSPropertyOp30
 70
     1
102
RTVSPropertyOp31
 70
     1
102
RTVSPropertyOp32
 70
     1
  0
XRECORD
  5
22FF60
102
{ACAD_REACTORS
330
22FF5F
102
}
330
22FF5F
100
AcDbXrecord
280
     1
102
RTVSPropertyOp0
 70
     1
102
RTVSPropertyOp1
 70
     1
102
RTVSPropertyOp2
 70
     1
102
RTVSPropertyOp3
 70
     1
102
RTVSPropertyOp4
 70
     1
102
RTVSPropertyOp5
 70
     1
102
RTVSPropertyOp6
 70
     1
102
RTVSPropertyOp7
 70
     1
102
RTVSPropertyOp8
 70
     1
102
RTVSPropertyOp9
 70
     1
102
RTVSPropertyOp10
 70
     1
102
RTVSPropertyOp11
 70
     1
102
RTVSPropertyOp12
 70
     1
102
RTVSPropertyOp13
 70
     1
102
RTVSPropertyOp14
 70
     1
102
RTVSPropertyOp15
 70
     1
102
RTVSPropertyOp16
 70
     1
102
RTVSPropertyOp17
 70
     1
102
RTVSPropertyOp18
 70
     1
102
RTVSPropertyOp19
 70
     1
102
RTVSPropertyOp20
 70
     1
102
RTVSPropertyOp21
 70
     1
102
RTVSPropertyOp22
 70
     1
102
RTVSPropertyOp23
 70
     1
102
RTVSPropertyOp24
 70
     1
102
RTVSPropertyOp25
 70
     1
102
RTVSPropertyOp26
 70
     1
102
RTVSPropertyOp27
 70
     1
102
RTVSPropertyOp28
 70
     1
102
RTVSPropertyOp29
 70
     1
102
RTVSPropertyOp30
 70
     1
102
RTVSPropertyOp31
 70
     1
102
RTVSPropertyOp32
 70
     1
  0
XRECORD
  5
22FF72
102
{ACAD_REACTORS
330
22FF71
102
}
330
22FF71
100
AcDbXrecord
280
     1
102
RTVSPropertyOp0
 70
     0
102
RTVSPropertyOp1
 70
     0
102
RTVSPropertyOp2
 70
     0
102
RTVSPropertyOp3
 70
     0
102
RTVSPropertyOp4
 70
     0
102
RTVSPropertyOp5
 70
     0
102
RTVSPropertyOp6
 70
     0
102
RTVSPropertyOp7
 70
     0
102
RTVSPropertyOp8
 70
     0
102
RTVSPropertyOp9
 70
     0
102
RTVSPropertyOp10
 70
     0
102
RTVSPropertyOp11
 70
     0
102
RTVSPropertyOp12
 70
     0
102
RTVSPropertyOp13
 70
     0
102
RTVSPropertyOp14
 70
     2
102
RTVSPropertyOp15
 70
     0
102
RTVSPropertyOp16
 70
     0
102
RTVSPropertyOp17
 70
     0
102
RTVSPropertyOp18
 70
     0
102
RTVSPropertyOp19
 70
     0
102
RTVSPropertyOp20
 70
     0
102
RTVSPropertyOp21
 70
     0
102
RTVSPropertyOp22
 70
     0
102
RTVSPropertyOp23
 70
     0
102
RTVSPropertyOp24
 70
     0
102
RTVSPropertyOp25
 70
     0
102
RTVSPropertyOp26
 70
     0
102
RTVSPropertyOp27
 70
     0
102
RTVSPropertyOp28
 70
     1
102
RTVSPropertyOp29
 70
     1
102
RTVSPropertyOp30
 70
     1
102
RTVSPropertyOp31
 70
     1
102
RTVSPropertyOp32
 70
     1
  0
XRECORD
  5
22FF58
102
{ACAD_REACTORS
330
22FF57
102
}
330
22FF57
100
AcDbXrecord
280
     1
102
RTVSPropertyOp0
 70
     1
102
RTVSPropertyOp1
 70
     1
102
RTVSPropertyOp2
 70
     1
102
RTVSPropertyOp3
 70
     1
102
RTVSPropertyOp4
 70
     1
102
RTVSPropertyOp5
 70
     1
102
RTVSPropertyOp6
 70
     1
102
RTVSPropertyOp7
 70
     1
102
RTVSPropertyOp8
 70
     1
102
RTVSPropertyOp9
 70
     1
102
RTVSPropertyOp10
 70
     1
102
RTVSPropertyOp11
 70
     1
102
RTVSPropertyOp12
 70
     1
102
RTVSPropertyOp13
 70
     1
102
RTVSPropertyOp14
 70
     1
102
RTVSPropertyOp15
 70
     1
102
RTVSPropertyOp16
 70
     1
102
RTVSPropertyOp17
 70
     1
102
RTVSPropertyOp18
 70
     1
102
RTVSPropertyOp19
 70
     1
102
RTVSPropertyOp20
 70
     1
102
RTVSPropertyOp21
 70
     1
102
RTVSPropertyOp22
 70
     1
102
RTVSPropertyOp23
 70
     1
102
RTVSPropertyOp24
 70
     1
102
RTVSPropertyOp25
 70
     1
102
RTVSPropertyOp26
 70
     1
102
RTVSPropertyOp27
 70
     1
102
RTVSPropertyOp28
 70
     1
102
RTVSPropertyOp29
 70
     1
102
RTVSPropertyOp30
 70
     1
102
RTVSPropertyOp31
 70
     1
102
RTVSPropertyOp32
 70
     1
  0
XRECORD
  5
22FF6E
102
{ACAD_REACTORS
330
22FF6D
102
}
330
22FF6D
100
AcDbXrecord
280
     1
102
RTVSPropertyOp0
 70
     1
102
RTVSPropertyOp1
 70
     1
102
RTVSPropertyOp2
 70
     1
102
RTVSPropertyOp3
 70
     1
102
RTVSPropertyOp4
 70
     1
102
RTVSPropertyOp5
 70
     1
102
RTVSPropertyOp6
 70
     1
102
RTVSPropertyOp7
 70
     1
102
RTVSPropertyOp8
 70
     1
102
RTVSPropertyOp9
 70
     1
102
RTVSPropertyOp10
 70
     1
102
RTVSPropertyOp11
 70
     1
102
RTVSPropertyOp12
 70
     1
102
RTVSPropertyOp13
 70
     1
102
RTVSPropertyOp14
 70
     1
102
RTVSPropertyOp15
 70
     1
102
RTVSPropertyOp16
 70
     1
102
RTVSPropertyOp17
 70
     1
102
RTVSPropertyOp18
 70
     1
102
RTVSPropertyOp19
 70
     1
102
RTVSPropertyOp20
 70
     1
102
RTVSPropertyOp21
 70
     1
102
RTVSPropertyOp22
 70
     1
102
RTVSPropertyOp23
 70
     1
102
RTVSPropertyOp24
 70
     1
102
RTVSPropertyOp25
 70
     1
102
RTVSPropertyOp26
 70
     1
102
RTVSPropertyOp27
 70
     1
102
RTVSPropertyOp28
 70
     1
102
RTVSPropertyOp29
 70
     1
102
RTVSPropertyOp30
 70
     1
102
RTVSPropertyOp31
 70
     1
102
RTVSPropertyOp32
 70
     1
  0
XRECORD
  5
22FF6C
102
{ACAD_REACTORS
330
22FF6B
102
}
330
22FF6B
100
AcDbXrecord
280
     1
102
RTVSPropertyOp0
 70
     1
102
RTVSPropertyOp1
 70
     1
102
RTVSPropertyOp2
 70
     1
102
RTVSPropertyOp3
 70
     1
102
RTVSPropertyOp4
 70
     1
102
RTVSPropertyOp5
 70
     1
102
RTVSPropertyOp6
 70
     1
102
RTVSPropertyOp7
 70
     1
102
RTVSPropertyOp8
 70
     1
102
RTVSPropertyOp9
 70
     1
102
RTVSPropertyOp10
 70
     1
102
RTVSPropertyOp11
 70
     1
102
RTVSPropertyOp12
 70
     1
102
RTVSPropertyOp13
 70
     1
102
RTVSPropertyOp14
 70
     1
102
RTVSPropertyOp15
 70
     1
102
RTVSPropertyOp16
 70
     1
102
RTVSPropertyOp17
 70
     1
102
RTVSPropertyOp18
 70
     1
102
RTVSPropertyOp19
 70
     1
102
RTVSPropertyOp20
 70
     1
102
RTVSPropertyOp21
 70
     1
102
RTVSPropertyOp22
 70
     1
102
RTVSPropertyOp23
 70
     1
102
RTVSPropertyOp24
 70
     1
102
RTVSPropertyOp25
 70
     1
102
RTVSPropertyOp26
 70
     1
102
RTVSPropertyOp27
 70
     1
102
RTVSPropertyOp28
 70
     1
102
RTVSPropertyOp29
 70
     1
102
RTVSPropertyOp30
 70
     1
102
RTVSPropertyOp31
 70
     1
102
RTVSPropertyOp32
 70
     1
  0
XRECORD
  5
22FF66
102
{ACAD_REACTORS
330
22FF65
102
}
330
22FF65
100
AcDbXrecord
280
     1
102
RTVSPropertyOp0
 70
     1
102
RTVSPropertyOp1
 70
     1
102
RTVSPropertyOp2
 70
     1
102
RTVSPropertyOp3
 70
     1
102
RTVSPropertyOp4
 70
     1
102
RTVSPropertyOp5
 70
     1
102
RTVSPropertyOp6
 70
     1
102
RTVSPropertyOp7
 70
     1
102
RTVSPropertyOp8
 70
     1
102
RTVSPropertyOp9
 70
     1
102
RTVSPropertyOp10
 70
     1
102
RTVSPropertyOp11
 70
     1
102
RTVSPropertyOp12
 70
     1
102
RTVSPropertyOp13
 70
     1
102
RTVSPropertyOp14
 70
     1
102
RTVSPropertyOp15
 70
     1
102
RTVSPropertyOp16
 70
     1
102
RTVSPropertyOp17
 70
     1
102
RTVSPropertyOp18
 70
     1
102
RTVSPropertyOp19
 70
     1
102
RTVSPropertyOp20
 70
     1
102
RTVSPropertyOp21
 70
     1
102
RTVSPropertyOp22
 70
     1
102
RTVSPropertyOp23
 70
     1
102
RTVSPropertyOp24
 70
     1
102
RTVSPropertyOp25
 70
     1
102
RTVSPropertyOp26
 70
     1
102
RTVSPropertyOp27
 70
     1
102
RTVSPropertyOp28
 70
     1
102
RTVSPropertyOp29
 70
     1
102
RTVSPropertyOp30
 70
     1
102
RTVSPropertyOp31
 70
     1
102
RTVSPropertyOp32
 70
     1
  0
XRECORD
  5
22FF68
102
{ACAD_REACTORS
330
22FF67
102
}
330
22FF67
100
AcDbXrecord
280
     1
102
RTVSPropertyOp0
 70
     1
102
RTVSPropertyOp1
 70
     1
102
RTVSPropertyOp2
 70
     1
102
RTVSPropertyOp3
 70
     1
102
RTVSPropertyOp4
 70
     1
102
RTVSPropertyOp5
 70
     1
102
RTVSPropertyOp6
 70
     1
102
RTVSPropertyOp7
 70
     1
102
RTVSPropertyOp8
 70
     1
102
RTVSPropertyOp9
 70
     1
102
RTVSPropertyOp10
 70
     1
102
RTVSPropertyOp11
 70
     1
102
RTVSPropertyOp12
 70
     1
102
RTVSPropertyOp13
 70
     1
102
RTVSPropertyOp14
 70
     1
102
RTVSPropertyOp15
 70
     1
102
RTVSPropertyOp16
 70
     1
102
RTVSPropertyOp17
 70
     1
102
RTVSPropertyOp18
 70
     1
102
RTVSPropertyOp19
 70
     1
102
RTVSPropertyOp20
 70
     1
102
RTVSPropertyOp21
 70
     1
102
RTVSPropertyOp22
 70
     1
102
RTVSPropertyOp23
 70
     1
102
RTVSPropertyOp24
 70
     1
102
RTVSPropertyOp25
 70
     1
102
RTVSPropertyOp26
 70
     1
102
RTVSPropertyOp27
 70
     1
102
RTVSPropertyOp28
 70
     1
102
RTVSPropertyOp29
 70
     1
102
RTVSPropertyOp30
 70
     1
102
RTVSPropertyOp31
 70
     1
102
RTVSPropertyOp32
 70
     1
  0
XRECORD
  5
22FF5E
102
{ACAD_REACTORS
330
22FF5D
102
}
330
22FF5D
100
AcDbXrecord
280
     1
102
RTVSPropertyOp0
 70
     1
102
RTVSPropertyOp1
 70
     1
102
RTVSPropertyOp2
 70
     1
102
RTVSPropertyOp3
 70
     1
102
RTVSPropertyOp4
 70
     1
102
RTVSPropertyOp5
 70
     1
102
RTVSPropertyOp6
 70
     1
102
RTVSPropertyOp7
 70
     1
102
RTVSPropertyOp8
 70
     1
102
RTVSPropertyOp9
 70
     1
102
RTVSPropertyOp10
 70
     1
102
RTVSPropertyOp11
 70
     1
102
RTVSPropertyOp12
 70
     1
102
RTVSPropertyOp13
 70
     1
102
RTVSPropertyOp14
 70
     1
102
RTVSPropertyOp15
 70
     1
102
RTVSPropertyOp16
 70
     1
102
RTVSPropertyOp17
 70
     1
102
RTVSPropertyOp18
 70
     1
102
RTVSPropertyOp19
 70
     1
102
RTVSPropertyOp20
 70
     1
102
RTVSPropertyOp21
 70
     1
102
RTVSPropertyOp22
 70
     1
102
RTVSPropertyOp23
 70
     1
102
RTVSPropertyOp24
 70
     1
102
RTVSPropertyOp25
 70
     1
102
RTVSPropertyOp26
 70
     1
102
RTVSPropertyOp27
 70
     1
102
RTVSPropertyOp28
 70
     1
102
RTVSPropertyOp29
 70
     1
102
RTVSPropertyOp30
 70
     1
102
RTVSPropertyOp31
 70
     1
102
RTVSPropertyOp32
 70
     1
  0
XRECORD
  5
22FF52
102
{ACAD_REACTORS
330
22FF51
102
}
330
22FF51
100
AcDbXrecord
280
     1
102
RTVSPropertyOp0
 70
     1
102
RTVSPropertyOp1
 70
     1
102
RTVSPropertyOp2
 70
     1
102
RTVSPropertyOp3
 70
     1
102
RTVSPropertyOp4
 70
     1
102
RTVSPropertyOp5
 70
     1
102
RTVSPropertyOp6
 70
     1
102
RTVSPropertyOp7
 70
     1
102
RTVSPropertyOp8
 70
     1
102
RTVSPropertyOp9
 70
     1
102
RTVSPropertyOp10
 70
     1
102
RTVSPropertyOp11
 70
     1
102
RTVSPropertyOp12
 70
     1
102
RTVSPropertyOp13
 70
     1
102
RTVSPropertyOp14
 70
     1
102
RTVSPropertyOp15
 70
     1
102
RTVSPropertyOp16
 70
     1
102
RTVSPropertyOp17
 70
     1
102
RTVSPropertyOp18
 70
     1
102
RTVSPropertyOp19
 70
     1
102
RTVSPropertyOp20
 70
     1
102
RTVSPropertyOp21
 70
     1
102
RTVSPropertyOp22
 70
     1
102
RTVSPropertyOp23
 70
     1
102
RTVSPropertyOp24
 70
     1
102
RTVSPropertyOp25
 70
     1
102
RTVSPropertyOp26
 70
     1
102
RTVSPropertyOp27
 70
     1
102
RTVSPropertyOp28
 70
     1
102
RTVSPropertyOp29
 70
     1
102
RTVSPropertyOp30
 70
     1
102
RTVSPropertyOp31
 70
     1
102
RTVSPropertyOp32
 70
     1
  0
XRECORD
  5
22FF6A
102
{ACAD_REACTORS
330
22FF69
102
}
330
22FF69
100
AcDbXrecord
280
     1
102
RTVSPropertyOp0
 70
     1
102
RTVSPropertyOp1
 70
     1
102
RTVSPropertyOp2
 70
     1
102
RTVSPropertyOp3
 70
     1
102
RTVSPropertyOp4
 70
     1
102
RTVSPropertyOp5
 70
     1
102
RTVSPropertyOp6
 70
     1
102
RTVSPropertyOp7
 70
     1
102
RTVSPropertyOp8
 70
     1
102
RTVSPropertyOp9
 70
     1
102
RTVSPropertyOp10
 70
     1
102
RTVSPropertyOp11
 70
     1
102
RTVSPropertyOp12
 70
     1
102
RTVSPropertyOp13
 70
     1
102
RTVSPropertyOp14
 70
     1
102
RTVSPropertyOp15
 70
     1
102
RTVSPropertyOp16
 70
     1
102
RTVSPropertyOp17
 70
     1
102
RTVSPropertyOp18
 70
     1
102
RTVSPropertyOp19
 70
     1
102
RTVSPropertyOp20
 70
     1
102
RTVSPropertyOp21
 70
     1
102
RTVSPropertyOp22
 70
     1
102
RTVSPropertyOp23
 70
     1
102
RTVSPropertyOp24
 70
     1
102
RTVSPropertyOp25
 70
     1
102
RTVSPropertyOp26
 70
     1
102
RTVSPropertyOp27
 70
     1
102
RTVSPropertyOp28
 70
     1
102
RTVSPropertyOp29
 70
     1
102
RTVSPropertyOp30
 70
     1
102
RTVSPropertyOp31
 70
     1
102
RTVSPropertyOp32
 70
     1
  0
ENDSEC
  0
EOF
