  0
SECTION
  2
HEADER
  9
$ACADVER
  1
AC1015
  9
$ACADMAINTVER
 70
    20
  9
$DWGCODEPAGE
  3
ANSI_1250
  9
$INSBASE
 10
0.0
 20
0.0
 30
0.0
  9
$EXTMIN
 10
-19424.30352227439
 20
-2834.917218093756
 30
0.0
  9
$EXTMAX
 10
-15424.30352227434
 20
1165.082781906211
 30
0.0
  9
$LIMMIN
 10
0.0
 20
0.0
  9
$LIMMAX
 10
420.0
 20
297.0
  9
$ORTHOMODE
 70
     1
  9
$REGENMODE
 70
     1
  9
$FILLMODE
 70
     1
  9
$QTEXTMODE
 70
     0
  9
$MIRRTEXT
 70
     0
  9
$LTSCALE
 40
1.0
  9
$ATTMODE
 70
     1
  9
$TEXTSIZE
 40
0.2
  9
$TRACEWID
 40
0.05
  9
$TEXTSTYLE
  7
Standard
  9
$CLAYER
  8
0
  9
$CELTYPE
  6
ByLayer
  9
$CECOLOR
 62
   256
  9
$CELTSCALE
 40
1.0
  9
$DISPSILH
 70
     0
  9
$DIMSCALE
 40
1.0
  9
$DIMASZ
 40
1.799999999999999
  9
$DIMEXO
 40
0.0625
  9
$DIMDLI
 40
0.38
  9
$DIMRND
 40
0.0
  9
$DIMDLE
 40
0.0
  9
$DIMEXE
 40
0.18
  9
$DIMTP
 40
0.0
  9
$DIMTM
 40
0.0
  9
$DIMTXT
 40
0.3499999940395355
  9
$DIMCEN
 40
0.09
  9
$DIMTSZ
 40
0.0
  9
$DIMTOL
 70
     0
  9
$DIMLIM
 70
     0
  9
$DIMTIH
 70
     1
  9
$DIMTOH
 70
     1
  9
$DIMSE1
 70
     0
  9
$DIMSE2
 70
     0
  9
$DIMTAD
 70
     0
  9
$DIMZIN
 70
     0
  9
$DIMBLK
  1

  9
$DIMASO
 70
     1
  9
$DIMSHO
 70
     1
  9
$DIMPOST
  1

  9
$DIMAPOST
  1

  9
$DIMALT
 70
     0
  9
$DIMALTD
 70
     2
  9
$DIMALTF
 40
25.4
  9
$DIMLFAC
 40
1.0
  9
$DIMTOFL
 70
     0
  9
$DIMTVP
 40
0.0
  9
$DIMTIX
 70
     0
  9
$DIMSOXD
 70
     0
  9
$DIMSAH
 70
     0
  9
$DIMBLK1
  1

  9
$DIMBLK2
  1

  9
$DIMSTYLE
  2
Standard
  9
$DIMCLRD
 70
     0
  9
$DIMCLRE
 70
     0
  9
$DIMCLRT
 70
     0
  9
$DIMTFAC
 40
1.0
  9
$DIMGAP
 40
0.09
  9
$DIMJUST
 70
     0
  9
$DIMSD1
 70
     0
  9
$DIMSD2
 70
     0
  9
$DIMTOLJ
 70
     1
  9
$DIMTZIN
 70
     0
  9
$DIMALTZ
 70
     0
  9
$DIMALTTZ
 70
     0
  9
$DIMUPT
 70
     0
  9
$DIMDEC
 70
     4
  9
$DIMTDEC
 70
     4
  9
$DIMALTU
 70
     2
  9
$DIMALTTD
 70
     2
  9
$DIMTXSTY
  7
Standard
  9
$DIMAUNIT
 70
     0
  9
$DIMADEC
 70
     0
  9
$DIMALTRND
 40
0.0
  9
$DIMAZIN
 70
     0
  9
$DIMDSEP
 70
    46
  9
$DIMATFIT
 70
     3
  9
$DIMFRAC
 70
     0
  9
$DIMLDRBLK
  1

  9
$DIMLUNIT
 70
     2
  9
$DIMLWD
 70
    -2
  9
$DIMLWE
 70
    -2
  9
$DIMTMOVE
 70
     0
  9
$LUNITS
 70
     2
  9
$LUPREC
 70
     2
  9
$SKETCHINC
 40
0.1
  9
$FILLETRAD
 40
10.0
  9
$AUNITS
 70
     0
  9
$AUPREC
 70
     0
  9
$MENU
  1
.
  9
$ELEVATION
 40
0.0
  9
$PELEVATION
 40
0.0
  9
$THICKNESS
 40
0.0
  9
$LIMCHECK
 70
     0
  9
$CHAMFERA
 40
0.0
  9
$CHAMFERB
 40
0.0
  9
$CHAMFERC
 40
0.0
  9
$CHAMFERD
 40
0.0
  9
$SKPOLY
 70
     0
  9
$TDCREATE
 40
2458022.861501852
  9
$TDUCREATE
 40
2458022.778168519
  9
$TDUPDATE
 40
2458667.566029711
  9
$TDUUPDATE
 40
2458667.482696377
  9
$TDINDWG
 40
1.0727153704
  9
$TDUSRTIMER
 40
1.0727152083
  9
$USRTIMER
 70
     1
  9
$ANGBASE
 50
0.0
  9
$ANGDIR
 70
     0
  9
$PDMODE
 70
     0
  9
$PDSIZE
 40
0.0
  9
$PLINEWID
 40
0.0
  9
$SPLFRAME
 70
     0
  9
$SPLINETYPE
 70
     6
  9
$SPLINESEGS
 70
     8
  9
$HANDSEED
  5
2FAA98
  9
$SURFTAB1
 70
     6
  9
$SURFTAB2
 70
     6
  9
$SURFTYPE
 70
     6
  9
$SURFU
 70
     6
  9
$SURFV
 70
     6
  9
$UCSBASE
  2

  9
$UCSNAME
  2

  9
$UCSORG
 10
0.0
 20
0.0
 30
0.0
  9
$UCSXDIR
 10
1.0
 20
0.0
 30
0.0
  9
$UCSYDIR
 10
0.0
 20
1.0
 30
0.0
  9
$UCSORTHOREF
  2

  9
$UCSORTHOVIEW
 70
     0
  9
$UCSORGTOP
 10
0.0
 20
0.0
 30
0.0
  9
$UCSORGBOTTOM
 10
0.0
 20
0.0
 30
0.0
  9
$UCSORGLEFT
 10
0.0
 20
0.0
 30
0.0
  9
$UCSORGRIGHT
 10
0.0
 20
0.0
 30
0.0
  9
$UCSORGFRONT
 10
0.0
 20
0.0
 30
0.0
  9
$UCSORGBACK
 10
0.0
 20
0.0
 30
0.0
  9
$PUCSBASE
  2

  9
$PUCSNAME
  2

  9
$PUCSORG
 10
0.0
 20
0.0
 30
0.0
  9
$PUCSXDIR
 10
1.0
 20
0.0
 30
0.0
  9
$PUCSYDIR
 10
0.0
 20
1.0
 30
0.0
  9
$PUCSORTHOREF
  2

  9
$PUCSORTHOVIEW
 70
     0
  9
$PUCSORGTOP
 10
0.0
 20
0.0
 30
0.0
  9
$PUCSORGBOTTOM
 10
0.0
 20
0.0
 30
0.0
  9
$PUCSORGLEFT
 10
0.0
 20
0.0
 30
0.0
  9
$PUCSORGRIGHT
 10
0.0
 20
0.0
 30
0.0
  9
$PUCSORGFRONT
 10
0.0
 20
0.0
 30
0.0
  9
$PUCSORGBACK
 10
0.0
 20
0.0
 30
0.0
  9
$USERI1
 70
     0
  9
$USERI2
 70
     0
  9
$USERI3
 70
     0
  9
$USERI4
 70
     0
  9
$USERI5
 70
     0
  9
$USERR1
 40
0.0
  9
$USERR2
 40
0.0
  9
$USERR3
 40
0.0
  9
$USERR4
 40
0.0
  9
$USERR5
 40
0.0
  9
$WORLDVIEW
 70
     1
  9
$SHADEDGE
 70
     3
  9
$SHADEDIF
 70
    70
  9
$TILEMODE
 70
     1
  9
$MAXACTVP
 70
    64
  9
$PINSBASE
 10
0.0
 20
0.0
 30
0.0
  9
$PLIMCHECK
 70
     0
  9
$PEXTMIN
 10
0.0
 20
0.0
 30
0.0
  9
$PEXTMAX
 10
420.0
 20
297.0
 30
0.0
  9
$PLIMMIN
 10
0.0
 20
0.0
  9
$PLIMMAX
 10
420.0
 20
297.0
  9
$UNITMODE
 70
     0
  9
$VISRETAIN
 70
     1
  9
$PLINEGEN
 70
     0
  9
$PSLTSCALE
 70
     1
  9
$TREEDEPTH
 70
  3020
  9
$CMLSTYLE
  2
Standard
  9
$CMLJUST
 70
     0
  9
$CMLSCALE
 40
1.0
  9
$PROXYGRAPHICS
 70
     1
  9
$MEASUREMENT
 70
     1
  9
$CELWEIGHT
370
    -1
  9
$ENDCAPS
280
     0
  9
$JOINSTYLE
280
     0
  9
$LWDISPLAY
290
     0
  9
$INSUNITS
 70
     4
  9
$HYPERLINKBASE
  1

  9
$STYLESHEET
  1
MONOCHROME.CTB
  9
$XEDIT
290
     1
  9
$CEPSNTYPE
380
     0
  9
$PSTYLEMODE
290
     1
  9
$FINGERPRINTGUID
  2
{EE324C07-26EA-43F5-BF4C-34F6154CD393}
  9
$VERSIONGUID
  2
{5B825010-B97C-4469-AACB-D8AE98F3BEDF}
  9
$EXTNAMES
290
     1
  9
$PSVPSCALE
 40
0.0
  9
$OLESTARTUP
290
     0
  0
ENDSEC
  0
SECTION
  2
CLASSES
  0
CLASS
  1
ACDBDICTIONARYWDFLT
  2
AcDbDictionaryWithDefault
  3
ObjectDBX Classes
 90
        0
280
     0
281
     0
  0
CLASS
  1
MATERIAL
  2
AcDbMaterial
  3
ObjectDBX Classes
 90
     1153
280
     0
281
     0
  0
CLASS
  1
VISUALSTYLE
  2
AcDbVisualStyle
  3
ObjectDBX Classes
 90
     4095
280
     0
281
     0
  0
CLASS
  1
SCALE
  2
AcDbScale
  3
ObjectDBX Classes
 90
     1153
280
     0
281
     0
  0
CLASS
  1
TABLESTYLE
  2
AcDbTableStyle
  3
ObjectDBX Classes
 90
     4095
280
     0
281
     0
  0
CLASS
  1
MLEADERSTYLE
  2
AcDbMLeaderStyle
  3
ACDB_MLEADERSTYLE_CLASS
 90
     4095
280
     0
281
     0
  0
CLASS
  1
DICTIONARYVAR
  2
AcDbDictionaryVar
  3
ObjectDBX Classes
 90
        0
280
     0
281
     0
  0
CLASS
  1
ACME_DOCUMENT
  2
AcMeDbDoc
  3
AcMeServices
 90
     1024
280
     0
281
     0
  0
CLASS
  1
AMGSETTINGSOBJ
  2
AmgSettingsObj
  3
"AcadM|Product Description: AutoCAD Mechanical|Company: Autodesk, Inc."
 90
     1024
280
     0
281
     0
  0
CLASS
  1
ACMESCOPE
  2
AcMeScope
  3
AcMeServices
 90
     1024
280
     0
281
     0
  0
CLASS
  1
ACMECOMMANDHISTORY
  2
AcMeCommandHistory
  3
AcMeServices
 90
     1024
280
     0
281
     0
  0
CLASS
  1
ACIMSYSVARMAN
  2
AcImSysVarManager
  3
AcMeServices
 90
     1024
280
     0
281
     0
  0
CLASS
  1
ACIMINTSYSVAR
  2
AcImIntSysVar
  3
AcMeServices
 90
     1024
280
     0
281
     0
  0
CLASS
  1
ACMESTATEMGR
  2
AcMeStateMgr
  3
AcMeServices
 90
     1024
280
     0
281
     0
  0
CLASS
  1
ACDBENTITYCACHE
  2
AcMeEntityCache
  3
AcMeServices
 90
     1024
280
     0
281
     0
  0
CLASS
  1
ACGREFMASTER
  2
AcGrefMaster
  3
AcAttribServices
 90
     1024
280
     0
281
     0
  0
CLASS
  1
AM_DRAWING_MGR
  2
AcDmDwgMgr
  3
AcMechDwgViewMgmt
 90
     1024
280
     0
281
     0
  0
CLASS
  1
AM_DWG_DOCUMENT
  2
AcDmDwgDocument
  3
AcMechDwgViewMgmt
 90
     1024
280
     0
281
     0
  0
CLASS
  1
AM_DWG_SHEET
  2
AcDmSheet
  3
AcMechDwgViewMgmt
 90
     1024
280
     0
281
     0
  0
CLASS
  1
AM_VIEWDIMPARMAP
  2
AcDmViewDimParMap
  3
AcMechDwgViewMgmt
 90
     1024
280
     0
281
     0
  0
CLASS
  1
AMDTINTERNALREACTOR
  2
AmdtInternalReactor
  3
AcMeServices
 90
     1024
280
     0
281
     0
  0
CLASS
  1
ACIMREALSYSVAR
  2
AcImRealSysVar
  3
AcMeServices
 90
     1024
280
     0
281
     0
  0
CLASS
  1
AM_DWGMGR_NAME
  2
AcDmDwgMgrName
  3
AcMechDwgViewMgmt
 90
     1024
280
     0
281
     0
  0
CLASS
  1
ACME_DATABASE
  2
AcMeDbDatabase
  3
AcMeServices
 90
     1024
280
     0
281
     0
  0
CLASS
  1
ACRFINSADJUSTERMGR
  2
AcRfInsAdjusterMgr
  3
AcMeServices
 90
     1024
280
     0
281
     0
  0
CLASS
  1
ACGREFACADMASTER
  2
AcGrefacadMaster
  3
AcGrefServices
 90
     1024
280
     0
281
     0
  0
CLASS
  1
AMDTMENUSTATEMGR
  2
AmdtMenuStateMgr
  3
McadcomServices
 90
     1024
280
     0
281
     0
  0
CLASS
  1
AMDTMCOMMENUSTATE
  2
AmdtMcomMenuState
  3
McadcomServices
 90
     1024
280
     0
281
     0
  0
CLASS
  1
AMIMASTER
  2
AmiMaster
  3
AmiServices
 90
     1024
280
     0
281
     0
  0
CLASS
  1
MAPIAMMOUDLE
  2
MApiAmModule
  3
MApiAmServices
 90
     1024
280
     0
281
     0
  0
CLASS
  1
ACIMSTRSYSVAR
  2
AcImStrSysVar
  3
AcMeServices
 90
     1024
280
     0
281
     0
  0
CLASS
  1
AMDTDMMENUSTATE
  2
AmdtDmMenuState
  3
AcMechDwgViewMgmt
 90
     1024
280
     0
281
     0
  0
CLASS
  1
AMDTAMMENUSTATE
  2
AmdtAmMenuState
  3
DesignerAssemblies
 90
     1024
280
     0
281
     0
  0
CLASS
  1
ACAMPROJECT
  2
AcAmProject
  3
DesignerAssemblies
 90
     1024
280
     0
281
     0
  0
CLASS
  1
ACAMGRCOMPDEF
  2
AcAmGrCompDef
  3
DesignerAssemblies
 90
     1024
280
     0
281
     0
  0
CLASS
  1
ACAMCOMPDEF
  2
AcAmCompDef
  3
DesignerAssemblies
 90
     1024
280
     0
281
     0
  0
CLASS
  1
ACAMCOMPDEFMGR
  2
AcAmCompDefMgr
  3
DesignerAssemblies
 90
     1024
280
     0
281
     0
  0
CLASS
  1
AMCONTEXTMGR
  2
AcAmContextMgr
  3
DesignerAssemblies
 90
     1024
280
     0
281
     0
  0
CLASS
  1
ACAMCONTEXTMODELER
  2
AcAmContextModeler
  3
DesignerAssemblies
 90
     1024
280
     0
281
     0
  0
CLASS
  1
ACMDATADICTIONARY
  2
AcmDataDictionary
  3
"AcmSymBB|Product Description: AutoCAD Mechanical|Company: Autodesk, Inc."
 90
     1024
280
     0
281
     0
  0
CLASS
  1
ACAMGRCOMPDEFSET
  2
AcAmGrCompDefSet
  3
DesignerAssemblies
 90
     1024
280
     0
281
     0
  0
CLASS
  1
AMDTBROWSERDBTAB
  2
AmdtBrowserDbTab
  3
McadcomServices
 90
     1024
280
     0
281
     0
  0
CLASS
  1
CBROWSERAPPOBJECT
  2
CBrowserAppObject
  3
McadcomServices
 90
     1024
280
     0
281
     0
  0
CLASS
  1
DM_PLACEHOLDER
  2
AcDmSelsetPlaceholder
  3
AcMechDwgViewMgmt
 90
     1024
280
     0
281
     0
  0
CLASS
  1
EXACXREFPANELOBJECT
  2
ExAcXREFPanelObject
  3
EXAC_ESW
 90
     1025
280
     0
281
     0
  0
CLASS
  1
NPOCOLLECTION
  2
AcDbImpNonPersistentObjectsCollection
  3
ObjectDBX Classes
 90
     1153
280
     0
281
     0
  0
CLASS
  1
ACMSTANDARDISO
  2
AcmStandardISO
  3
"Amdt_StdImp|Product Description: AutoCAD Mechanical|Company: Autodesk, Inc."
 90
     1024
280
     0
281
     0
  0
CLASS
  1
AMDTEDGESTANDARDISO13715
  2
AmdtEdgeStdISO13715
  3
"Amdt_StdImp|Product Description: AutoCAD Mechanical|Company: Autodesk, Inc."
 90
     1024
280
     0
281
     0
  0
CLASS
  1
ACMSURFSTANDARDISO2002
  2
AcmSurfTextStdISO2002
  3
"Amdt_StdImp|Product Description: AutoCAD Mechanical|Company: Autodesk, Inc."
 90
     1024
280
     0
281
     0
  0
CLASS
  1
ACMFCFSTANDARDISO
  2
AcmFCFStdISO
  3
"Amdt_StdImp|Product Description: AutoCAD Mechanical|Company: Autodesk, Inc."
 90
     1024
280
     0
281
     0
  0
CLASS
  1
ACMWELDSTANDARDISO
  2
AcmWeldingStdISO
  3
"Amdt_StdImp|Product Description: AutoCAD Mechanical|Company: Autodesk, Inc."
 90
     1024
280
     0
281
     0
  0
CLASS
  1
ACMIDSTANDARDISO
  2
AcmIdStdISO
  3
"Amdt_StdImp|Product Description: AutoCAD Mechanical|Company: Autodesk, Inc."
 90
     1024
280
     0
281
     0
  0
CLASS
  1
ACMDATUMSTANDARDISO
  2
AcmDatumStdISO
  3
"Amdt_StdImp|Product Description: AutoCAD Mechanical|Company: Autodesk, Inc."
 90
     1024
280
     0
281
     0
  0
CLASS
  1
ACMBOMSTANDARDISO
  2
AcmBOMStdISO
  3
"Amdt_StdImp|Product Description: AutoCAD Mechanical|Company: Autodesk, Inc."
 90
     1024
280
     0
281
     0
  0
CLASS
  1
ACMDETAILSTANDARDISO
  2
AmdtDetailSymStdISO
  3
"Amdt_StdImp|Product Description: AutoCAD Mechanical|Company: Autodesk, Inc."
 90
     1024
280
     0
281
     0
  0
CLASS
  1
ACMSECTIONSTANDARDISO2001
  2
AmdtSectionSymStdISO2001
  3
"Amdt_StdImp|Product Description: AutoCAD Mechanical|Company: Autodesk, Inc."
 90
     1024
280
     0
281
     0
  0
CLASS
  1
ACMCENTERLINESTANDARDISO
  2
AmdtCenterLineStdISO
  3
"Amdt_StdImp|Product Description: AutoCAD Mechanical|Company: Autodesk, Inc."
 90
     1024
280
     0
281
     0
  0
CLASS
  1
ACMTHREADLINESTANDARDISO
  2
AmdtThreadLineStdISO
  3
"Amdt_StdImp|Product Description: AutoCAD Mechanical|Company: Autodesk, Inc."
 90
     1024
280
     0
281
     0
  0
CLASS
  1
ACMNOTESTANDARDISO
  2
AmdtNoteStdISO
  3
"Amdt_StdImp|Product Description: AutoCAD Mechanical|Company: Autodesk, Inc."
 90
     1024
280
     0
281
     0
  0
CLASS
  1
ACMTAPERSTANDARDISO
  2
AcmTaperStdISO
  3
"Amdt_StdImp|Product Description: AutoCAD Mechanical|Company: Autodesk, Inc."
 90
     1024
280
     0
281
     0
  0
CLASS
  1
ACMANOOTATIONVIEWSTANDARDISO
  2
AmdtAnViewStdISO
  3
"Amdt_StdImp|Product Description: AutoCAD Mechanical|Company: Autodesk, Inc."
 90
     1024
280
     0
281
     0
  0
CLASS
  1
ACAMGLAYSTD
  2
AcAmgLayStd
  3
"AmgLay|Product Description: AutoCAD Mechanical|Company: Autodesk, Inc."
 90
     1024
280
     0
281
     0
  0
CLASS
  1
ACAMGDIMSTD
  2
AcAmgDimStd
  3
"AmgDim|Product Description: AutoCAD Mechanical|Company: Autodesk, Inc."
 90
     1024
280
     0
281
     0
  0
CLASS
  1
AMGOBJPROPCFG
  2
AmgObjPropCfg
  3
"AmgLay|Product Description: AutoCAD Mechanical|Company: Autodesk, Inc."
 90
     1025
280
     0
281
     0
  0
CLASS
  1
ACAMGHOLECHARTSTDISO
  2
AcAmgHoleChartStdISO
  3
AmgDim|Product Description: AutoCAD Mechanical|Company: Autodesk, Inc.
 90
     1024
280
     0
281
     0
  0
CLASS
  1
ACAMGTITLESTD
  2
AcAmgTitleStd
  3
"AmgTitle|Product Description: AutoCAD Mechanical|Company: Autodesk, Inc."
 90
     4095
280
     0
281
     0
  0
CLASS
  1
AMDTNOTETEMPLATEDB
  2
AmdtNoteTemplateDB
  3
AcmSymBB|Product Description: AutoCAD Mechanical|Company: Autodesk, Inc.
 90
     1024
280
     0
281
     0
  0
CLASS
  1
ACAMGFILTERDAT
  2
AcAmgFilterDat
  3
"AcadM|Product Description: AutoCAD Mechanical|Company: Autodesk, Inc."
 90
    33792
280
     0
281
     0
  0
CLASS
  1
CAMSSTRUCTBTNSTATE
  2
StructBtnState
  3
DesignerAssemblies
 90
     1024
280
     0
281
     0
  0
CLASS
  1
SORTENTSTABLE
  2
AcDbSortentsTable
  3
ObjectDBX Classes
 90
        0
280
     0
281
     0
  0
CLASS
  1
CELLSTYLEMAP
  2
AcDbCellStyleMap
  3
ObjectDBX Classes
 90
     1152
280
     0
281
     0
  0
CLASS
  1
ACDBPLACEHOLDER
  2
AcDbPlaceHolder
  3
ObjectDBX Classes
 90
        0
280
     0
281
     0
  0
CLASS
  1
LAYOUT
  2
AcDbLayout
  3
ObjectDBX Classes
 90
        0
280
     0
281
     0
  0
ENDSEC
  0
SECTION
  2
TABLES
  0
TABLE
  2
VPORT
  5
8
330
0
100
AcDbSymbolTable
 70
     1
  0
VPORT
  5
57
330
8
100
AcDbSymbolTableRecord
100
AcDbViewportTableRecord
  2
*Active
 70
     0
 10
0.0
 20
0.0
 11
1.0
 21
1.0
 12
-17424.1578109099
 22
-834.917208780546
 13
0.0
 23
0.0
 14
1.0
 24
1.0
 15
0.0
 25
0.0
 16
0.0
 26
0.0
 36
1.0
 17
0.0
 27
0.0
 37
0.0
 40
4030.059624903204
 41
2.837064676616915
 42
50.0
 43
0.0
 44
0.0
 50
0.0
 51
0.0
 71
     0
 72
   100
 73
     1
 74
     1
 75
     0
 76
     0
 77
     0
 78
     0
281
     0
 65
     0
110
0.0
120
0.0
130
0.0
111
1.0
121
0.0
131
0.0
112
0.0
122
1.0
132
0.0
 79
     0
146
0.0
  0
ENDTAB
  0
TABLE
  2
LTYPE
  5
5
330
0
100
AcDbSymbolTable
 70
    14
  0
LTYPE
  5
5B
330
5
100
AcDbSymbolTableRecord
100
AcDbLinetypeTableRecord
  2
ByBlock
 70
     0
  3

 72
    65
 73
     0
 40
0.0
  0
LTYPE
  5
5C
330
5
100
AcDbSymbolTableRecord
100
AcDbLinetypeTableRecord
  2
ByLayer
 70
     0
  3

 72
    65
 73
     0
 40
0.0
  0
LTYPE
  5
5D
330
5
100
AcDbSymbolTableRecord
100
AcDbLinetypeTableRecord
  2
Continuous
 70
     0
  3
Solid line
 72
    65
 73
     0
 40
0.0
  0
LTYPE
  5
86
330
5
100
AcDbSymbolTableRecord
100
AcDbLinetypeTableRecord
  2
CENTER
 70
     0
  3
Center ____ _ ____ _ ____ _ ____ _ ____ _ ____
 72
    65
 73
     4
 40
50.8
 49
31.75
 74
     0
 49
-6.349999999999998
 74
     0
 49
6.349999999999998
 74
     0
 49
-6.349999999999998
 74
     0
  0
LTYPE
  5
93
330
5
100
AcDbSymbolTableRecord
100
AcDbLinetypeTableRecord
  2
HIDDEN
 70
     0
  3
Hidden __ __ __ __ __ __ __ __ __ __ __ __ __ _
 72
    65
 73
     2
 40
9.524999999999996
 49
6.349999999999998
 74
     0
 49
-3.174999999999998
 74
     0
  0
LTYPE
  5
97
330
5
100
AcDbSymbolTableRecord
100
AcDbLinetypeTableRecord
  2
PHANTOM2
 70
     0
  3
Phantom (.5x) ___ _ _ ___ _ _ ___ _ _ ___ _ _
 72
    65
 73
     6
 40
31.75
 49
15.875
 74
     0
 49
-3.174999999999998
 74
     0
 49
3.174999999999998
 74
     0
 49
-3.174999999999998
 74
     0
 49
3.174999999999998
 74
     0
 49
-3.174999999999998
 74
     0
  0
LTYPE
  5
22E32
330
5
100
AcDbSymbolTableRecord
100
AcDbLinetypeTableRecord
  2
AM_ISO02W050
 70
     0
  3
__ __ __ __ __ __ __ __ __ __ __ __ __ __ __
 72
    65
 73
     2
 40
7.5
 49
6.0
 74
     0
 49
-1.5
 74
     0
  0
LTYPE
  5
22E33
330
5
100
AcDbSymbolTableRecord
100
AcDbLinetypeTableRecord
  2
AM_ISO08W050
 70
     0
  3
____ . ____ . ____ . ____ . ____ . ____ . ____
 72
    65
 73
     4
 40
18.0
 49
12.0
 74
     0
 49
-1.5
 74
     0
 49
3.0
 74
     0
 49
-1.5
 74
     0
  0
LTYPE
  5
22E34
330
5
100
AcDbSymbolTableRecord
100
AcDbLinetypeTableRecord
  2
AM_ISO09W050
 70
     0
  3
_____ . . _____ . . _____ . . ____ .. ____
 72
    65
 73
     6
 40
22.5
 49
12.0
 74
     0
 49
-1.5
 74
     0
 49
3.0
 74
     0
 49
-1.5
 74
     0
 49
3.0
 74
     0
 49
-1.5
 74
     0
  0
LTYPE
  5
22E35
330
5
100
AcDbSymbolTableRecord
100
AcDbLinetypeTableRecord
  2
Amconstr
 70
     0
  3
_______________________
 72
    65
 73
     2
 40
9999.0
 49
9999.0
 74
     0
 49
0.0
 74
     0
  0
LTYPE
  5
22E36
330
5
100
AcDbSymbolTableRecord
100
AcDbLinetypeTableRecord
  2
AM_ISO08W050x2
 70
     0
  3
__ . __ . __ . __ . __ . __
 72
    65
 73
     4
 40
9.0
 49
6.0
 74
     0
 49
-0.75
 74
     0
 49
1.5
 74
     0
 49
-0.75
 74
     0
  0
LTYPE
  5
22E37
330
5
100
AcDbSymbolTableRecord
100
AcDbLinetypeTableRecord
  2
AM_ISO02W050x2
 70
     0
  3
 _ _ _ _ _ _ _ _ _ _ _ _
 72
    65
 73
     2
 40
3.75
 49
3.0
 74
     0
 49
-0.75
 74
     0
  0
LTYPE
  5
22E3A
330
5
100
AcDbSymbolTableRecord
100
AcDbLinetypeTableRecord
  2
Amzigzag
 70
     0
  3
/\/-/\/-/\/-/\/-/\/-/\/
 72
    65
 73
     2
 40
11.0001
 49
0.0001
 74
     4
 75
   136
340
22E39
 46
0.04
 50
0.0
 44
0.0
 45
0.0
 49
-11.0
 74
     0
  0
LTYPE
  5
22E49
330
5
100
AcDbSymbolTableRecord
100
AcDbLinetypeTableRecord
  2
ACISOWELD
 70
     0
  3
_ _ _ _ _
 72
    65
 73
     2
 40
2.0
 49
2.0
 74
     0
 49
-1.0
 74
     0
  0
LTYPE
  5
22E4A
330
5
100
AcDbSymbolTableRecord
100
AcDbLinetypeTableRecord
  2
ACISOTGB
 70
     0
  3
__ . . __ . .
 72
    65
 73
     6
 40
9.0
 49
4.0
 74
     0
 49
-1.0
 74
     0
 49
1.0
 74
     0
 49
-1.0
 74
     0
 49
1.0
 74
     0
 49
-1.0
 74
     0
  0
LTYPE
  5
22E4B
330
5
100
AcDbSymbolTableRecord
100
AcDbLinetypeTableRecord
  2
ACISOTGL
 70
     0
  3
_ _ _ _ _
 72
    65
 73
     2
 40
3.0
 49
2.0
 74
     0
 49
-1.0
 74
     0
  0
ENDTAB
  0
TABLE
  2
LAYER
  5
2
102
{ACAD_XDICTIONARY
360
22E5D
102
}
330
0
100
AcDbSymbolTable
 70
     5
  0
LAYER
  5
54
330
2
100
AcDbSymbolTableRecord
100
AcDbLayerTableRecord
  2
0
 70
     0
 62
     7
  6
Continuous
370
    -3
390
F
  0
LAYER
  5
C4
330
2
100
AcDbSymbolTableRecord
100
AcDbLayerTableRecord
  2
Widoczne (ISO)
 70
     0
 62
     7
  6
Continuous
370
    50
390
F
  0
LAYER
  5
22CA6
330
2
100
AcDbSymbolTableRecord
100
AcDbLayerTableRecord
  2
Defpoints
 70
     0
 62
     7
  6
Continuous
290
     0
370
    -3
390
F
  0
LAYER
  5
22EDC
102
{ACAD_XDICTIONARY
360
22EDD
102
}
330
2
100
AcDbSymbolTableRecord
100
AcDbLayerTableRecord
  2
10_WYMIARY
 70
     0
 62
     1
  6
Continuous
370
    -3
390
F
1001
AcAecLayerStandard
1000

1000

  0
LAYER
  5
2FA9E8
330
2
100
AcDbSymbolTableRecord
100
AcDbLayerTableRecord
  2
AM_5
 70
     0
 62
     3
  6
Continuous
370
    25
390
F
1001
AcAecLayerStandard
1000

1000

  0
ENDTAB
  0
TABLE
  2
STYLE
  5
3
330
0
100
AcDbSymbolTable
 70
     3
  0
STYLE
  5
55
330
3
100
AcDbSymbolTableRecord
100
AcDbTextStyleTableRecord
  2
Standard
 70
     0
 40
0.0
 41
1.0
 50
0.0
 71
     0
 42
0.2
  3
tahoma.ttf
  4

1001
ACAD
1000
Tahoma
1071
      256
  0
STYLE
  5
22E39
330
3
100
AcDbSymbolTableRecord
100
AcDbTextStyleTableRecord
  2

 70
     1
 40
0.0
 41
1.0
 50
0.0
 71
     0
 42
0.2
  3
genltshp.shx
  4

  0
STYLE
  5
22E48
330
3
100
AcDbSymbolTableRecord
100
AcDbTextStyleTableRecord
  2
ACISOGDT
 70
     0
 40
0.0
 41
1.0
 50
0.0
 71
     0
 42
0.2
  3
amgdt.shx
  4

  0
ENDTAB
  0
TABLE
  2
VIEW
  5
6
330
0
100
AcDbSymbolTable
 70
     0
  0
ENDTAB
  0
TABLE
  2
UCS
  5
7
330
0
100
AcDbSymbolTable
 70
     0
  0
ENDTAB
  0
TABLE
  2
APPID
  5
9
330
0
100
AcDbSymbolTable
 70
    32
  0
APPID
  5
56
330
9
100
AcDbSymbolTableRecord
100
AcDbRegAppTableRecord
  2
ACAD
 70
     0
  0
APPID
  5
5E
330
9
100
AcDbSymbolTableRecord
100
AcDbRegAppTableRecord
  2
AcadAnnotative
 70
     0
  0
APPID
  5
15C
330
9
100
AcDbSymbolTableRecord
100
AcDbRegAppTableRecord
  2
AcadAnnoPO
 70
     0
  0
APPID
  5
22DC8
330
9
100
AcDbSymbolTableRecord
100
AcDbRegAppTableRecord
  2
MCAD_NO_VIS
 70
     0
  0
APPID
  5
22DC9
330
9
100
AcDbSymbolTableRecord
100
AcDbRegAppTableRecord
  2
ACAD_TEMP_GRAPHIC
 70
     0
  0
APPID
  5
22DF4
330
9
100
AcDbSymbolTableRecord
100
AcDbRegAppTableRecord
  2
AD_DRAW
 70
     0
  0
APPID
  5
22DF7
330
9
100
AcDbSymbolTableRecord
100
AcDbRegAppTableRecord
  2
ACATTRIBSERVICES
 70
     0
  0
APPID
  5
22E10
330
9
100
AcDbSymbolTableRecord
100
AcDbRegAppTableRecord
  2
DESIGNERASSEMBLIES
 70
     0
  0
APPID
  5
22E15
330
9
100
AcDbSymbolTableRecord
100
AcDbRegAppTableRecord
  2
ACADM_DIM_EDIT
 70
     0
  0
APPID
  5
22E16
330
9
100
AcDbSymbolTableRecord
100
AcDbRegAppTableRecord
  2
AMDT_DM_ADJ
 70
     0
  0
APPID
  5
22E2F
330
9
100
AcDbSymbolTableRecord
100
AcDbRegAppTableRecord
  2
ACAD_DSTYLE_DIMJAG
 70
     0
  0
APPID
  5
22E30
330
9
100
AcDbSymbolTableRecord
100
AcDbRegAppTableRecord
  2
ACAD_DSTYLE_DIMBREAK
 70
     0
  0
APPID
  5
22E7B
330
9
100
AcDbSymbolTableRecord
100
AcDbRegAppTableRecord
  2
AcAecLayerStandard
 70
     0
  0
APPID
  5
22E98
330
9
100
AcDbSymbolTableRecord
100
AcDbRegAppTableRecord
  2
ACAD_DSTYLE_DIMINSPECT
 70
     0
  0
APPID
  5
22EAE
330
9
100
AcDbSymbolTableRecord
100
AcDbRegAppTableRecord
  2
GENIUS_GENDTOL_13
 70
     0
  0
APPID
  5
22EAF
330
9
100
AcDbSymbolTableRecord
100
AcDbRegAppTableRecord
  2
ACAD_EXEMPT_FROM_CAD_STANDARDS
 70
     0
  0
APPID
  5
22EE2
330
9
100
AcDbSymbolTableRecord
100
AcDbRegAppTableRecord
  2
ACAD_PSEXT
 70
     0
  0
APPID
  5
22EE3
330
9
100
AcDbSymbolTableRecord
100
AcDbRegAppTableRecord
  2
ACAD_NAV_VCDISPLAY
 70
     0
  0
APPID
  5
2D66B
330
9
100
AcDbSymbolTableRecord
100
AcDbRegAppTableRecord
  2
GENIUS_GENODEF_13
 70
     0
  0
APPID
  5
2D66C
330
9
100
AcDbSymbolTableRecord
100
AcDbRegAppTableRecord
  2
GENIUS_GENOBJ-N-FIL_13
 70
     0
  0
APPID
  5
7909A
330
9
100
AcDbSymbolTableRecord
100
AcDbRegAppTableRecord
  2
GENIUS_GENOBJ-N-HTC_13
 70
     0
  0
APPID
  5
7909B
330
9
100
AcDbSymbolTableRecord
100
AcDbRegAppTableRecord
  2
GENIUS_GENHATCH_13
 70
     0
  0
APPID
  5
79290
330
9
100
AcDbSymbolTableRecord
100
AcDbRegAppTableRecord
  2
GRADIENTCOLOR1ACI
 70
     0
  0
APPID
  5
79291
330
9
100
AcDbSymbolTableRecord
100
AcDbRegAppTableRecord
  2
GRADIENTCOLOR2ACI
 70
     0
  0
APPID
  5
CEBC3
330
9
100
AcDbSymbolTableRecord
100
AcDbRegAppTableRecord
  2
GENIUS_GENREC_14
 70
     0
  0
APPID
  5
CEBC4
330
9
100
AcDbSymbolTableRecord
100
AcDbRegAppTableRecord
  2
GENIUS_GENOBJ-N-REC_13
 70
     0
  0
APPID
  5
2D4323
330
9
100
AcDbSymbolTableRecord
100
AcDbRegAppTableRecord
  2
ACAD_DSTYLE_DIMRADIAL_EXTENSION
 70
     0
  0
APPID
  5
2F9D1B
330
9
100
AcDbSymbolTableRecord
100
AcDbRegAppTableRecord
  2
ACAD_MLEADERVER
 70
     0
  0
APPID
  5
2F9D21
330
9
100
AcDbSymbolTableRecord
100
AcDbRegAppTableRecord
  2
ACAD_DSTYLE_DIMARC_LENGTH_SYMBOL
 70
     0
  0
APPID
  5
2F9D22
330
9
100
AcDbSymbolTableRecord
100
AcDbRegAppTableRecord
  2
ACAD_DSTYLE_DIM_LINETYPE
 70
     0
  0
APPID
  5
2F9D23
330
9
100
AcDbSymbolTableRecord
100
AcDbRegAppTableRecord
  2
ACAD_DSTYLE_DIM_EXT1_LINETYPE
 70
     0
  0
APPID
  5
2F9D24
330
9
100
AcDbSymbolTableRecord
100
AcDbRegAppTableRecord
  2
ACAD_DSTYLE_DIM_EXT2_LINETYPE
 70
     0
  0
ENDTAB
  0
TABLE
  2
DIMSTYLE
  5
A
330
0
100
AcDbSymbolTable
 70
     9
100
AcDbDimStyleTable
 71
     1
340
58
  0
DIMSTYLE
105
58
330
A
100
AcDbSymbolTableRecord
100
AcDbDimStyleTableRecord
  2
Standard
 70
     0
340
55
  0
DIMSTYLE
105
22E2E
102
{ACAD_REACTORS
330
2F9D7D
102
}
330
A
100
AcDbSymbolTableRecord
100
AcDbDimStyleTableRecord
  2
AM_ISO
 70
     0
  4
"
 41
3.5
 42
1.0
 43
10.0
 44
1.0
 47
0.1
 48
0.1
 73
     0
 74
     0
 77
     1
 78
     8
 79
     2
140
3.5
141
0.0
143
0.0393701
146
0.71
147
1.5
172
     1
176
   256
177
   256
178
     2
271
     2
272
     3
274
     4
283
     0
284
     8
340
55
371
    -1
372
    -1
1001
ACAD_DSTYLE_DIMJAG
1070
   388
1040
1.5
1001
ACAD_DSTYLE_DIMBREAK
1070
   391
1040
3.75
1001
ACAD_DSTYLE_DIMARC_LENGTH_SYMBOL
1070
   379
1070
     1
1001
ACAD_DSTYLE_DIM_LINETYPE
1070
   380
1005
5B
1001
ACAD_DSTYLE_DIM_EXT1_LINETYPE
1070
   381
1005
5B
1001
ACAD_DSTYLE_DIM_EXT2_LINETYPE
1070
   382
1005
5B
  0
DIMSTYLE
105
22E3B
330
A
100
AcDbSymbolTableRecord
100
AcDbDimStyleTableRecord
  2
AM_ISO$3
 70
     0
  4
"
 41
3.5
 42
1.0
 43
10.0
 44
1.0
 47
0.1
 48
0.1
 73
     0
 77
     1
 78
     8
 79
     2
140
3.5
141
0.0
143
0.0393701
146
0.71
147
1.5
176
   256
177
   256
178
     2
271
     2
272
     3
274
     4
283
     0
284
     8
288
     1
289
     0
340
55
371
    -1
372
    -1
1001
ACAD_DSTYLE_DIMBREAK
1070
   391
1040
3.75
1001
ACAD_DSTYLE_DIMJAG
1070
   388
1040
1.5
1001
ACAD_DSTYLE_DIMARC_LENGTH_SYMBOL
1070
   379
1070
     1
1001
ACAD_DSTYLE_DIM_LINETYPE
1070
   380
1005
5B
1001
ACAD_DSTYLE_DIM_EXT1_LINETYPE
1070
   381
1005
5B
1001
ACAD_DSTYLE_DIM_EXT2_LINETYPE
1070
   382
1005
5B
  0
DIMSTYLE
105
22E3C
330
A
100
AcDbSymbolTableRecord
100
AcDbDimStyleTableRecord
  2
AM_ISO$4
 70
     0
  4
"
 41
3.5
 42
1.0
 43
10.0
 44
1.0
 47
0.1
 48
0.1
 73
     0
 77
     1
 78
     8
 79
     2
140
3.5
141
0.0
143
0.0393701
146
0.71
147
1.5
176
   256
177
   256
178
     2
271
     2
272
     3
274
     4
283
     0
284
     8
288
     1
289
     0
340
55
371
    -1
372
    -1
1001
ACAD_DSTYLE_DIMBREAK
1070
   391
1040
3.75
1001
ACAD_DSTYLE_DIMJAG
1070
   388
1040
1.5
1001
ACAD_DSTYLE_DIMARC_LENGTH_SYMBOL
1070
   379
1070
     1
1001
ACAD_DSTYLE_DIM_LINETYPE
1070
   380
1005
5B
1001
ACAD_DSTYLE_DIM_EXT1_LINETYPE
1070
   381
1005
5B
1001
ACAD_DSTYLE_DIM_EXT2_LINETYPE
1070
   382
1005
5B
  0
DIMSTYLE
105
22E3D
330
A
100
AcDbSymbolTableRecord
100
AcDbDimStyleTableRecord
  2
AM_ISO$6
 70
     0
  4
"
 41
3.5
 42
1.0
 43
10.0
 44
1.0
 47
0.1
 48
0.1
 73
     0
 74
     0
 78
     8
 79
     2
140
3.5
141
0.0
143
0.0393701
146
0.71
147
1.5
172
     1
176
   256
177
   256
178
     2
271
     2
272
     3
274
     4
283
     0
284
     8
340
55
371
    -1
372
    -1
1001
ACAD_DSTYLE_DIMBREAK
1070
   391
1040
3.75
1001
ACAD_DSTYLE_DIMJAG
1070
   388
1040
1.5
1001
ACAD_DSTYLE_DIMARC_LENGTH_SYMBOL
1070
   379
1070
     1
1001
ACAD_DSTYLE_DIM_LINETYPE
1070
   380
1005
5B
1001
ACAD_DSTYLE_DIM_EXT1_LINETYPE
1070
   381
1005
5B
1001
ACAD_DSTYLE_DIM_EXT2_LINETYPE
1070
   382
1005
5B
  0
DIMSTYLE
105
22E3E
330
A
100
AcDbSymbolTableRecord
100
AcDbDimStyleTableRecord
  2
AM_ISO$7
 70
     0
  4
"
 41
3.5
 42
1.0
 43
10.0
 44
1.0
 47
0.1
 48
0.1
 73
     0
 74
     0
 77
     1
 78
     8
 79
     2
140
3.5
141
0.0
143
0.0393701
146
0.71
147
1.5
172
     1
176
   256
177
   256
178
     2
271
     2
272
     3
274
     4
283
     0
284
     8
340
55
371
    -1
372
    -1
1001
ACAD_DSTYLE_DIMBREAK
1070
   391
1040
3.75
1001
ACAD_DSTYLE_DIMJAG
1070
   388
1040
1.5
1001
ACAD_DSTYLE_DIMARC_LENGTH_SYMBOL
1070
   379
1070
     1
1001
ACAD_DSTYLE_DIM_LINETYPE
1070
   380
1005
5B
1001
ACAD_DSTYLE_DIM_EXT1_LINETYPE
1070
   381
1005
5B
1001
ACAD_DSTYLE_DIM_EXT2_LINETYPE
1070
   382
1005
5B
  0
DIMSTYLE
105
22E3F
330
A
100
AcDbSymbolTableRecord
100
AcDbDimStyleTableRecord
  2
AM_ISO$SF
 70
     0
  4
"
 41
3.5
 42
1.0
 43
10.0
 44
1.0
 47
0.1
 48
0.1
 73
     0
 74
     0
 75
     1
 76
     1
 77
     1
 78
     8
 79
     2
140
3.5
141
0.0
143
0.0393701
146
0.71
147
1.5
172
     1
176
   256
177
   256
178
     2
271
     2
272
     3
274
     4
283
     0
284
     8
340
55
371
    -1
372
    -1
1001
ACAD_DSTYLE_DIMBREAK
1070
   391
1040
3.75
1001
ACAD_DSTYLE_DIMJAG
1070
   388
1040
1.5
1001
ACAD_DSTYLE_DIMARC_LENGTH_SYMBOL
1070
   379
1070
     1
1001
ACAD_DSTYLE_DIM_LINETYPE
1070
   380
1005
5B
1001
ACAD_DSTYLE_DIM_EXT1_LINETYPE
1070
   381
1005
5B
1001
ACAD_DSTYLE_DIM_EXT2_LINETYPE
1070
   382
1005
5B
  0
DIMSTYLE
105
22E44
330
A
100
AcDbSymbolTableRecord
100
AcDbDimStyleTableRecord
  2
AM_ISO$SH
 70
     0
  4
"
 41
3.5
 42
1.0
 43
10.0
 44
1.0
 47
0.1
 48
0.1
 73
     0
 74
     0
 75
     1
 76
     1
 77
     1
 78
     8
 79
     2
140
3.5
141
0.0
143
0.0393701
144
2.0
146
0.71
147
1.5
172
     1
173
     1
176
   256
177
   256
178
     2
271
     2
272
     3
274
     4
283
     0
284
     8
340
55
343
22E40
371
    -1
372
    -1
1001
ACAD_DSTYLE_DIMBREAK
1070
   391
1040
3.75
1001
ACAD_DSTYLE_DIMJAG
1070
   388
1040
1.5
1001
ACAD_DSTYLE_DIMARC_LENGTH_SYMBOL
1070
   379
1070
     1
1001
ACAD_DSTYLE_DIM_LINETYPE
1070
   380
1005
5B
1001
ACAD_DSTYLE_DIM_EXT1_LINETYPE
1070
   381
1005
5B
1001
ACAD_DSTYLE_DIM_EXT2_LINETYPE
1070
   382
1005
5B
  0
DIMSTYLE
105
2FA9EB
330
A
100
AcDbSymbolTableRecord
100
AcDbDimStyleTableRecord
  2
Standard$0
 70
     0
340
55
1001
ACAD_DSTYLE_DIMBREAK
1070
   391
1040
3.75
1001
ACAD_DSTYLE_DIMJAG
1070
   388
1040
1.5
  0
ENDTAB
  0
TABLE
  2
BLOCK_RECORD
  5
1
330
0
100
AcDbSymbolTable
 70
     6
  0
BLOCK_RECORD
  5
6C
102
{ACAD_XDICTIONARY
360
2D669
102
}
330
1
100
AcDbSymbolTableRecord
100
AcDbBlockTableRecord
  2
*Model_Space
340
6F
  0
BLOCK_RECORD
  5
68
330
1
100
AcDbSymbolTableRecord
100
AcDbBlockTableRecord
  2
*Paper_Space
340
6B
  0
BLOCK_RECORD
  5
70
330
1
100
AcDbSymbolTableRecord
100
AcDbBlockTableRecord
  2
*Paper_Space0
340
73
  0
BLOCK_RECORD
  5
22E40
330
1
100
AcDbSymbolTableRecord
100
AcDbBlockTableRecord
  2
GENAXEH
340
0
  0
BLOCK_RECORD
  5
2F9D9A
102
{ACAD_XDICTIONARY
360
2FA2EE
102
}
330
1
100
AcDbSymbolTableRecord
100
AcDbBlockTableRecord
  2
gggr
340
0
310
2800000020000000200000000100080000000000000400000000000000000000000000000000000000000000000080000080000000808000800000008000800080800000C0C0C000C0DCC000F0CAA6000020400000206000002080000020A0000020C0000020E00000400000004020000040400000406000004080000040A0
310
000040C0000040E00000600000006020000060400000606000006080000060A0000060C0000060E00000800000008020000080400000806000008080000080A0000080C0000080E00000A0000000A0200000A0400000A0600000A0800000A0A00000A0C00000A0E00000C0000000C0200000C0400000C0600000C0800000C0
310
A00000C0C00000C0E00000E0000000E0200000E0400000E0600000E0800000E0A00000E0C00000E0E00040000000400020004000400040006000400080004000A0004000C0004000E00040200000402020004020400040206000402080004020A0004020C0004020E000404000004040200040404000404060004040800040
310
40A0004040C0004040E00040600000406020004060400040606000406080004060A0004060C0004060E00040800000408020004080400040806000408080004080A0004080C0004080E00040A0000040A0200040A0400040A0600040A0800040A0A00040A0C00040A0E00040C0000040C0200040C0400040C0600040C08000
310
40C0A00040C0C00040C0E00040E0000040E0200040E0400040E0600040E0800040E0A00040E0C00040E0E00080000000800020008000400080006000800080008000A0008000C0008000E00080200000802020008020400080206000802080008020A0008020C0008020E00080400000804020008040400080406000804080
310
008040A0008040C0008040E00080600000806020008060400080606000806080008060A0008060C0008060E00080800000808020008080400080806000808080008080A0008080C0008080E00080A0000080A0200080A0400080A0600080A0800080A0A00080A0C00080A0E00080C0000080C0200080C0400080C0600080C0
310
800080C0A00080C0C00080C0E00080E0000080E0200080E0400080E0600080E0800080E0A00080E0C00080E0E000C0000000C0002000C0004000C0006000C0008000C000A000C000C000C000E000C0200000C0202000C0204000C0206000C0208000C020A000C020C000C020E000C0400000C0402000C0404000C0406000C0
310
408000C040A000C040C000C040E000C0600000C0602000C0604000C0606000C0608000C060A000C060C000C060E000C0800000C0802000C0804000C0806000C0808000C080A000C080C000C080E000C0A00000C0A02000C0A04000C0A06000C0A08000C0A0A000C0A0C000C0A0E000C0C00000C0C02000C0C04000C0C06000
310
C0C08000C0C0A000F0FBFF00A4A0A000808080000000FF0000FF000000FFFF00FF000000FF00FF00FFFF0000FFFFFF0049494949494949494949494949494949494949494949494949494949494949494949494949494949494949494949494949494949494949494949494949494949494949494949494949494949494949
310
49494949494949494949494949494949494949494949494949494949494949494949494949494949494949494949494949494949494949494949494949494949494949494949494949494949494949494949494949494949494949494949494949494949494949494949494949494949494949494949494949494949494949
310
49494949494949494949494949494949494949494949494949494949494949494949494949494949494949494949494949494949494949494949494949494949494949494949494949494949494949494949494949494949494949494949494949494949494949494949494949494949494949494949494949494949494949
310
49494949494949494949494949494949494949494949494949494949494949494949494949494949494949494949494949494949FEFEFEFEF9FEFEFEFEFEFEFEFEFEFEFEFEFEFEFEFEFEFEFEFEF9FEFEFEFE4949FE494949F94949494949494949494949494949494949494949F9494949FE4949FE494949F9494949494949
310
4949494949494949494949494949F9494949FE4949FE494949F94949494949494949494949494949494949494949F9494949FE4949FE494949F94949494949494949494949494949494949494949F9494949FE4949FE494949F94949494949494949494949494949494949494949F9494949FE4949FE494949F94949494949
310
494949494949494949494949494949F9494949FE4949FEFEFEFEF9FEFEFEFEFEFEFEFEFEFEFEFEFEFEFEFEFEFEFEFEF9FEFEFEFE494949494949494949494949494949494949494949494949494949494949494949494949494949494949494949494949494949494949494949494949494949494949494949494949494949
310
49494949494949494949494949494949494949494949494949494949494949494949494949494949494949494949494949494949494949494949494949494949494949494949494949494949494949494949494949494949494949494949494949494949494949494949494949494949494949494949494949494949494949
310
49494949494949494949494949494949494949494949494949494949494949494949494949494949494949494949494949494949494949494949494949494949494949494949494949494949494949494949494949494949494949494949494949494949494949494949494949494949494949494949494949494949494949
310
4949494949494949494949494949494949494949494949494949494949494949494949494949494949494949494949494949494949494949
102
{BLKREFS
331
2FA886
331
2FA887
331
2FA888
331
2FA889
331
2FA88A
331
2FA88B
331
2FA88C
331
2FA88D
331
2FA88E
331
2FA88F
331
2FA890
331
2FA891
331
2FA892
331
2FA893
331
2FA894
331
2FA895
331
2FA896
331
2FA897
331
2FA898
331
2FA899
331
2FA89A
331
2FA89B
331
2FA89C
331
2FA89D
331
2FA89E
331
2FA89F
331
2FA8A0
331
2FA8A1
331
2FA8A2
331
2FA8A3
331
2FA8A4
331
2FA8A5
331
2FA8A6
331
2FA8A7
331
2FA8A8
331
2FA8A9
331
2FA8AA
331
2FA8AB
331
2FA8AC
331
2FA8AD
331
2FA8AE
331
2FA8AF
331
2FA8B0
331
2FA8B1
331
2FA8B2
331
2FA8B3
331
2FA8B4
331
2FA8B5
331
2FA8B6
331
2FA8B7
331
2FA8B8
331
2FA8B9
331
2FA8BA
331
2FA8BB
331
2FA8BC
331
2FA8BD
331
2FA8BE
331
2FA8BF
331
2FA8C0
331
2FA8C1
331
2FA8C2
331
2FA8C3
331
2FA8C4
331
2FA8C5
331
2FA8C6
331
2FA8C7
331
2FA8C8
331
2FA8C9
331
2FA8CA
331
2FA8CB
331
2FA8CC
331
2FA8CD
331
2FA8CE
331
2FA8CF
331
2FA8D0
331
2FA8D1
331
2FA8D2
331
2FA8D3
331
2FA8D4
331
2FA8D5
331
2FA8D6
331
2FA8D7
331
2FA8D8
331
2FA8D9
331
2FA8DA
331
2FA8DB
331
2FA8DC
331
2FA8DD
331
2FA8DE
331
2FA8DF
331
2FA8E0
331
2FA8E1
331
2FA8E2
331
2FA8E3
331
2FA8E4
331
2FA8E5
331
2FA8E6
331
2FA8E7
331
2FA8E8
331
2FA8E9
331
2FA8EA
331
2FA8EB
331
2FA8EC
331
2FA8ED
331
2FA8EE
331
2FA8EF
331
2FA8F0
331
2FA8F1
331
2FA8F2
331
2FA8F3
331
2FA8F4
331
2FA8F5
331
2FA8F6
331
2FA8F7
331
2FA8F8
331
2FA8F9
331
2FA8FA
331
2FA8FB
331
2FA8FC
331
2FA8FD
331
2FA8FE
331
2FA8FF
331
2FA900
331
2FA901
331
2FA902
331
2FA903
331
2FA904
331
2FA905
331
2FA906
331
2FA907
331
2FA908
331
2FA909
331
2FA90A
331
2FA90B
331
2FA90C
331
2FA90D
331
2FA90E
331
2FA90F
331
2FA910
331
2FA911
331
2FA912
331
2FA913
331
2FA914
331
2FA915
331
2FA916
331
2FA917
331
2FA918
331
2FA919
331
2FA91A
331
2FA91B
331
2FA91C
331
2FA91D
331
2FA91E
331
2FA91F
331
2FA920
331
2FA921
331
2FA922
331
2FA923
331
2FA924
331
2FA925
331
2FA926
331
2FA927
331
2FA928
331
2FA929
331
2FA92A
331
2FA92B
331
2FA92C
331
2FA92D
331
2FA92E
331
2FA92F
331
2FA930
331
2FA931
331
2FA932
331
2FA933
331
2FA934
331
2FA935
331
2FA936
331
2FA937
331
2FA938
331
2FA939
331
2FA93A
331
2FA93B
331
2FA93C
331
2FA93D
331
2FA93E
331
2FA93F
331
2FA940
331
2FA941
331
2FA942
331
2FA943
331
2FA944
331
2FA945
331
2FA946
331
2FA947
331
2FA948
331
2FA949
331
2FA94A
331
2FA94B
331
2FA94C
331
2FA94D
331
2FA94E
331
2FA94F
331
2FA950
331
2FA951
331
2FA952
331
2FA953
331
2FA954
331
2FA955
331
2FA956
331
2FA957
331
2FA958
331
2FA959
331
2FA95A
331
2FA95B
331
2FA95C
331
2FA989
331
2FA98A
331
2FA98B
331
2FA98C
331
2FA98D
331
2FA98E
331
2FA98F
331
2FA990
331
2FA991
331
2FA992
331
2FA993
331
2FA994
331
2FA995
331
2FA996
331
2FA99A
331
2FA99B
331
2FA99C
331
2FA99D
331
2FA99E
331
2FA99F
331
2FA9A0
331
2FA9A1
331
2FA9A2
331
2FA9A3
331
2FA9A4
331
2FA9A5
331
2FA9A6
331
2FA9A7
331
2FA9A8
331
2FA9A9
331
2FA9AA
331
2FA9AB
331
2FA9AC
331
2FA9AD
331
2FA9AE
331
2FA9AF
331
2FA9B0
331
2FA9B1
331
2FA9B2
331
2FA9B3
331
2FA9B4
331
2FA95D
331
2FA95E
331
2FA95F
331
2FA960
331
2FA961
331
2FA962
331
2FA963
331
2FA964
331
2FA965
331
2FA966
331
2FA967
331
2FA968
331
2FA969
331
2FA96A
331
2FA96B
331
2FA96C
331
2FA96D
331
2FA96E
331
2FA96F
331
2FA970
331
2FA971
331
2FA972
331
2FA973
331
2FA974
331
2FA975
331
2FA976
331
2FA977
331
2FA978
331
2FA979
331
2FA97A
331
2FA97B
331
2FA97C
331
2FA97D
331
2FA97E
331
2FA97F
331
2FA980
331
2FA981
331
2FA982
331
2FA983
331
2FA984
331
2FA985
331
2FA986
331
2FA987
331
2FA988
102
}
1001
ACAD
1000
DesignCenter Data
1002
{
1070
     1
1070
     4
1002
}
  0
BLOCK_RECORD
  5
2FA883
330
1
100
AcDbSymbolTableRecord
100
AcDbBlockTableRecord
  2
rterttt
340
0
310
2800000020000000200000000100080000000000000400000000000000000000000000000000000000000000000080000080000000808000800000008000800080800000C0C0C000C0DCC000F0CAA6000020400000206000002080000020A0000020C0000020E00000400000004020000040400000406000004080000040A0
310
000040C0000040E00000600000006020000060400000606000006080000060A0000060C0000060E00000800000008020000080400000806000008080000080A0000080C0000080E00000A0000000A0200000A0400000A0600000A0800000A0A00000A0C00000A0E00000C0000000C0200000C0400000C0600000C0800000C0
310
A00000C0C00000C0E00000E0000000E0200000E0400000E0600000E0800000E0A00000E0C00000E0E00040000000400020004000400040006000400080004000A0004000C0004000E00040200000402020004020400040206000402080004020A0004020C0004020E000404000004040200040404000404060004040800040
310
40A0004040C0004040E00040600000406020004060400040606000406080004060A0004060C0004060E00040800000408020004080400040806000408080004080A0004080C0004080E00040A0000040A0200040A0400040A0600040A0800040A0A00040A0C00040A0E00040C0000040C0200040C0400040C0600040C08000
310
40C0A00040C0C00040C0E00040E0000040E0200040E0400040E0600040E0800040E0A00040E0C00040E0E00080000000800020008000400080006000800080008000A0008000C0008000E00080200000802020008020400080206000802080008020A0008020C0008020E00080400000804020008040400080406000804080
310
008040A0008040C0008040E00080600000806020008060400080606000806080008060A0008060C0008060E00080800000808020008080400080806000808080008080A0008080C0008080E00080A0000080A0200080A0400080A0600080A0800080A0A00080A0C00080A0E00080C0000080C0200080C0400080C0600080C0
310
800080C0A00080C0C00080C0E00080E0000080E0200080E0400080E0600080E0800080E0A00080E0C00080E0E000C0000000C0002000C0004000C0006000C0008000C000A000C000C000C000E000C0200000C0202000C0204000C0206000C0208000C020A000C020C000C020E000C0400000C0402000C0404000C0406000C0
310
408000C040A000C040C000C040E000C0600000C0602000C0604000C0606000C0608000C060A000C060C000C060E000C0800000C0802000C0804000C0806000C0808000C080A000C080C000C080E000C0A00000C0A02000C0A04000C0A06000C0A08000C0A0A000C0A0C000C0A0E000C0C00000C0C02000C0C04000C0C06000
310
C0C08000C0C0A000F0FBFF00A4A0A000808080000000FF0000FF000000FFFF00FF000000FF00FF00FFFF0000FFFFFF0049494949494949494949494949494949494949494949494949494949494949494949FEFEFEFEFEFEFEFE49FEFEFEFEFEFEFEFEFEFE49FEFEFEFEFEFEFEFE494949FEFEFEFEFEFEFEFEFEFEFEFEFEFE
310
FEFEFEFEFEFEFEFEFEFEFEFEFEFEFEFE4949FEFEFEFEFEFEFEFEFEFEFEFEFEFEFEFEFEFEFEFEFEFEFEFEFEFEFEFEFEFE4949FEFEFEFEFEFEFEFEFEFEFEFEFEFEFEFEFEFEFEFEFEFEFEFEFEFEFEFEFEFE4949FEFEFEFEFEFEFEFEFEFEFEFEFEFEFEFEFEFEFEFEFEFEFEFEFEFEFEFEFEFE4949FEFEFEFEFEFEFEFEFEFEFEFEFE
310
FEFEFEFEFEFEFEFEFEFEFEFEFEFEFEFEFE4949FEFEFEFEFEFEFEFEFEFEFEFEFEFEFEFEFEFEFEFEFEFEFEFEFEFEFEFEFEFE4949FEFEFEFEFEFEFEFEFEFEFEFEFEFEFEFEFEFEFEFEFEFEFEFEFEFEFEFEFEFE4949FEFEFEFEFEFEFEFEFEFEFEFEFEFEFEFEFEFEFEFEFEFEFEFEFEFEFEFEFEFE4949FEFEFEFEFEFEFEFEFEFEFEFE
310
FEFEFEFEFEFEFEFEFEFEFEFEFEFEFEFEFEFE4949FEFEFEFEFEFEFEFEFEFEFEFEFEFEFEFEFEFEFEFEFEFEFEFEFEFEFEFEFEFE4949FEFEFEFEFEFEFEFEFEFEFEFEFEFEFEFEFEFEFEFEFEFEFEFEFEFEFEFEFEFE4949FEFEFEFEFEFEFEFEFEFEFEFEFEFEFEFEFEFEFEFEFEFEFEFEFEFEFEFEFEFE4949FEFEFEFEFEFEFEFEFEFEFE
310
FEFEFEFEFEFEFEFEFEFEFEFEFEFEFEFEFEFEFE4949FEFEFEFEFEFEFEFEFEFEFEFEFEFEFEFEFEFEFEFEFEFEFEFEFEFEFEFEFEFE4949FEFEFEFEFEFEFEFEFEFEFEFEFEFEFEFEFEFEFEFEFEFEFEFEFEFEFEFEFEFE4949FEFEFEFEFEFEFEFEFEFEFEFEFEFEFEFEFEFEFEFEFEFEFEFEFEFEFEFEFEFE4949FEFEFEFEFEFEFEFEFEFE
310
FEFEFEFEFEFEFEFEFEFEFEFEFEFEFEFEFEFEFEFE4949FEFEFEFEFEFEFEFEFEFEFEFEFEFEFEFEFEFEFEFEFEFEFEFEFEFEFEFEFEFE4949FEFEFEFEFEFEFEFEFEFEFEFEFEFEFEFEFEFEFEFEFEFEFEFEFEFEFEFEFEFE4949FEFEFEFEFEFEFEFEFEFEFEFEFEFEFEFEFEFEFEFEFEFEFEFEFEFEFEFEFEFE4949FEFEFEFEFEFEFEFEFE
310
FEFEFEFEFEFEFEFEFEFEFEFEFEFEFEFEFEFEFEFEFE4949FEFEFEFEFEFEFEFEFEFEFEFEFEFEFEFEFEFEFEFEFEFEFEFEFEFEFEFEFEFE4949FEFEFEFEFEFEFEFEFEFEFEFEFEFEFEFEFEFEFEFEFEFEFEFEFEFEFEFEFEFE4949FEFEFEFEFEFEFEFEFEFEFEFEFEFEFEFEFEFEFEFEFEFEFEFEFEFEFEFEFEFE4949FEFEFEFEFEFEFEFE
310
FEFEFEFEFEFEFEFEFEFEFEFEFEFEFEFEFEFEFEFEFEFE4949FEFEFEFEFEFEFEFEFEFEFEFEFEFEFEFEFEFEFEFEFEFEFEFEFEFEFEFEFEFE4949FEFEFEFEFEFEFEFEFEFEFEFEFEFEFEFEFEFEFEFEFEFEFEFEFEFEFEFEFEFE4949FEFEFEFEFEFEFEFEFEFEFEFEFEFEFEFEFEFEFEFEFEFEFEFEFEFEFEFEFEFE4949FEFEFEFEFEFEFE
310
FEFEFEFEFEFEFEFEFEFEFEFEFEFEFEFEFEFEFEFEFEFEFE494949494949494949494949494949494949494949494949494949494949494949
102
{BLKREFS
331
2FA9DE
102
}
1001
ACAD
1000
DesignCenter Data
1002
{
1070
     1
1070
     4
1002
}
  0
ENDTAB
  0
ENDSEC
  0
SECTION
  2
BLOCKS
  0
BLOCK
  5
6D
330
6C
100
AcDbEntity
  8
0
100
AcDbBlockBegin
  2
*Model_Space
 70
     0
 10
0.0
 20
0.0
 30
0.0
  3
*Model_Space
  1

  0
ENDBLK
  5
6E
330
6C
100
AcDbEntity
  8
0
100
AcDbBlockEnd
  0
BLOCK
  5
69
330
68
100
AcDbEntity
 67
     1
  8
0
100
AcDbBlockBegin
  2
*Paper_Space
 70
     0
 10
0.0
 20
0.0
 30
0.0
  3
*Paper_Space
  1

  0
ENDBLK
  5
6A
330
68
100
AcDbEntity
 67
     1
  8
0
100
AcDbBlockEnd
  0
BLOCK
  5
71
330
70
100
AcDbEntity
 67
     1
  8
0
100
AcDbBlockBegin
  2
*Paper_Space0
 70
     0
 10
0.0
 20
0.0
 30
0.0
  3
*Paper_Space0
  1

  0
ENDBLK
  5
72
330
70
100
AcDbEntity
 67
     1
  8
0
100
AcDbBlockEnd
  0
BLOCK
  5
22E42
330
22E40
100
AcDbEntity
  8
0
100
AcDbBlockBegin
  2
GENAXEH
 70
     0
 10
0.0
 20
0.0
 30
0.0
  3
GENAXEH
  1

  0
LINE
  5
22E41
330
22E40
100
AcDbEntity
  8
0
100
AcDbLine
 10
-1.0
 20
0.0
 30
0.0
 11
1.0
 21
0.0
 31
0.0
  0
ENDBLK
  5
22E43
330
22E40
100
AcDbEntity
  8
0
100
AcDbBlockEnd
  0
BLOCK
  5
2F9D9B
330
2F9D9A
100
AcDbEntity
  8
0
 62
     4
100
AcDbBlockBegin
  2
gggr
 70
     0
 10
0.0
 20
0.0
 30
0.0
  3
gggr
  1

  0
LINE
  5
2F9D9C
330
2F9D9A
100
AcDbEntity
  8
0
 62
     4
100
AcDbLine
 10
17916.25157304843
 20
957.0037572179572
 30
0.0
 11
18007.25157304843
 21
957.0037572179572
 31
0.0
  0
LINE
  5
2F9D9D
330
2F9D9A
100
AcDbEntity
  8
0
 62
     4
100
AcDbLine
 10
18007.25157304843
 20
957.0037572179572
 30
0.0
 11
18007.25157304843
 21
932.0037572179572
 31
0.0
  0
LINE
  5
2F9D9E
330
2F9D9A
100
AcDbEntity
  8
0
 62
     4
100
AcDbLine
 10
18007.25157304843
 20
932.0037572179572
 30
0.0
 11
17916.25157304843
 21
932.0037572179572
 31
0.0
  0
LINE
  5
2F9D9F
330
2F9D9A
100
AcDbEntity
  8
0
 62
     4
100
AcDbLine
 10
17916.25157304843
 20
932.0037572179572
 30
0.0
 11
17916.25157304843
 21
957.0037572179572
 31
0.0
  0
ENDBLK
  5
2F9DA2
330
2F9D9A
100
AcDbEntity
  8
0
 62
     4
100
AcDbBlockEnd
  0
BLOCK
  5
2FA884
330
2FA883
100
AcDbEntity
  8
0
100
AcDbBlockBegin
  2
rterttt
 70
     0
 10
0.0
 20
0.0
 30
0.0
  3
rterttt
  1

  0
INSERT
  5
2FA886
330
2FA883
100
AcDbEntity
  8
0
 62
     7
100
AcDbBlockReference
  2
gggr
 10
-31931.06533545444
 20
-1147.051823908612
 30
0.0
  0
INSERT
  5
2FA887
330
2FA883
100
AcDbEntity
  8
0
 62
     7
100
AcDbBlockReference
  2
gggr
 10
-31866.06533545444
 20
-1172.051823908612
 30
0.0
  0
INSERT
  5
2FA888
330
2FA883
100
AcDbEntity
  8
0
 62
     7
100
AcDbBlockReference
  2
gggr
 10
-31931.06533545444
 20
-1197.051823908612
 30
0.0
  0
INSERT
  5
2FA889
330
2FA883
100
AcDbEntity
  8
0
 62
     7
100
AcDbBlockReference
  2
gggr
 10
-31866.06533545444
 20
-1222.051823908612
 30
0.0
  0
INSERT
  5
2FA88A
330
2FA883
100
AcDbEntity
  8
0
 62
     7
100
AcDbBlockReference
  2
gggr
 10
-31931.06533545444
 20
-1247.051823908612
 30
0.0
  0
INSERT
  5
2FA88B
330
2FA883
100
AcDbEntity
  8
0
 62
     7
100
AcDbBlockReference
  2
gggr
 10
-31866.06533545444
 20
-1272.051823908612
 30
0.0
  0
INSERT
  5
2FA88C
330
2FA883
100
AcDbEntity
  8
0
 62
     7
100
AcDbBlockReference
  2
gggr
 10
-31931.06533545444
 20
-1297.051823908612
 30
0.0
  0
INSERT
  5
2FA88D
330
2FA883
100
AcDbEntity
  8
0
 62
     7
100
AcDbBlockReference
  2
gggr
 10
-31866.06533545444
 20
-1322.051823908612
 30
0.0
  0
INSERT
  5
2FA88E
330
2FA883
100
AcDbEntity
  8
0
 62
     7
100
AcDbBlockReference
  2
gggr
 10
-31931.06533545444
 20
-1347.051823908612
 30
0.0
  0
INSERT
  5
2FA88F
330
2FA883
100
AcDbEntity
  8
0
 62
     7
100
AcDbBlockReference
  2
gggr
 10
-31866.06533545444
 20
-1372.051823908612
 30
0.0
  0
INSERT
  5
2FA890
330
2FA883
100
AcDbEntity
  8
0
 62
     7
100
AcDbBlockReference
  2
gggr
 10
-31931.06533545444
 20
-1397.051823908612
 30
0.0
  0
INSERT
  5
2FA891
330
2FA883
100
AcDbEntity
  8
0
 62
     7
100
AcDbBlockReference
  2
gggr
 10
-31866.06533545444
 20
-1422.051823908612
 30
0.0
  0
INSERT
  5
2FA892
330
2FA883
100
AcDbEntity
  8
0
 62
     7
100
AcDbBlockReference
  2
gggr
 10
-31931.06533545444
 20
-1447.051823908612
 30
0.0
  0
INSERT
  5
2FA893
330
2FA883
100
AcDbEntity
  8
0
 62
     7
100
AcDbBlockReference
  2
gggr
 10
-31866.06533545444
 20
-1472.051823908612
 30
0.0
  0
INSERT
  5
2FA894
330
2FA883
100
AcDbEntity
  8
0
 62
     7
100
AcDbBlockReference
  2
gggr
 10
-31931.06533545444
 20
-1497.051823908612
 30
0.0
  0
INSERT
  5
2FA895
330
2FA883
100
AcDbEntity
  8
0
 62
     7
100
AcDbBlockReference
  2
gggr
 10
-31866.06533545444
 20
-1522.051823908612
 30
0.0
  0
INSERT
  5
2FA896
330
2FA883
100
AcDbEntity
  8
0
 62
     7
100
AcDbBlockReference
  2
gggr
 10
-31931.06533545444
 20
-1547.051823908612
 30
0.0
  0
INSERT
  5
2FA897
330
2FA883
100
AcDbEntity
  8
0
 62
     7
100
AcDbBlockReference
  2
gggr
 10
-31866.06533545444
 20
-1572.051823908612
 30
0.0
  0
INSERT
  5
2FA898
330
2FA883
100
AcDbEntity
  8
0
 62
     7
100
AcDbBlockReference
  2
gggr
 10
-31931.06533545444
 20
-1597.051823908612
 30
0.0
  0
INSERT
  5
2FA899
330
2FA883
100
AcDbEntity
  8
0
 62
     7
100
AcDbBlockReference
  2
gggr
 10
-31866.06533545444
 20
-1622.051823908612
 30
0.0
  0
INSERT
  5
2FA89A
330
2FA883
100
AcDbEntity
  8
0
 62
     7
100
AcDbBlockReference
  2
gggr
 10
-31931.06533545444
 20
-1647.051823908612
 30
0.0
  0
INSERT
  5
2FA89B
330
2FA883
100
AcDbEntity
  8
0
 62
     7
100
AcDbBlockReference
  2
gggr
 10
-31866.06533545444
 20
-1672.051823908612
 30
0.0
  0
INSERT
  5
2FA89C
330
2FA883
100
AcDbEntity
  8
0
 62
     7
100
AcDbBlockReference
  2
gggr
 10
-31931.06533545444
 20
-1697.051823908612
 30
0.0
  0
INSERT
  5
2FA89D
330
2FA883
100
AcDbEntity
  8
0
 62
     7
100
AcDbBlockReference
  2
gggr
 10
-31866.06533545444
 20
-1722.051823908612
 30
0.0
  0
INSERT
  5
2FA89E
330
2FA883
100
AcDbEntity
  8
0
 62
     7
100
AcDbBlockReference
  2
gggr
 10
-31931.06533545444
 20
-1747.051823908612
 30
0.0
  0
INSERT
  5
2FA89F
330
2FA883
100
AcDbEntity
  8
0
 62
     7
100
AcDbBlockReference
  2
gggr
 10
-31866.06533545444
 20
-1772.051823908612
 30
0.0
  0
INSERT
  5
2FA8A0
330
2FA883
100
AcDbEntity
  8
0
 62
     7
100
AcDbBlockReference
  2
gggr
 10
-31931.06533545444
 20
-1797.051823908612
 30
0.0
  0
INSERT
  5
2FA8A1
330
2FA883
100
AcDbEntity
  8
0
 62
     7
100
AcDbBlockReference
  2
gggr
 10
-31866.06533545444
 20
-1822.051823908612
 30
0.0
  0
INSERT
  5
2FA8A2
330
2FA883
100
AcDbEntity
  8
0
 62
     7
100
AcDbBlockReference
  2
gggr
 10
-31801.06533545444
 20
-1147.051823908612
 30
0.0
  0
INSERT
  5
2FA8A3
330
2FA883
100
AcDbEntity
  8
0
 62
     7
100
AcDbBlockReference
  2
gggr
 10
-31736.06533545444
 20
-1172.051823908612
 30
0.0
  0
INSERT
  5
2FA8A4
330
2FA883
100
AcDbEntity
  8
0
 62
     7
100
AcDbBlockReference
  2
gggr
 10
-31801.06533545444
 20
-1197.051823908612
 30
0.0
  0
INSERT
  5
2FA8A5
330
2FA883
100
AcDbEntity
  8
0
 62
     7
100
AcDbBlockReference
  2
gggr
 10
-31736.06533545444
 20
-1222.051823908612
 30
0.0
  0
INSERT
  5
2FA8A6
330
2FA883
100
AcDbEntity
  8
0
 62
     7
100
AcDbBlockReference
  2
gggr
 10
-31801.06533545444
 20
-1247.051823908612
 30
0.0
  0
INSERT
  5
2FA8A7
330
2FA883
100
AcDbEntity
  8
0
 62
     7
100
AcDbBlockReference
  2
gggr
 10
-31736.06533545444
 20
-1272.051823908612
 30
0.0
  0
INSERT
  5
2FA8A8
330
2FA883
100
AcDbEntity
  8
0
 62
     7
100
AcDbBlockReference
  2
gggr
 10
-31801.06533545444
 20
-1297.051823908612
 30
0.0
  0
INSERT
  5
2FA8A9
330
2FA883
100
AcDbEntity
  8
0
 62
     7
100
AcDbBlockReference
  2
gggr
 10
-31736.06533545444
 20
-1322.051823908612
 30
0.0
  0
INSERT
  5
2FA8AA
330
2FA883
100
AcDbEntity
  8
0
 62
     7
100
AcDbBlockReference
  2
gggr
 10
-31801.06533545444
 20
-1347.051823908612
 30
0.0
  0
INSERT
  5
2FA8AB
330
2FA883
100
AcDbEntity
  8
0
 62
     7
100
AcDbBlockReference
  2
gggr
 10
-31736.06533545444
 20
-1372.051823908612
 30
0.0
  0
INSERT
  5
2FA8AC
330
2FA883
100
AcDbEntity
  8
0
 62
     7
100
AcDbBlockReference
  2
gggr
 10
-31801.06533545444
 20
-1397.051823908612
 30
0.0
  0
INSERT
  5
2FA8AD
330
2FA883
100
AcDbEntity
  8
0
 62
     7
100
AcDbBlockReference
  2
gggr
 10
-31736.06533545444
 20
-1422.051823908612
 30
0.0
  0
INSERT
  5
2FA8AE
330
2FA883
100
AcDbEntity
  8
0
 62
     7
100
AcDbBlockReference
  2
gggr
 10
-31801.06533545444
 20
-1447.051823908612
 30
0.0
  0
INSERT
  5
2FA8AF
330
2FA883
100
AcDbEntity
  8
0
 62
     7
100
AcDbBlockReference
  2
gggr
 10
-31736.06533545444
 20
-1472.051823908612
 30
0.0
  0
INSERT
  5
2FA8B0
330
2FA883
100
AcDbEntity
  8
0
 62
     7
100
AcDbBlockReference
  2
gggr
 10
-31801.06533545444
 20
-1497.051823908612
 30
0.0
  0
INSERT
  5
2FA8B1
330
2FA883
100
AcDbEntity
  8
0
 62
     7
100
AcDbBlockReference
  2
gggr
 10
-31736.06533545444
 20
-1522.051823908612
 30
0.0
  0
INSERT
  5
2FA8B2
330
2FA883
100
AcDbEntity
  8
0
 62
     7
100
AcDbBlockReference
  2
gggr
 10
-31801.06533545444
 20
-1547.051823908612
 30
0.0
  0
INSERT
  5
2FA8B3
330
2FA883
100
AcDbEntity
  8
0
 62
     7
100
AcDbBlockReference
  2
gggr
 10
-31736.06533545444
 20
-1572.051823908612
 30
0.0
  0
INSERT
  5
2FA8B4
330
2FA883
100
AcDbEntity
  8
0
 62
     7
100
AcDbBlockReference
  2
gggr
 10
-31801.06533545444
 20
-1597.051823908612
 30
0.0
  0
INSERT
  5
2FA8B5
330
2FA883
100
AcDbEntity
  8
0
 62
     7
100
AcDbBlockReference
  2
gggr
 10
-31736.06533545444
 20
-1622.051823908612
 30
0.0
  0
INSERT
  5
2FA8B6
330
2FA883
100
AcDbEntity
  8
0
 62
     7
100
AcDbBlockReference
  2
gggr
 10
-31801.06533545444
 20
-1647.051823908612
 30
0.0
  0
INSERT
  5
2FA8B7
330
2FA883
100
AcDbEntity
  8
0
 62
     7
100
AcDbBlockReference
  2
gggr
 10
-31736.06533545444
 20
-1672.051823908612
 30
0.0
  0
INSERT
  5
2FA8B8
330
2FA883
100
AcDbEntity
  8
0
 62
     7
100
AcDbBlockReference
  2
gggr
 10
-31801.06533545444
 20
-1697.051823908612
 30
0.0
  0
INSERT
  5
2FA8B9
330
2FA883
100
AcDbEntity
  8
0
 62
     7
100
AcDbBlockReference
  2
gggr
 10
-31736.06533545444
 20
-1722.051823908612
 30
0.0
  0
INSERT
  5
2FA8BA
330
2FA883
100
AcDbEntity
  8
0
 62
     7
100
AcDbBlockReference
  2
gggr
 10
-31801.06533545444
 20
-1747.051823908612
 30
0.0
  0
INSERT
  5
2FA8BB
330
2FA883
100
AcDbEntity
  8
0
 62
     7
100
AcDbBlockReference
  2
gggr
 10
-31736.06533545444
 20
-1772.051823908612
 30
0.0
  0
INSERT
  5
2FA8BC
330
2FA883
100
AcDbEntity
  8
0
 62
     7
100
AcDbBlockReference
  2
gggr
 10
-31801.06533545444
 20
-1797.051823908612
 30
0.0
  0
INSERT
  5
2FA8BD
330
2FA883
100
AcDbEntity
  8
0
 62
     7
100
AcDbBlockReference
  2
gggr
 10
-31736.06533545444
 20
-1822.051823908612
 30
0.0
  0
INSERT
  5
2FA8BE
330
2FA883
100
AcDbEntity
  8
0
 62
     7
100
AcDbBlockReference
  2
gggr
 10
-31671.06533545443
 20
-1147.051823908612
 30
0.0
  0
INSERT
  5
2FA8BF
330
2FA883
100
AcDbEntity
  8
0
 62
     7
100
AcDbBlockReference
  2
gggr
 10
-31606.06533545443
 20
-1172.051823908612
 30
0.0
  0
INSERT
  5
2FA8C0
330
2FA883
100
AcDbEntity
  8
0
 62
     7
100
AcDbBlockReference
  2
gggr
 10
-31671.06533545443
 20
-1197.051823908612
 30
0.0
  0
INSERT
  5
2FA8C1
330
2FA883
100
AcDbEntity
  8
0
 62
     7
100
AcDbBlockReference
  2
gggr
 10
-31606.06533545443
 20
-1222.051823908612
 30
0.0
  0
INSERT
  5
2FA8C2
330
2FA883
100
AcDbEntity
  8
0
 62
     7
100
AcDbBlockReference
  2
gggr
 10
-31671.06533545443
 20
-1247.051823908612
 30
0.0
  0
INSERT
  5
2FA8C3
330
2FA883
100
AcDbEntity
  8
0
 62
     7
100
AcDbBlockReference
  2
gggr
 10
-31606.06533545443
 20
-1272.051823908612
 30
0.0
  0
INSERT
  5
2FA8C4
330
2FA883
100
AcDbEntity
  8
0
 62
     7
100
AcDbBlockReference
  2
gggr
 10
-31671.06533545443
 20
-1297.051823908612
 30
0.0
  0
INSERT
  5
2FA8C5
330
2FA883
100
AcDbEntity
  8
0
 62
     7
100
AcDbBlockReference
  2
gggr
 10
-31606.06533545443
 20
-1322.051823908612
 30
0.0
  0
INSERT
  5
2FA8C6
330
2FA883
100
AcDbEntity
  8
0
 62
     7
100
AcDbBlockReference
  2
gggr
 10
-31671.06533545443
 20
-1347.051823908612
 30
0.0
  0
INSERT
  5
2FA8C7
330
2FA883
100
AcDbEntity
  8
0
 62
     7
100
AcDbBlockReference
  2
gggr
 10
-31606.06533545443
 20
-1372.051823908612
 30
0.0
  0
INSERT
  5
2FA8C8
330
2FA883
100
AcDbEntity
  8
0
 62
     7
100
AcDbBlockReference
  2
gggr
 10
-31671.06533545443
 20
-1397.051823908612
 30
0.0
  0
INSERT
  5
2FA8C9
330
2FA883
100
AcDbEntity
  8
0
 62
     7
100
AcDbBlockReference
  2
gggr
 10
-31606.06533545443
 20
-1422.051823908612
 30
0.0
  0
INSERT
  5
2FA8CA
330
2FA883
100
AcDbEntity
  8
0
 62
     7
100
AcDbBlockReference
  2
gggr
 10
-31671.06533545443
 20
-1447.051823908612
 30
0.0
  0
INSERT
  5
2FA8CB
330
2FA883
100
AcDbEntity
  8
0
 62
     7
100
AcDbBlockReference
  2
gggr
 10
-31606.06533545443
 20
-1472.051823908612
 30
0.0
  0
INSERT
  5
2FA8CC
330
2FA883
100
AcDbEntity
  8
0
 62
     7
100
AcDbBlockReference
  2
gggr
 10
-31671.06533545443
 20
-1497.051823908612
 30
0.0
  0
INSERT
  5
2FA8CD
330
2FA883
100
AcDbEntity
  8
0
 62
     7
100
AcDbBlockReference
  2
gggr
 10
-31606.06533545443
 20
-1522.051823908612
 30
0.0
  0
INSERT
  5
2FA8CE
330
2FA883
100
AcDbEntity
  8
0
 62
     7
100
AcDbBlockReference
  2
gggr
 10
-31671.06533545443
 20
-1547.051823908612
 30
0.0
  0
INSERT
  5
2FA8CF
330
2FA883
100
AcDbEntity
  8
0
 62
     7
100
AcDbBlockReference
  2
gggr
 10
-31606.06533545443
 20
-1572.051823908612
 30
0.0
  0
INSERT
  5
2FA8D0
330
2FA883
100
AcDbEntity
  8
0
 62
     7
100
AcDbBlockReference
  2
gggr
 10
-31671.06533545443
 20
-1597.051823908612
 30
0.0
  0
INSERT
  5
2FA8D1
330
2FA883
100
AcDbEntity
  8
0
 62
     7
100
AcDbBlockReference
  2
gggr
 10
-31606.06533545443
 20
-1622.051823908612
 30
0.0
  0
INSERT
  5
2FA8D2
330
2FA883
100
AcDbEntity
  8
0
 62
     7
100
AcDbBlockReference
  2
gggr
 10
-31671.06533545443
 20
-1647.051823908612
 30
0.0
  0
INSERT
  5
2FA8D3
330
2FA883
100
AcDbEntity
  8
0
 62
     7
100
AcDbBlockReference
  2
gggr
 10
-31606.06533545443
 20
-1672.051823908612
 30
0.0
  0
INSERT
  5
2FA8D4
330
2FA883
100
AcDbEntity
  8
0
 62
     7
100
AcDbBlockReference
  2
gggr
 10
-31671.06533545443
 20
-1697.051823908612
 30
0.0
  0
INSERT
  5
2FA8D5
330
2FA883
100
AcDbEntity
  8
0
 62
     7
100
AcDbBlockReference
  2
gggr
 10
-31606.06533545443
 20
-1722.051823908612
 30
0.0
  0
INSERT
  5
2FA8D6
330
2FA883
100
AcDbEntity
  8
0
 62
     7
100
AcDbBlockReference
  2
gggr
 10
-31671.06533545443
 20
-1747.051823908612
 30
0.0
  0
INSERT
  5
2FA8D7
330
2FA883
100
AcDbEntity
  8
0
 62
     7
100
AcDbBlockReference
  2
gggr
 10
-31606.06533545443
 20
-1772.051823908612
 30
0.0
  0
INSERT
  5
2FA8D8
330
2FA883
100
AcDbEntity
  8
0
 62
     7
100
AcDbBlockReference
  2
gggr
 10
-31671.06533545443
 20
-1797.051823908612
 30
0.0
  0
INSERT
  5
2FA8D9
330
2FA883
100
AcDbEntity
  8
0
 62
     7
100
AcDbBlockReference
  2
gggr
 10
-31606.06533545443
 20
-1822.051823908612
 30
0.0
  0
INSERT
  5
2FA8DA
330
2FA883
100
AcDbEntity
  8
0
 62
     7
100
AcDbBlockReference
  2
gggr
 10
-31541.06533545443
 20
-1147.051823908612
 30
0.0
  0
INSERT
  5
2FA8DB
330
2FA883
100
AcDbEntity
  8
0
 62
     7
100
AcDbBlockReference
  2
gggr
 10
-31476.06533545443
 20
-1172.051823908612
 30
0.0
  0
INSERT
  5
2FA8DC
330
2FA883
100
AcDbEntity
  8
0
 62
     7
100
AcDbBlockReference
  2
gggr
 10
-31541.06533545443
 20
-1197.051823908612
 30
0.0
  0
INSERT
  5
2FA8DD
330
2FA883
100
AcDbEntity
  8
0
 62
     7
100
AcDbBlockReference
  2
gggr
 10
-31476.06533545443
 20
-1222.051823908612
 30
0.0
  0
INSERT
  5
2FA8DE
330
2FA883
100
AcDbEntity
  8
0
 62
     7
100
AcDbBlockReference
  2
gggr
 10
-31541.06533545443
 20
-1247.051823908612
 30
0.0
  0
INSERT
  5
2FA8DF
330
2FA883
100
AcDbEntity
  8
0
 62
     7
100
AcDbBlockReference
  2
gggr
 10
-31476.06533545443
 20
-1272.051823908612
 30
0.0
  0
INSERT
  5
2FA8E0
330
2FA883
100
AcDbEntity
  8
0
 62
     7
100
AcDbBlockReference
  2
gggr
 10
-31541.06533545443
 20
-1297.051823908612
 30
0.0
  0
INSERT
  5
2FA8E1
330
2FA883
100
AcDbEntity
  8
0
 62
     7
100
AcDbBlockReference
  2
gggr
 10
-31476.06533545443
 20
-1322.051823908612
 30
0.0
  0
INSERT
  5
2FA8E2
330
2FA883
100
AcDbEntity
  8
0
 62
     7
100
AcDbBlockReference
  2
gggr
 10
-31541.06533545443
 20
-1347.051823908612
 30
0.0
  0
INSERT
  5
2FA8E3
330
2FA883
100
AcDbEntity
  8
0
 62
     7
100
AcDbBlockReference
  2
gggr
 10
-31476.06533545443
 20
-1372.051823908612
 30
0.0
  0
INSERT
  5
2FA8E4
330
2FA883
100
AcDbEntity
  8
0
 62
     7
100
AcDbBlockReference
  2
gggr
 10
-31541.06533545443
 20
-1397.051823908612
 30
0.0
  0
INSERT
  5
2FA8E5
330
2FA883
100
AcDbEntity
  8
0
 62
     7
100
AcDbBlockReference
  2
gggr
 10
-31476.06533545443
 20
-1422.051823908612
 30
0.0
  0
INSERT
  5
2FA8E6
330
2FA883
100
AcDbEntity
  8
0
 62
     7
100
AcDbBlockReference
  2
gggr
 10
-31541.06533545443
 20
-1447.051823908612
 30
0.0
  0
INSERT
  5
2FA8E7
330
2FA883
100
AcDbEntity
  8
0
 62
     7
100
AcDbBlockReference
  2
gggr
 10
-31476.06533545443
 20
-1472.051823908612
 30
0.0
  0
INSERT
  5
2FA8E8
330
2FA883
100
AcDbEntity
  8
0
 62
     7
100
AcDbBlockReference
  2
gggr
 10
-31541.06533545443
 20
-1497.051823908612
 30
0.0
  0
INSERT
  5
2FA8E9
330
2FA883
100
AcDbEntity
  8
0
 62
     7
100
AcDbBlockReference
  2
gggr
 10
-31476.06533545443
 20
-1522.051823908612
 30
0.0
  0
INSERT
  5
2FA8EA
330
2FA883
100
AcDbEntity
  8
0
 62
     7
100
AcDbBlockReference
  2
gggr
 10
-31541.06533545443
 20
-1547.051823908612
 30
0.0
  0
INSERT
  5
2FA8EB
330
2FA883
100
AcDbEntity
  8
0
 62
     7
100
AcDbBlockReference
  2
gggr
 10
-31476.06533545443
 20
-1572.051823908612
 30
0.0
  0
INSERT
  5
2FA8EC
330
2FA883
100
AcDbEntity
  8
0
 62
     7
100
AcDbBlockReference
  2
gggr
 10
-31541.06533545443
 20
-1597.051823908612
 30
0.0
  0
INSERT
  5
2FA8ED
330
2FA883
100
AcDbEntity
  8
0
 62
     7
100
AcDbBlockReference
  2
gggr
 10
-31476.06533545443
 20
-1622.051823908612
 30
0.0
  0
INSERT
  5
2FA8EE
330
2FA883
100
AcDbEntity
  8
0
 62
     7
100
AcDbBlockReference
  2
gggr
 10
-31541.06533545443
 20
-1647.051823908612
 30
0.0
  0
INSERT
  5
2FA8EF
330
2FA883
100
AcDbEntity
  8
0
 62
     7
100
AcDbBlockReference
  2
gggr
 10
-31476.06533545443
 20
-1672.051823908612
 30
0.0
  0
INSERT
  5
2FA8F0
330
2FA883
100
AcDbEntity
  8
0
 62
     7
100
AcDbBlockReference
  2
gggr
 10
-31541.06533545443
 20
-1697.051823908612
 30
0.0
  0
INSERT
  5
2FA8F1
330
2FA883
100
AcDbEntity
  8
0
 62
     7
100
AcDbBlockReference
  2
gggr
 10
-31476.06533545443
 20
-1722.051823908612
 30
0.0
  0
INSERT
  5
2FA8F2
330
2FA883
100
AcDbEntity
  8
0
 62
     7
100
AcDbBlockReference
  2
gggr
 10
-31541.06533545443
 20
-1747.051823908612
 30
0.0
  0
INSERT
  5
2FA8F3
330
2FA883
100
AcDbEntity
  8
0
 62
     7
100
AcDbBlockReference
  2
gggr
 10
-31476.06533545443
 20
-1772.051823908612
 30
0.0
  0
INSERT
  5
2FA8F4
330
2FA883
100
AcDbEntity
  8
0
 62
     7
100
AcDbBlockReference
  2
gggr
 10
-31541.06533545443
 20
-1797.051823908612
 30
0.0
  0
INSERT
  5
2FA8F5
330
2FA883
100
AcDbEntity
  8
0
 62
     7
100
AcDbBlockReference
  2
gggr
 10
-31476.06533545443
 20
-1822.051823908612
 30
0.0
  0
INSERT
  5
2FA8F6
330
2FA883
100
AcDbEntity
  8
0
 62
     7
100
AcDbBlockReference
  2
gggr
 10
-31411.06533545444
 20
-1147.051823908612
 30
0.0
  0
INSERT
  5
2FA8F7
330
2FA883
100
AcDbEntity
  8
0
 62
     7
100
AcDbBlockReference
  2
gggr
 10
-31346.06533545444
 20
-1172.051823908612
 30
0.0
  0
INSERT
  5
2FA8F8
330
2FA883
100
AcDbEntity
  8
0
 62
     7
100
AcDbBlockReference
  2
gggr
 10
-31411.06533545444
 20
-1197.051823908612
 30
0.0
  0
INSERT
  5
2FA8F9
330
2FA883
100
AcDbEntity
  8
0
 62
     7
100
AcDbBlockReference
  2
gggr
 10
-31346.06533545444
 20
-1222.051823908612
 30
0.0
  0
INSERT
  5
2FA8FA
330
2FA883
100
AcDbEntity
  8
0
 62
     7
100
AcDbBlockReference
  2
gggr
 10
-31411.06533545444
 20
-1247.051823908612
 30
0.0
  0
INSERT
  5
2FA8FB
330
2FA883
100
AcDbEntity
  8
0
 62
     7
100
AcDbBlockReference
  2
gggr
 10
-31346.06533545444
 20
-1272.051823908612
 30
0.0
  0
INSERT
  5
2FA8FC
330
2FA883
100
AcDbEntity
  8
0
 62
     7
100
AcDbBlockReference
  2
gggr
 10
-31411.06533545444
 20
-1297.051823908612
 30
0.0
  0
INSERT
  5
2FA8FD
330
2FA883
100
AcDbEntity
  8
0
 62
     7
100
AcDbBlockReference
  2
gggr
 10
-31346.06533545444
 20
-1322.051823908612
 30
0.0
  0
INSERT
  5
2FA8FE
330
2FA883
100
AcDbEntity
  8
0
 62
     7
100
AcDbBlockReference
  2
gggr
 10
-31411.06533545444
 20
-1347.051823908612
 30
0.0
  0
INSERT
  5
2FA8FF
330
2FA883
100
AcDbEntity
  8
0
 62
     7
100
AcDbBlockReference
  2
gggr
 10
-31346.06533545444
 20
-1372.051823908612
 30
0.0
  0
INSERT
  5
2FA900
330
2FA883
100
AcDbEntity
  8
0
 62
     7
100
AcDbBlockReference
  2
gggr
 10
-31411.06533545444
 20
-1397.051823908612
 30
0.0
  0
INSERT
  5
2FA901
330
2FA883
100
AcDbEntity
  8
0
 62
     7
100
AcDbBlockReference
  2
gggr
 10
-31346.06533545444
 20
-1422.051823908612
 30
0.0
  0
INSERT
  5
2FA902
330
2FA883
100
AcDbEntity
  8
0
 62
     7
100
AcDbBlockReference
  2
gggr
 10
-31411.06533545444
 20
-1447.051823908612
 30
0.0
  0
INSERT
  5
2FA903
330
2FA883
100
AcDbEntity
  8
0
 62
     7
100
AcDbBlockReference
  2
gggr
 10
-31346.06533545444
 20
-1472.051823908612
 30
0.0
  0
INSERT
  5
2FA904
330
2FA883
100
AcDbEntity
  8
0
 62
     7
100
AcDbBlockReference
  2
gggr
 10
-31411.06533545444
 20
-1497.051823908612
 30
0.0
  0
INSERT
  5
2FA905
330
2FA883
100
AcDbEntity
  8
0
 62
     7
100
AcDbBlockReference
  2
gggr
 10
-31346.06533545444
 20
-1522.051823908612
 30
0.0
  0
INSERT
  5
2FA906
330
2FA883
100
AcDbEntity
  8
0
 62
     7
100
AcDbBlockReference
  2
gggr
 10
-31411.06533545444
 20
-1547.051823908612
 30
0.0
  0
INSERT
  5
2FA907
330
2FA883
100
AcDbEntity
  8
0
 62
     7
100
AcDbBlockReference
  2
gggr
 10
-31346.06533545444
 20
-1572.051823908612
 30
0.0
  0
INSERT
  5
2FA908
330
2FA883
100
AcDbEntity
  8
0
 62
     7
100
AcDbBlockReference
  2
gggr
 10
-31411.06533545444
 20
-1597.051823908612
 30
0.0
  0
INSERT
  5
2FA909
330
2FA883
100
AcDbEntity
  8
0
 62
     7
100
AcDbBlockReference
  2
gggr
 10
-31346.06533545444
 20
-1622.051823908612
 30
0.0
  0
INSERT
  5
2FA90A
330
2FA883
100
AcDbEntity
  8
0
 62
     7
100
AcDbBlockReference
  2
gggr
 10
-31411.06533545444
 20
-1647.051823908612
 30
0.0
  0
INSERT
  5
2FA90B
330
2FA883
100
AcDbEntity
  8
0
 62
     7
100
AcDbBlockReference
  2
gggr
 10
-31346.06533545444
 20
-1672.051823908612
 30
0.0
  0
INSERT
  5
2FA90C
330
2FA883
100
AcDbEntity
  8
0
 62
     7
100
AcDbBlockReference
  2
gggr
 10
-31411.06533545444
 20
-1697.051823908612
 30
0.0
  0
INSERT
  5
2FA90D
330
2FA883
100
AcDbEntity
  8
0
 62
     7
100
AcDbBlockReference
  2
gggr
 10
-31346.06533545444
 20
-1722.051823908612
 30
0.0
  0
INSERT
  5
2FA90E
330
2FA883
100
AcDbEntity
  8
0
 62
     7
100
AcDbBlockReference
  2
gggr
 10
-31411.06533545444
 20
-1747.051823908612
 30
0.0
  0
INSERT
  5
2FA90F
330
2FA883
100
AcDbEntity
  8
0
 62
     7
100
AcDbBlockReference
  2
gggr
 10
-31346.06533545444
 20
-1772.051823908612
 30
0.0
  0
INSERT
  5
2FA910
330
2FA883
100
AcDbEntity
  8
0
 62
     7
100
AcDbBlockReference
  2
gggr
 10
-31411.06533545444
 20
-1797.051823908612
 30
0.0
  0
INSERT
  5
2FA911
330
2FA883
100
AcDbEntity
  8
0
 62
     7
100
AcDbBlockReference
  2
gggr
 10
-31346.06533545444
 20
-1822.051823908612
 30
0.0
  0
INSERT
  5
2FA912
330
2FA883
100
AcDbEntity
  8
0
 62
     7
100
AcDbBlockReference
  2
gggr
 10
-31281.06533545444
 20
-1147.051823908612
 30
0.0
  0
INSERT
  5
2FA913
330
2FA883
100
AcDbEntity
  8
0
 62
     7
100
AcDbBlockReference
  2
gggr
 10
-31216.06533545444
 20
-1172.051823908612
 30
0.0
  0
INSERT
  5
2FA914
330
2FA883
100
AcDbEntity
  8
0
 62
     7
100
AcDbBlockReference
  2
gggr
 10
-31281.06533545444
 20
-1197.051823908612
 30
0.0
  0
INSERT
  5
2FA915
330
2FA883
100
AcDbEntity
  8
0
 62
     7
100
AcDbBlockReference
  2
gggr
 10
-31216.06533545444
 20
-1222.051823908612
 30
0.0
  0
INSERT
  5
2FA916
330
2FA883
100
AcDbEntity
  8
0
 62
     7
100
AcDbBlockReference
  2
gggr
 10
-31281.06533545444
 20
-1247.051823908612
 30
0.0
  0
INSERT
  5
2FA917
330
2FA883
100
AcDbEntity
  8
0
 62
     7
100
AcDbBlockReference
  2
gggr
 10
-31216.06533545444
 20
-1272.051823908612
 30
0.0
  0
INSERT
  5
2FA918
330
2FA883
100
AcDbEntity
  8
0
 62
     7
100
AcDbBlockReference
  2
gggr
 10
-31281.06533545444
 20
-1297.051823908612
 30
0.0
  0
INSERT
  5
2FA919
330
2FA883
100
AcDbEntity
  8
0
 62
     7
100
AcDbBlockReference
  2
gggr
 10
-31216.06533545444
 20
-1322.051823908612
 30
0.0
  0
INSERT
  5
2FA91A
330
2FA883
100
AcDbEntity
  8
0
 62
     7
100
AcDbBlockReference
  2
gggr
 10
-31281.06533545444
 20
-1347.051823908612
 30
0.0
  0
INSERT
  5
2FA91B
330
2FA883
100
AcDbEntity
  8
0
 62
     7
100
AcDbBlockReference
  2
gggr
 10
-31216.06533545444
 20
-1372.051823908612
 30
0.0
  0
INSERT
  5
2FA91C
330
2FA883
100
AcDbEntity
  8
0
 62
     7
100
AcDbBlockReference
  2
gggr
 10
-31281.06533545444
 20
-1397.051823908612
 30
0.0
  0
INSERT
  5
2FA91D
330
2FA883
100
AcDbEntity
  8
0
 62
     7
100
AcDbBlockReference
  2
gggr
 10
-31216.06533545444
 20
-1422.051823908612
 30
0.0
  0
INSERT
  5
2FA91E
330
2FA883
100
AcDbEntity
  8
0
 62
     7
100
AcDbBlockReference
  2
gggr
 10
-31281.06533545444
 20
-1447.051823908612
 30
0.0
  0
INSERT
  5
2FA91F
330
2FA883
100
AcDbEntity
  8
0
 62
     7
100
AcDbBlockReference
  2
gggr
 10
-31216.06533545444
 20
-1472.051823908612
 30
0.0
  0
INSERT
  5
2FA920
330
2FA883
100
AcDbEntity
  8
0
 62
     7
100
AcDbBlockReference
  2
gggr
 10
-31281.06533545444
 20
-1497.051823908612
 30
0.0
  0
INSERT
  5
2FA921
330
2FA883
100
AcDbEntity
  8
0
 62
     7
100
AcDbBlockReference
  2
gggr
 10
-31216.06533545444
 20
-1522.051823908612
 30
0.0
  0
INSERT
  5
2FA922
330
2FA883
100
AcDbEntity
  8
0
 62
     7
100
AcDbBlockReference
  2
gggr
 10
-31281.06533545444
 20
-1547.051823908612
 30
0.0
  0
INSERT
  5
2FA923
330
2FA883
100
AcDbEntity
  8
0
 62
     7
100
AcDbBlockReference
  2
gggr
 10
-31216.06533545444
 20
-1572.051823908612
 30
0.0
  0
INSERT
  5
2FA924
330
2FA883
100
AcDbEntity
  8
0
 62
     7
100
AcDbBlockReference
  2
gggr
 10
-31281.06533545444
 20
-1597.051823908612
 30
0.0
  0
INSERT
  5
2FA925
330
2FA883
100
AcDbEntity
  8
0
 62
     7
100
AcDbBlockReference
  2
gggr
 10
-31216.06533545444
 20
-1622.051823908612
 30
0.0
  0
INSERT
  5
2FA926
330
2FA883
100
AcDbEntity
  8
0
 62
     7
100
AcDbBlockReference
  2
gggr
 10
-31281.06533545444
 20
-1647.051823908612
 30
0.0
  0
INSERT
  5
2FA927
330
2FA883
100
AcDbEntity
  8
0
 62
     7
100
AcDbBlockReference
  2
gggr
 10
-31216.06533545444
 20
-1672.051823908612
 30
0.0
  0
INSERT
  5
2FA928
330
2FA883
100
AcDbEntity
  8
0
 62
     7
100
AcDbBlockReference
  2
gggr
 10
-31281.06533545444
 20
-1697.051823908612
 30
0.0
  0
INSERT
  5
2FA929
330
2FA883
100
AcDbEntity
  8
0
 62
     7
100
AcDbBlockReference
  2
gggr
 10
-31216.06533545444
 20
-1722.051823908612
 30
0.0
  0
INSERT
  5
2FA92A
330
2FA883
100
AcDbEntity
  8
0
 62
     7
100
AcDbBlockReference
  2
gggr
 10
-31281.06533545444
 20
-1747.051823908612
 30
0.0
  0
INSERT
  5
2FA92B
330
2FA883
100
AcDbEntity
  8
0
 62
     7
100
AcDbBlockReference
  2
gggr
 10
-31216.06533545444
 20
-1772.051823908612
 30
0.0
  0
INSERT
  5
2FA92C
330
2FA883
100
AcDbEntity
  8
0
 62
     7
100
AcDbBlockReference
  2
gggr
 10
-31281.06533545444
 20
-1797.051823908612
 30
0.0
  0
INSERT
  5
2FA92D
330
2FA883
100
AcDbEntity
  8
0
 62
     7
100
AcDbBlockReference
  2
gggr
 10
-31216.06533545444
 20
-1822.051823908612
 30
0.0
  0
INSERT
  5
2FA92E
330
2FA883
100
AcDbEntity
  8
0
 62
     7
100
AcDbBlockReference
  2
gggr
 10
-31151.06533545443
 20
-1147.051823908612
 30
0.0
  0
INSERT
  5
2FA92F
330
2FA883
100
AcDbEntity
  8
0
 62
     7
100
AcDbBlockReference
  2
gggr
 10
-31151.06533545443
 20
-1197.051823908612
 30
0.0
  0
INSERT
  5
2FA930
330
2FA883
100
AcDbEntity
  8
0
 62
     7
100
AcDbBlockReference
  2
gggr
 10
-31151.06533545443
 20
-1247.051823908612
 30
0.0
  0
INSERT
  5
2FA931
330
2FA883
100
AcDbEntity
  8
0
 62
     7
100
AcDbBlockReference
  2
gggr
 10
-31151.06533545443
 20
-1297.051823908612
 30
0.0
  0
INSERT
  5
2FA932
330
2FA883
100
AcDbEntity
  8
0
 62
     7
100
AcDbBlockReference
  2
gggr
 10
-31151.06533545443
 20
-1347.051823908612
 30
0.0
  0
INSERT
  5
2FA933
330
2FA883
100
AcDbEntity
  8
0
 62
     7
100
AcDbBlockReference
  2
gggr
 10
-31151.06533545443
 20
-1397.051823908612
 30
0.0
  0
INSERT
  5
2FA934
330
2FA883
100
AcDbEntity
  8
0
 62
     7
100
AcDbBlockReference
  2
gggr
 10
-31151.06533545443
 20
-1447.051823908612
 30
0.0
  0
INSERT
  5
2FA935
330
2FA883
100
AcDbEntity
  8
0
 62
     7
100
AcDbBlockReference
  2
gggr
 10
-31151.06533545443
 20
-1497.051823908612
 30
0.0
  0
INSERT
  5
2FA936
330
2FA883
100
AcDbEntity
  8
0
 62
     7
100
AcDbBlockReference
  2
gggr
 10
-31151.06533545443
 20
-1547.051823908612
 30
0.0
  0
INSERT
  5
2FA937
330
2FA883
100
AcDbEntity
  8
0
 62
     7
100
AcDbBlockReference
  2
gggr
 10
-31151.06533545443
 20
-1597.051823908612
 30
0.0
  0
INSERT
  5
2FA938
330
2FA883
100
AcDbEntity
  8
0
 62
     7
100
AcDbBlockReference
  2
gggr
 10
-31151.06533545443
 20
-1647.051823908612
 30
0.0
  0
INSERT
  5
2FA939
330
2FA883
100
AcDbEntity
  8
0
 62
     7
100
AcDbBlockReference
  2
gggr
 10
-31151.06533545443
 20
-1697.051823908612
 30
0.0
  0
INSERT
  5
2FA93A
330
2FA883
100
AcDbEntity
  8
0
 62
     7
100
AcDbBlockReference
  2
gggr
 10
-31151.06533545443
 20
-1747.051823908612
 30
0.0
  0
INSERT
  5
2FA93B
330
2FA883
100
AcDbEntity
  8
0
 62
     7
100
AcDbBlockReference
  2
gggr
 10
-31151.06533545443
 20
-1797.051823908612
 30
0.0
  0
INSERT
  5
2FA93C
330
2FA883
100
AcDbEntity
  8
0
 62
     7
100
AcDbBlockReference
  2
gggr
 10
-31931.06533545444
 20
-1847.051823908612
 30
0.0
  0
INSERT
  5
2FA93D
330
2FA883
100
AcDbEntity
  8
0
 62
     7
100
AcDbBlockReference
  2
gggr
 10
-31801.06533545444
 20
-1847.051823908612
 30
0.0
  0
INSERT
  5
2FA93E
330
2FA883
100
AcDbEntity
  8
0
 62
     7
100
AcDbBlockReference
  2
gggr
 10
-31671.06533545443
 20
-1847.051823908612
 30
0.0
  0
INSERT
  5
2FA93F
330
2FA883
100
AcDbEntity
  8
0
 62
     7
100
AcDbBlockReference
  2
gggr
 10
-31541.06533545443
 20
-1847.051823908612
 30
0.0
  0
INSERT
  5
2FA940
330
2FA883
100
AcDbEntity
  8
0
 62
     7
100
AcDbBlockReference
  2
gggr
 10
-31411.06533545444
 20
-1847.051823908612
 30
0.0
  0
INSERT
  5
2FA941
330
2FA883
100
AcDbEntity
  8
0
 62
     7
100
AcDbBlockReference
  2
gggr
 10
-31281.06533545444
 20
-1847.051823908612
 30
0.0
  0
INSERT
  5
2FA942
330
2FA883
100
AcDbEntity
  8
0
 62
     7
100
AcDbBlockReference
  2
gggr
 10
-31151.06533545443
 20
-1847.051823908612
 30
0.0
  0
INSERT
  5
2FA943
330
2FA883
100
AcDbEntity
  8
0
 62
     7
100
AcDbBlockReference
  2
gggr
 10
-31866.06533545444
 20
-1872.051823908612
 30
0.0
  0
INSERT
  5
2FA944
330
2FA883
100
AcDbEntity
  8
0
 62
     7
100
AcDbBlockReference
  2
gggr
 10
-31736.06533545444
 20
-1872.051823908612
 30
0.0
  0
INSERT
  5
2FA945
330
2FA883
100
AcDbEntity
  8
0
 62
     7
100
AcDbBlockReference
  2
gggr
 10
-31606.06533545443
 20
-1872.051823908612
 30
0.0
  0
INSERT
  5
2FA946
330
2FA883
100
AcDbEntity
  8
0
 62
     7
100
AcDbBlockReference
  2
gggr
 10
-31476.06533545443
 20
-1872.051823908612
 30
0.0
  0
INSERT
  5
2FA947
330
2FA883
100
AcDbEntity
  8
0
 62
     7
100
AcDbBlockReference
  2
gggr
 10
-31346.06533545444
 20
-1872.051823908612
 30
0.0
  0
INSERT
  5
2FA948
330
2FA883
100
AcDbEntity
  8
0
 62
     7
100
AcDbBlockReference
  2
gggr
 10
-31216.06533545444
 20
-1872.051823908612
 30
0.0
  0
INSERT
  5
2FA949
330
2FA883
100
AcDbEntity
  8
0
 62
     7
100
AcDbBlockReference
  2
gggr
 10
-31931.06533545444
 20
-1897.051823908612
 30
0.0
  0
INSERT
  5
2FA94A
330
2FA883
100
AcDbEntity
  8
0
 62
     7
100
AcDbBlockReference
  2
gggr
 10
-31801.06533545444
 20
-1897.051823908612
 30
0.0
  0
INSERT
  5
2FA94B
330
2FA883
100
AcDbEntity
  8
0
 62
     7
100
AcDbBlockReference
  2
gggr
 10
-31671.06533545443
 20
-1897.051823908612
 30
0.0
  0
INSERT
  5
2FA94C
330
2FA883
100
AcDbEntity
  8
0
 62
     7
100
AcDbBlockReference
  2
gggr
 10
-31541.06533545443
 20
-1897.051823908612
 30
0.0
  0
INSERT
  5
2FA94D
330
2FA883
100
AcDbEntity
  8
0
 62
     7
100
AcDbBlockReference
  2
gggr
 10
-31411.06533545444
 20
-1897.051823908612
 30
0.0
  0
INSERT
  5
2FA94E
330
2FA883
100
AcDbEntity
  8
0
 62
     7
100
AcDbBlockReference
  2
gggr
 10
-31281.06533545444
 20
-1897.051823908612
 30
0.0
  0
INSERT
  5
2FA94F
330
2FA883
100
AcDbEntity
  8
0
 62
     7
100
AcDbBlockReference
  2
gggr
 10
-31151.06533545443
 20
-1897.051823908612
 30
0.0
  0
INSERT
  5
2FA950
330
2FA883
100
AcDbEntity
  8
0
 62
     7
100
AcDbBlockReference
  2
gggr
 10
-31866.06533545444
 20
-1922.051823908612
 30
0.0
  0
INSERT
  5
2FA951
330
2FA883
100
AcDbEntity
  8
0
 62
     7
100
AcDbBlockReference
  2
gggr
 10
-31736.06533545444
 20
-1922.051823908612
 30
0.0
  0
INSERT
  5
2FA952
330
2FA883
100
AcDbEntity
  8
0
 62
     7
100
AcDbBlockReference
  2
gggr
 10
-31606.06533545443
 20
-1922.051823908612
 30
0.0
  0
INSERT
  5
2FA953
330
2FA883
100
AcDbEntity
  8
0
 62
     7
100
AcDbBlockReference
  2
gggr
 10
-31476.06533545443
 20
-1922.051823908612
 30
0.0
  0
INSERT
  5
2FA954
330
2FA883
100
AcDbEntity
  8
0
 62
     7
100
AcDbBlockReference
  2
gggr
 10
-31346.06533545444
 20
-1922.051823908612
 30
0.0
  0
INSERT
  5
2FA955
330
2FA883
100
AcDbEntity
  8
0
 62
     7
100
AcDbBlockReference
  2
gggr
 10
-31216.06533545444
 20
-1922.051823908612
 30
0.0
  0
INSERT
  5
2FA956
330
2FA883
100
AcDbEntity
  8
0
 62
     7
100
AcDbBlockReference
  2
gggr
 10
-31931.06533545444
 20
-1947.051823908612
 30
0.0
  0
INSERT
  5
2FA957
330
2FA883
100
AcDbEntity
  8
0
 62
     7
100
AcDbBlockReference
  2
gggr
 10
-31801.06533545444
 20
-1947.051823908612
 30
0.0
  0
INSERT
  5
2FA958
330
2FA883
100
AcDbEntity
  8
0
 62
     7
100
AcDbBlockReference
  2
gggr
 10
-31671.06533545443
 20
-1947.051823908612
 30
0.0
  0
INSERT
  5
2FA959
330
2FA883
100
AcDbEntity
  8
0
 62
     7
100
AcDbBlockReference
  2
gggr
 10
-31541.06533545443
 20
-1947.051823908612
 30
0.0
  0
INSERT
  5
2FA95A
330
2FA883
100
AcDbEntity
  8
0
 62
     7
100
AcDbBlockReference
  2
gggr
 10
-31411.06533545444
 20
-1947.051823908612
 30
0.0
  0
INSERT
  5
2FA95B
330
2FA883
100
AcDbEntity
  8
0
 62
     7
100
AcDbBlockReference
  2
gggr
 10
-31281.06533545444
 20
-1947.051823908612
 30
0.0
  0
INSERT
  5
2FA95C
330
2FA883
100
AcDbEntity
  8
0
 62
     7
100
AcDbBlockReference
  2
gggr
 10
-31151.06533545443
 20
-1947.051823908612
 30
0.0
  0
INSERT
  5
2FA95D
330
2FA883
100
AcDbEntity
  8
0
 62
     7
100
AcDbBlockReference
  2
gggr
 10
-31086.06533545443
 20
-1172.051823908612
 30
0.0
  0
INSERT
  5
2FA95E
330
2FA883
100
AcDbEntity
  8
0
 62
     7
100
AcDbBlockReference
  2
gggr
 10
-31086.06533545443
 20
-1222.051823908612
 30
0.0
  0
INSERT
  5
2FA95F
330
2FA883
100
AcDbEntity
  8
0
 62
     7
100
AcDbBlockReference
  2
gggr
 10
-31086.06533545443
 20
-1272.051823908612
 30
0.0
  0
INSERT
  5
2FA960
330
2FA883
100
AcDbEntity
  8
0
 62
     7
100
AcDbBlockReference
  2
gggr
 10
-31086.06533545443
 20
-1322.051823908612
 30
0.0
  0
INSERT
  5
2FA961
330
2FA883
100
AcDbEntity
  8
0
 62
     7
100
AcDbBlockReference
  2
gggr
 10
-31086.06533545443
 20
-1372.051823908612
 30
0.0
  0
INSERT
  5
2FA962
330
2FA883
100
AcDbEntity
  8
0
 62
     7
100
AcDbBlockReference
  2
gggr
 10
-31086.06533545443
 20
-1422.051823908612
 30
0.0
  0
INSERT
  5
2FA963
330
2FA883
100
AcDbEntity
  8
0
 62
     7
100
AcDbBlockReference
  2
gggr
 10
-31086.06533545443
 20
-1472.051823908612
 30
0.0
  0
INSERT
  5
2FA964
330
2FA883
100
AcDbEntity
  8
0
 62
     7
100
AcDbBlockReference
  2
gggr
 10
-31086.06533545443
 20
-1522.051823908612
 30
0.0
  0
INSERT
  5
2FA965
330
2FA883
100
AcDbEntity
  8
0
 62
     7
100
AcDbBlockReference
  2
gggr
 10
-31086.06533545443
 20
-1572.051823908612
 30
0.0
  0
INSERT
  5
2FA966
330
2FA883
100
AcDbEntity
  8
0
 62
     7
100
AcDbBlockReference
  2
gggr
 10
-31086.06533545443
 20
-1622.051823908612
 30
0.0
  0
INSERT
  5
2FA967
330
2FA883
100
AcDbEntity
  8
0
 62
     7
100
AcDbBlockReference
  2
gggr
 10
-31086.06533545443
 20
-1672.051823908612
 30
0.0
  0
INSERT
  5
2FA968
330
2FA883
100
AcDbEntity
  8
0
 62
     7
100
AcDbBlockReference
  2
gggr
 10
-31086.06533545443
 20
-1722.051823908612
 30
0.0
  0
INSERT
  5
2FA969
330
2FA883
100
AcDbEntity
  8
0
 62
     7
100
AcDbBlockReference
  2
gggr
 10
-31086.06533545443
 20
-1772.051823908612
 30
0.0
  0
INSERT
  5
2FA96A
330
2FA883
100
AcDbEntity
  8
0
 62
     7
100
AcDbBlockReference
  2
gggr
 10
-31086.06533545443
 20
-1822.051823908612
 30
0.0
  0
INSERT
  5
2FA96B
330
2FA883
100
AcDbEntity
  8
0
 62
     7
100
AcDbBlockReference
  2
gggr
 10
-31086.06533545443
 20
-1872.051823908612
 30
0.0
  0
INSERT
  5
2FA96C
330
2FA883
100
AcDbEntity
  8
0
 62
     7
100
AcDbBlockReference
  2
gggr
 10
-31086.06533545443
 20
-1922.051823908612
 30
0.0
  0
INSERT
  5
2FA96D
330
2FA883
100
AcDbEntity
  8
0
 62
     7
100
AcDbBlockReference
  2
gggr
 10
-31866.06533545444
 20
-1122.051823908612
 30
0.0
  0
INSERT
  5
2FA96E
330
2FA883
100
AcDbEntity
  8
0
 62
     7
100
AcDbBlockReference
  2
gggr
 10
-31736.06533545444
 20
-1122.051823908612
 30
0.0
  0
INSERT
  5
2FA96F
330
2FA883
100
AcDbEntity
  8
0
 62
     7
100
AcDbBlockReference
  2
gggr
 10
-31606.06533545443
 20
-1122.051823908612
 30
0.0
  0
INSERT
  5
2FA970
330
2FA883
100
AcDbEntity
  8
0
 62
     7
100
AcDbBlockReference
  2
gggr
 10
-31476.06533545443
 20
-1122.051823908612
 30
0.0
  0
INSERT
  5
2FA971
330
2FA883
100
AcDbEntity
  8
0
 62
     7
100
AcDbBlockReference
  2
gggr
 10
-31346.06533545444
 20
-1122.051823908612
 30
0.0
  0
INSERT
  5
2FA972
330
2FA883
100
AcDbEntity
  8
0
 62
     7
100
AcDbBlockReference
  2
gggr
 10
-31216.06533545444
 20
-1122.051823908612
 30
0.0
  0
INSERT
  5
2FA973
330
2FA883
100
AcDbEntity
  8
0
 62
     7
100
AcDbBlockReference
  2
gggr
 10
-31086.06533545443
 20
-1122.051823908612
 30
0.0
  0
INSERT
  5
2FA974
330
2FA883
100
AcDbEntity
  8
0
 62
     7
100
AcDbBlockReference
  2
gggr
 10
-31931.06533545444
 20
-1097.051823908612
 30
0.0
  0
INSERT
  5
2FA975
330
2FA883
100
AcDbEntity
  8
0
 62
     7
100
AcDbBlockReference
  2
gggr
 10
-31801.06533545444
 20
-1097.051823908612
 30
0.0
  0
INSERT
  5
2FA976
330
2FA883
100
AcDbEntity
  8
0
 62
     7
100
AcDbBlockReference
  2
gggr
 10
-31671.06533545443
 20
-1097.051823908612
 30
0.0
  0
INSERT
  5
2FA977
330
2FA883
100
AcDbEntity
  8
0
 62
     7
100
AcDbBlockReference
  2
gggr
 10
-31541.06533545443
 20
-1097.051823908612
 30
0.0
  0
INSERT
  5
2FA978
330
2FA883
100
AcDbEntity
  8
0
 62
     7
100
AcDbBlockReference
  2
gggr
 10
-31411.06533545444
 20
-1097.051823908612
 30
0.0
  0
INSERT
  5
2FA979
330
2FA883
100
AcDbEntity
  8
0
 62
     7
100
AcDbBlockReference
  2
gggr
 10
-31281.06533545444
 20
-1097.051823908612
 30
0.0
  0
INSERT
  5
2FA97A
330
2FA883
100
AcDbEntity
  8
0
 62
     7
100
AcDbBlockReference
  2
gggr
 10
-31151.06533545443
 20
-1097.051823908612
 30
0.0
  0
INSERT
  5
2FA97B
330
2FA883
100
AcDbEntity
  8
0
 62
     7
100
AcDbBlockReference
  2
gggr
 10
-31866.06533545444
 20
-1072.051823908612
 30
0.0
  0
INSERT
  5
2FA97C
330
2FA883
100
AcDbEntity
  8
0
 62
     7
100
AcDbBlockReference
  2
gggr
 10
-31736.06533545444
 20
-1072.051823908612
 30
0.0
  0
INSERT
  5
2FA97D
330
2FA883
100
AcDbEntity
  8
0
 62
     7
100
AcDbBlockReference
  2
gggr
 10
-31606.06533545443
 20
-1072.051823908612
 30
0.0
  0
INSERT
  5
2FA97E
330
2FA883
100
AcDbEntity
  8
0
 62
     7
100
AcDbBlockReference
  2
gggr
 10
-31476.06533545443
 20
-1072.051823908612
 30
0.0
  0
INSERT
  5
2FA97F
330
2FA883
100
AcDbEntity
  8
0
 62
     7
100
AcDbBlockReference
  2
gggr
 10
-31346.06533545444
 20
-1072.051823908612
 30
0.0
  0
INSERT
  5
2FA980
330
2FA883
100
AcDbEntity
  8
0
 62
     7
100
AcDbBlockReference
  2
gggr
 10
-31216.06533545444
 20
-1072.051823908612
 30
0.0
  0
INSERT
  5
2FA981
330
2FA883
100
AcDbEntity
  8
0
 62
     7
100
AcDbBlockReference
  2
gggr
 10
-31086.06533545443
 20
-1072.051823908612
 30
0.0
  0
INSERT
  5
2FA982
330
2FA883
100
AcDbEntity
  8
0
 62
     7
100
AcDbBlockReference
  2
gggr
 10
-31931.06533545444
 20
-1047.051823908612
 30
0.0
  0
INSERT
  5
2FA983
330
2FA883
100
AcDbEntity
  8
0
 62
     7
100
AcDbBlockReference
  2
gggr
 10
-31801.06533545444
 20
-1047.051823908612
 30
0.0
  0
INSERT
  5
2FA984
330
2FA883
100
AcDbEntity
  8
0
 62
     7
100
AcDbBlockReference
  2
gggr
 10
-31671.06533545443
 20
-1047.051823908612
 30
0.0
  0
INSERT
  5
2FA985
330
2FA883
100
AcDbEntity
  8
0
 62
     7
100
AcDbBlockReference
  2
gggr
 10
-31541.06533545443
 20
-1047.051823908612
 30
0.0
  0
INSERT
  5
2FA986
330
2FA883
100
AcDbEntity
  8
0
 62
     7
100
AcDbBlockReference
  2
gggr
 10
-31411.06533545444
 20
-1047.051823908612
 30
0.0
  0
INSERT
  5
2FA987
330
2FA883
100
AcDbEntity
  8
0
 62
     7
100
AcDbBlockReference
  2
gggr
 10
-31281.06533545444
 20
-1047.051823908612
 30
0.0
  0
INSERT
  5
2FA988
330
2FA883
100
AcDbEntity
  8
0
 62
     7
100
AcDbBlockReference
  2
gggr
 10
-31151.06533545443
 20
-1047.051823908612
 30
0.0
  0
INSERT
  5
2FA989
330
2FA883
100
AcDbEntity
  8
0
 62
     7
100
AcDbBlockReference
  2
gggr
 10
-31866.06533545444
 20
-1022.051823908612
 30
0.0
  0
INSERT
  5
2FA98A
330
2FA883
100
AcDbEntity
  8
0
 62
     7
100
AcDbBlockReference
  2
gggr
 10
-31736.06533545444
 20
-1022.051823908612
 30
0.0
  0
INSERT
  5
2FA98B
330
2FA883
100
AcDbEntity
  8
0
 62
     7
100
AcDbBlockReference
  2
gggr
 10
-31606.06533545443
 20
-1022.051823908612
 30
0.0
  0
INSERT
  5
2FA98C
330
2FA883
100
AcDbEntity
  8
0
 62
     7
100
AcDbBlockReference
  2
gggr
 10
-31476.06533545443
 20
-1022.051823908612
 30
0.0
  0
INSERT
  5
2FA98D
330
2FA883
100
AcDbEntity
  8
0
 62
     7
100
AcDbBlockReference
  2
gggr
 10
-31346.06533545444
 20
-1022.051823908612
 30
0.0
  0
INSERT
  5
2FA98E
330
2FA883
100
AcDbEntity
  8
0
 62
     7
100
AcDbBlockReference
  2
gggr
 10
-31216.06533545444
 20
-1022.051823908612
 30
0.0
  0
INSERT
  5
2FA98F
330
2FA883
100
AcDbEntity
  8
0
 62
     7
100
AcDbBlockReference
  2
gggr
 10
-31086.06533545443
 20
-1022.051823908612
 30
0.0
  0
INSERT
  5
2FA990
330
2FA883
100
AcDbEntity
  8
0
 62
     7
100
AcDbBlockReference
  2
gggr
 10
-31931.06533545444
 20
-997.0518239086123
 30
0.0
  0
INSERT
  5
2FA991
330
2FA883
100
AcDbEntity
  8
0
 62
     7
100
AcDbBlockReference
  2
gggr
 10
-31801.06533545444
 20
-997.0518239086123
 30
0.0
  0
INSERT
  5
2FA992
330
2FA883
100
AcDbEntity
  8
0
 62
     7
100
AcDbBlockReference
  2
gggr
 10
-31671.06533545443
 20
-997.0518239086123
 30
0.0
  0
INSERT
  5
2FA993
330
2FA883
100
AcDbEntity
  8
0
 62
     7
100
AcDbBlockReference
  2
gggr
 10
-31541.06533545443
 20
-997.0518239086123
 30
0.0
  0
INSERT
  5
2FA994
330
2FA883
100
AcDbEntity
  8
0
 62
     7
100
AcDbBlockReference
  2
gggr
 10
-31411.06533545444
 20
-997.0518239086123
 30
0.0
  0
INSERT
  5
2FA995
330
2FA883
100
AcDbEntity
  8
0
 62
     7
100
AcDbBlockReference
  2
gggr
 10
-31281.06533545444
 20
-997.0518239086123
 30
0.0
  0
INSERT
  5
2FA996
330
2FA883
100
AcDbEntity
  8
0
 62
     7
100
AcDbBlockReference
  2
gggr
 10
-31151.06533545443
 20
-997.0518239086123
 30
0.0
  0
LINE
  5
2FA997
330
2FA883
100
AcDbEntity
  8
0
 62
     4
100
AcDbLine
 10
-13104.813762406
 20
-40.0480666906551
 30
0.0
 11
-13079.81376240594
 21
-40.0480666906551
 31
0.0
  0
LINE
  5
2FA998
330
2FA883
100
AcDbEntity
  8
0
 62
     4
100
AcDbLine
 10
-13079.81376240595
 20
-65.0480666906551
 30
0.0
 11
-13104.813762406
 21
-65.0480666906551
 31
0.0
  0
LINE
  5
2FA999
330
2FA883
100
AcDbEntity
  8
0
 62
     4
100
AcDbLine
 10
-13104.813762406
 20
-65.0480666906551
 30
0.0
 11
-13104.813762406
 21
-40.0480666906551
 31
0.0
  0
INSERT
  5
2FA99A
330
2FA883
100
AcDbEntity
  8
0
 62
     7
100
AcDbBlockReference
  2
gggr
 10
-31866.06533545444
 20
-972.0518239086123
 30
0.0
  0
INSERT
  5
2FA99B
330
2FA883
100
AcDbEntity
  8
0
 62
     7
100
AcDbBlockReference
  2
gggr
 10
-31736.06533545444
 20
-972.0518239086123
 30
0.0
  0
INSERT
  5
2FA99C
330
2FA883
100
AcDbEntity
  8
0
 62
     7
100
AcDbBlockReference
  2
gggr
 10
-31606.06533545443
 20
-972.0518239086123
 30
0.0
  0
INSERT
  5
2FA99D
330
2FA883
100
AcDbEntity
  8
0
 62
     7
100
AcDbBlockReference
  2
gggr
 10
-31476.06533545443
 20
-972.0518239086123
 30
0.0
  0
INSERT
  5
2FA99E
330
2FA883
100
AcDbEntity
  8
0
 62
     7
100
AcDbBlockReference
  2
gggr
 10
-31346.06533545444
 20
-972.0518239086123
 30
0.0
  0
INSERT
  5
2FA99F
330
2FA883
100
AcDbEntity
  8
0
 62
     7
100
AcDbBlockReference
  2
gggr
 10
-31216.06533545444
 20
-972.0518239086123
 30
0.0
  0
INSERT
  5
2FA9A0
330
2FA883
100
AcDbEntity
  8
0
 62
     7
100
AcDbBlockReference
  2
gggr
 10
-31086.06533545443
 20
-972.0518239086123
 30
0.0
  0
INSERT
  5
2FA9A1
330
2FA883
100
AcDbEntity
  8
0
 62
     7
100
AcDbBlockReference
  2
gggr
 10
-31996.06533545443
 20
-972.0518239086123
 30
0.0
  0
INSERT
  5
2FA9A2
330
2FA883
100
AcDbEntity
  8
0
 62
     7
100
AcDbBlockReference
  2
gggr
 10
-31996.06533545443
 20
-1022.051823908612
 30
0.0
  0
INSERT
  5
2FA9A3
330
2FA883
100
AcDbEntity
  8
0
 62
     7
100
AcDbBlockReference
  2
gggr
 10
-31996.06533545443
 20
-1072.051823908612
 30
0.0
  0
INSERT
  5
2FA9A4
330
2FA883
100
AcDbEntity
  8
0
 62
     7
100
AcDbBlockReference
  2
gggr
 10
-31996.06533545443
 20
-1122.051823908612
 30
0.0
  0
INSERT
  5
2FA9A5
330
2FA883
100
AcDbEntity
  8
0
 62
     7
100
AcDbBlockReference
  2
gggr
 10
-31996.06533545443
 20
-1172.051823908612
 30
0.0
  0
INSERT
  5
2FA9A6
330
2FA883
100
AcDbEntity
  8
0
 62
     7
100
AcDbBlockReference
  2
gggr
 10
-31996.06533545443
 20
-1222.051823908612
 30
0.0
  0
INSERT
  5
2FA9A7
330
2FA883
100
AcDbEntity
  8
0
 62
     7
100
AcDbBlockReference
  2
gggr
 10
-31996.06533545443
 20
-1322.051823908612
 30
0.0
  0
INSERT
  5
2FA9A8
330
2FA883
100
AcDbEntity
  8
0
 62
     7
100
AcDbBlockReference
  2
gggr
 10
-31996.06533545443
 20
-1272.051823908612
 30
0.0
  0
INSERT
  5
2FA9A9
330
2FA883
100
AcDbEntity
  8
0
 62
     7
100
AcDbBlockReference
  2
gggr
 10
-31996.06533545443
 20
-1372.051823908612
 30
0.0
  0
INSERT
  5
2FA9AA
330
2FA883
100
AcDbEntity
  8
0
 62
     7
100
AcDbBlockReference
  2
gggr
 10
-31996.06533545443
 20
-1422.051823908612
 30
0.0
  0
INSERT
  5
2FA9AB
330
2FA883
100
AcDbEntity
  8
0
 62
     7
100
AcDbBlockReference
  2
gggr
 10
-31996.06533545443
 20
-1472.051823908612
 30
0.0
  0
INSERT
  5
2FA9AC
330
2FA883
100
AcDbEntity
  8
0
 62
     7
100
AcDbBlockReference
  2
gggr
 10
-31996.06533545443
 20
-1522.051823908612
 30
0.0
  0
INSERT
  5
2FA9AD
330
2FA883
100
AcDbEntity
  8
0
 62
     7
100
AcDbBlockReference
  2
gggr
 10
-31996.06533545443
 20
-1572.051823908612
 30
0.0
  0
INSERT
  5
2FA9AE
330
2FA883
100
AcDbEntity
  8
0
 62
     7
100
AcDbBlockReference
  2
gggr
 10
-31996.06533545443
 20
-1622.051823908612
 30
0.0
  0
INSERT
  5
2FA9AF
330
2FA883
100
AcDbEntity
  8
0
 62
     7
100
AcDbBlockReference
  2
gggr
 10
-31996.06533545443
 20
-1672.051823908612
 30
0.0
  0
INSERT
  5
2FA9B0
330
2FA883
100
AcDbEntity
  8
0
 62
     7
100
AcDbBlockReference
  2
gggr
 10
-31996.06533545443
 20
-1722.051823908612
 30
0.0
  0
INSERT
  5
2FA9B1
330
2FA883
100
AcDbEntity
  8
0
 62
     7
100
AcDbBlockReference
  2
gggr
 10
-31996.06533545443
 20
-1772.051823908612
 30
0.0
  0
INSERT
  5
2FA9B2
330
2FA883
100
AcDbEntity
  8
0
 62
     7
100
AcDbBlockReference
  2
gggr
 10
-31996.06533545443
 20
-1872.051823908612
 30
0.0
  0
INSERT
  5
2FA9B3
330
2FA883
100
AcDbEntity
  8
0
 62
     7
100
AcDbBlockReference
  2
gggr
 10
-31996.06533545443
 20
-1822.051823908612
 30
0.0
  0
INSERT
  5
2FA9B4
330
2FA883
100
AcDbEntity
  8
0
 62
     7
100
AcDbBlockReference
  2
gggr
 10
-31996.06533545443
 20
-1922.051823908612
 30
0.0
  0
LINE
  5
2FA9B5
330
2FA883
100
AcDbEntity
  8
0
 62
     4
100
AcDbLine
 10
-13923.813762406
 20
-65.0480666906551
 30
0.0
 11
-13923.813762406
 21
-40.0480666906551
 31
0.0
  0
LINE
  5
2FA9B6
330
2FA883
100
AcDbEntity
  8
0
 62
     4
100
AcDbLine
 10
-14054.81376240594
 20
-65.0480666906551
 30
0.0
 11
-14054.81376240594
 21
-40.0480666906551
 31
0.0
  0
LINE
  5
2FA9B7
330
2FA883
100
AcDbEntity
  8
0
 62
     4
100
AcDbLine
 10
-13104.813762406
 20
-115.574362771651
 30
0.0
 11
-13104.813762406
 21
-90.57436277165107
 31
0.0
  0
LINE
  5
2FA9B8
330
2FA883
100
AcDbEntity
  8
0
 62
     4
100
AcDbLine
 10
-13104.813762406
 20
-165.574362771651
 30
0.0
 11
-13104.813762406
 21
-140.574362771651
 31
0.0
  0
LINE
  5
2FA9B9
330
2FA883
100
AcDbEntity
  8
0
 62
     4
100
AcDbLine
 10
-13104.813762406
 20
-215.574362771651
 30
0.0
 11
-13104.813762406
 21
-190.574362771651
 31
0.0
  0
LINE
  5
2FA9BA
330
2FA883
100
AcDbEntity
  8
0
 62
     4
100
AcDbLine
 10
-13104.813762406
 20
-265.0480666906551
 30
0.0
 11
-13104.813762406
 21
-240.0480666906551
 31
0.0
  0
LINE
  5
2FA9BB
330
2FA883
100
AcDbEntity
  8
0
 62
     4
100
AcDbLine
 10
-13104.813762406
 20
-315.5743627716511
 30
0.0
 11
-13104.813762406
 21
-290.574362771651
 31
0.0
  0
LINE
  5
2FA9BC
330
2FA883
100
AcDbEntity
  8
0
 62
     4
100
AcDbLine
 10
-13104.813762406
 20
-365.5743627716511
 30
0.0
 11
-13104.813762406
 21
-340.5743627716511
 31
0.0
  0
LINE
  5
2FA9BD
330
2FA883
100
AcDbEntity
  8
0
 62
     4
100
AcDbLine
 10
-13104.813762406
 20
-415.574362771651
 30
0.0
 11
-13104.813762406
 21
-390.5743627716511
 31
0.0
  0
LINE
  5
2FA9BE
330
2FA883
100
AcDbEntity
  8
0
 62
     4
100
AcDbLine
 10
-13104.813762406
 20
-465.0480666906551
 30
0.0
 11
-13104.813762406
 21
-440.0480666906551
 31
0.0
  0
LINE
  5
2FA9BF
330
2FA883
100
AcDbEntity
  8
0
 62
     4
100
AcDbLine
 10
-13104.813762406
 20
-515.574362771651
 30
0.0
 11
-13104.813762406
 21
-490.574362771651
 31
0.0
  0
LINE
  5
2FA9C0
330
2FA883
100
AcDbEntity
  8
0
 62
     4
100
AcDbLine
 10
-13104.813762406
 20
-565.574362771651
 30
0.0
 11
-13104.813762406
 21
-540.574362771651
 31
0.0
  0
LINE
  5
2FA9C1
330
2FA883
100
AcDbEntity
  8
0
 62
     4
100
AcDbLine
 10
-13104.813762406
 20
-615.574362771651
 30
0.0
 11
-13104.813762406
 21
-590.574362771651
 31
0.0
  0
LINE
  5
2FA9C2
330
2FA883
100
AcDbEntity
  8
0
 62
     4
100
AcDbLine
 10
-13104.813762406
 20
-665.0480666906551
 30
0.0
 11
-13104.813762406
 21
-640.0480666906551
 31
0.0
  0
LINE
  5
2FA9C3
330
2FA883
100
AcDbEntity
  8
0
 62
     4
100
AcDbLine
 10
-13104.813762406
 20
-715.574362771651
 30
0.0
 11
-13104.813762406
 21
-690.574362771651
 31
0.0
  0
LINE
  5
2FA9C4
330
2FA883
100
AcDbEntity
  8
0
 62
     4
100
AcDbLine
 10
-13104.813762406
 20
-765.574362771651
 30
0.0
 11
-13104.813762406
 21
-740.574362771651
 31
0.0
  0
LINE
  5
2FA9C5
330
2FA883
100
AcDbEntity
  8
0
 62
     4
100
AcDbLine
 10
-13104.813762406
 20
-815.574362771651
 30
0.0
 11
-13104.813762406
 21
-790.574362771651
 31
0.0
  0
LINE
  5
2FA9C6
330
2FA883
100
AcDbEntity
  8
0
 62
     4
100
AcDbLine
 10
-13104.813762406
 20
-865.0480666906551
 30
0.0
 11
-13104.813762406
 21
-840.0480666906551
 31
0.0
  0
LINE
  5
2FA9C7
330
2FA883
100
AcDbEntity
  8
0
 62
     4
100
AcDbLine
 10
-13104.813762406
 20
-915.574362771651
 30
0.0
 11
-13104.813762406
 21
-890.574362771651
 31
0.0
  0
LINE
  5
2FA9C8
330
2FA883
100
AcDbEntity
  8
0
 62
     4
100
AcDbLine
 10
-13104.813762406
 20
-965.574362771651
 30
0.0
 11
-13104.813762406
 21
-940.574362771651
 31
0.0
  0
LINE
  5
2FA9C9
330
2FA883
100
AcDbEntity
  8
0
 62
     4
100
AcDbLine
 10
-13104.813762406
 20
-1015.574362771651
 30
0.0
 11
-13104.813762406
 21
-990.574362771651
 31
0.0
  0
LINE
  5
2FA9CA
330
2FA883
100
AcDbEntity
  8
0
 62
     4
100
AcDbLine
 10
-14054.81376240594
 20
-65.0480666906551
 30
0.0
 11
-14054.81376240594
 21
-40.0480666906551
 31
0.0
  0
LINE
  5
2FA9CB
330
2FA883
100
AcDbEntity
  8
0
 62
     4
100
AcDbLine
 10
-14054.81376240594
 20
-115.574362771651
 30
0.0
 11
-14054.81376240594
 21
-90.57436277165107
 31
0.0
  0
LINE
  5
2FA9CC
330
2FA883
100
AcDbEntity
  8
0
 62
     4
100
AcDbLine
 10
-14054.81376240594
 20
-165.574362771651
 30
0.0
 11
-14054.81376240594
 21
-140.574362771651
 31
0.0
  0
LINE
  5
2FA9CD
330
2FA883
100
AcDbEntity
  8
0
 62
     4
100
AcDbLine
 10
-14054.81376240594
 20
-215.574362771651
 30
0.0
 11
-14054.81376240594
 21
-190.574362771651
 31
0.0
  0
LINE
  5
2FA9CE
330
2FA883
100
AcDbEntity
  8
0
 62
     4
100
AcDbLine
 10
-14054.81376240594
 20
-265.0480666906551
 30
0.0
 11
-14054.81376240594
 21
-240.0480666906551
 31
0.0
  0
LINE
  5
2FA9CF
330
2FA883
100
AcDbEntity
  8
0
 62
     4
100
AcDbLine
 10
-14054.81376240594
 20
-315.5743627716511
 30
0.0
 11
-14054.81376240594
 21
-290.574362771651
 31
0.0
  0
LINE
  5
2FA9D0
330
2FA883
100
AcDbEntity
  8
0
 62
     4
100
AcDbLine
 10
-14054.81376240594
 20
-365.5743627716511
 30
0.0
 11
-14054.81376240594
 21
-340.5743627716511
 31
0.0
  0
LINE
  5
2FA9D1
330
2FA883
100
AcDbEntity
  8
0
 62
     4
100
AcDbLine
 10
-14054.81376240594
 20
-415.574362771651
 30
0.0
 11
-14054.81376240594
 21
-390.5743627716511
 31
0.0
  0
LINE
  5
2FA9D2
330
2FA883
100
AcDbEntity
  8
0
 62
     4
100
AcDbLine
 10
-14054.81376240594
 20
-465.0480666906551
 30
0.0
 11
-14054.81376240594
 21
-440.0480666906551
 31
0.0
  0
LINE
  5
2FA9D3
330
2FA883
100
AcDbEntity
  8
0
 62
     4
100
AcDbLine
 10
-14054.81376240594
 20
-515.574362771651
 30
0.0
 11
-14054.81376240594
 21
-490.574362771651
 31
0.0
  0
LINE
  5
2FA9D4
330
2FA883
100
AcDbEntity
  8
0
 62
     4
100
AcDbLine
 10
-14054.81376240594
 20
-565.574362771651
 30
0.0
 11
-14054.81376240594
 21
-540.574362771651
 31
0.0
  0
LINE
  5
2FA9D5
330
2FA883
100
AcDbEntity
  8
0
 62
     4
100
AcDbLine
 10
-14054.81376240594
 20
-615.574362771651
 30
0.0
 11
-14054.81376240594
 21
-590.574362771651
 31
0.0
  0
LINE
  5
2FA9D6
330
2FA883
100
AcDbEntity
  8
0
 62
     4
100
AcDbLine
 10
-14054.81376240594
 20
-665.0480666906551
 30
0.0
 11
-14054.81376240594
 21
-640.0480666906551
 31
0.0
  0
LINE
  5
2FA9D7
330
2FA883
100
AcDbEntity
  8
0
 62
     4
100
AcDbLine
 10
-14054.81376240594
 20
-715.574362771651
 30
0.0
 11
-14054.81376240594
 21
-690.574362771651
 31
0.0
  0
LINE
  5
2FA9D8
330
2FA883
100
AcDbEntity
  8
0
 62
     4
100
AcDbLine
 10
-14054.81376240594
 20
-765.574362771651
 30
0.0
 11
-14054.81376240594
 21
-740.574362771651
 31
0.0
  0
LINE
  5
2FA9D9
330
2FA883
100
AcDbEntity
  8
0
 62
     4
100
AcDbLine
 10
-14054.81376240594
 20
-815.574362771651
 30
0.0
 11
-14054.81376240594
 21
-790.574362771651
 31
0.0
  0
LINE
  5
2FA9DA
330
2FA883
100
AcDbEntity
  8
0
 62
     4
100
AcDbLine
 10
-14054.81376240594
 20
-865.0480666906551
 30
0.0
 11
-14054.81376240594
 21
-840.0480666906551
 31
0.0
  0
LINE
  5
2FA9DB
330
2FA883
100
AcDbEntity
  8
0
 62
     4
100
AcDbLine
 10
-14054.81376240594
 20
-915.574362771651
 30
0.0
 11
-14054.81376240594
 21
-890.574362771651
 31
0.0
  0
LINE
  5
2FA9DC
330
2FA883
100
AcDbEntity
  8
0
 62
     4
100
AcDbLine
 10
-14054.81376240594
 20
-965.574362771651
 30
0.0
 11
-14054.81376240594
 21
-940.574362771651
 31
0.0
  0
LINE
  5
2FA9DD
330
2FA883
100
AcDbEntity
  8
0
 62
     4
100
AcDbLine
 10
-14054.81376240594
 20
-1015.574362771651
 30
0.0
 11
-14054.81376240594
 21
-990.574362771651
 31
0.0
  0
ENDBLK
  5
2FA885
330
2FA883
100
AcDbEntity
  8
0
100
AcDbBlockEnd
  0
ENDSEC
  0
SECTION
  2
ENTITIES
  0
LINE
  5
22F44A
330
6C
100
AcDbEntity
  8
Widoczne (ISO)
 62
     2
100
AcDbLine
 10
-18214.30352227438
 20
-540.9172180938193
 30
0.0
 11
-18214.80352227438
 21
-540.9172180938193
 31
0.0
  0
LINE
  5
22F44B
330
6C
100
AcDbEntity
  8
Widoczne (ISO)
 62
     2
100
AcDbLine
 10
-18214.80352227436
 20
-754.9172180938185
 30
0.0
 11
-18214.80352227436
 21
-770.9172180938185
 31
0.0
  0
LINE
  5
22F44C
330
6C
100
AcDbEntity
  8
Widoczne (ISO)
 62
     2
100
AcDbLine
 10
-18214.30352227436
 20
-770.9172180938185
 30
0.0
 11
-18214.80352227436
 21
-770.9172180938185
 31
0.0
  0
LINE
  5
22F44D
330
6C
100
AcDbEntity
  8
Widoczne (ISO)
 62
     2
100
AcDbLine
 10
-18214.30352227437
 20
-754.9172180938185
 30
0.0
 11
-18214.80352227436
 21
-754.9172180938185
 31
0.0
  0
ARC
  5
22F44E
330
6C
100
AcDbEntity
  8
Widoczne (ISO)
 62
     2
100
AcDbCircle
 10
-18205.6368556077
 20
-762.9172180938184
 30
0.0
 40
12.16666666666667
100
AcDbArc
 50
138.887909560832
 51
221.112090439168
  0
LINE
  5
22F44F
330
6C
100
AcDbEntity
  8
Widoczne (ISO)
 62
     2
100
AcDbLine
 10
-18214.80352227435
 20
-984.9172180938181
 30
0.0
 11
-18214.80352227435
 21
-1000.917218093818
 31
0.0
  0
LINE
  5
22F450
330
6C
100
AcDbEntity
  8
Widoczne (ISO)
 62
     2
100
AcDbLine
 10
-18214.30352227435
 20
-1000.917218093817
 30
0.0
 11
-18214.80352227435
 21
-1000.917218093817
 31
0.0
  0
LINE
  5
22F451
330
6C
100
AcDbEntity
  8
Widoczne (ISO)
 62
     2
100
AcDbLine
 10
-18214.30352227435
 20
-984.9172180938181
 30
0.0
 11
-18214.80352227435
 21
-984.9172180938181
 31
0.0
  0
ARC
  5
22F452
330
6C
100
AcDbEntity
  8
Widoczne (ISO)
 62
     2
100
AcDbCircle
 10
-18205.63685560769
 20
-992.9172180938175
 30
0.0
 40
12.16666666666667
100
AcDbArc
 50
138.887909560832
 51
221.112090439168
  0
LINE
  5
22F453
330
6C
100
AcDbEntity
  8
Widoczne (ISO)
 62
     2
100
AcDbLine
 10
-18214.80352227436
 20
-639.9172180938185
 30
0.0
 11
-18214.80352227436
 21
-655.9172180938185
 31
0.0
  0
LINE
  5
22F454
330
6C
100
AcDbEntity
  8
Widoczne (ISO)
 62
     2
100
AcDbLine
 10
-18214.30352227437
 20
-655.9172180938185
 30
0.0
 11
-18214.80352227436
 21
-655.9172180938185
 31
0.0
  0
LINE
  5
22F455
330
6C
100
AcDbEntity
  8
Widoczne (ISO)
 62
     2
100
AcDbLine
 10
-18214.30352227437
 20
-639.9172180938185
 30
0.0
 11
-18214.80352227436
 21
-639.9172180938185
 31
0.0
  0
ARC
  5
22F456
330
6C
100
AcDbEntity
  8
Widoczne (ISO)
 62
     2
100
AcDbCircle
 10
-18205.6368556077
 20
-647.9172180938181
 30
0.0
 40
12.16666666666663
100
AcDbArc
 50
138.887909560832
 51
221.112090439168
  0
LINE
  5
22F457
330
6C
100
AcDbEntity
  8
Widoczne (ISO)
 62
     2
100
AcDbLine
 10
-18214.80352227436
 20
-869.917218093818
 30
0.0
 11
-18214.80352227436
 21
-885.917218093818
 31
0.0
  0
LINE
  5
22F458
330
6C
100
AcDbEntity
  8
Widoczne (ISO)
 62
     2
100
AcDbLine
 10
-18214.30352227436
 20
-885.917218093818
 30
0.0
 11
-18214.80352227436
 21
-885.917218093818
 31
0.0
  0
LINE
  5
22F459
330
6C
100
AcDbEntity
  8
Widoczne (ISO)
 62
     2
100
AcDbLine
 10
-18214.30352227436
 20
-869.917218093818
 30
0.0
 11
-18214.80352227436
 21
-869.917218093818
 31
0.0
  0
ARC
  5
22F45A
330
6C
100
AcDbEntity
  8
Widoczne (ISO)
 62
     2
100
AcDbCircle
 10
-18205.63685560769
 20
-877.9172180938175
 30
0.0
 40
12.16666666666663
100
AcDbArc
 50
138.887909560832
 51
221.112090439168
  0
LINE
  5
22F45B
330
6C
100
AcDbEntity
  8
Widoczne (ISO)
 62
     2
100
AcDbLine
 10
-18214.80352227436
 20
-655.9172180938185
 30
0.0
 11
-18214.80352227436
 21
-660.4172180938181
 31
0.0
  0
LINE
  5
22F45C
330
6C
100
AcDbEntity
  8
Widoczne (ISO)
 62
     2
100
AcDbLine
 10
-18214.30352227437
 20
-660.4172180938176
 30
0.0
 11
-18214.80352227436
 21
-660.4172180938176
 31
0.0
  0
ARC
  5
22F45D
330
6C
100
AcDbEntity
  8
Widoczne (ISO)
 62
     2
100
AcDbCircle
 10
-18205.6368556077
 20
-652.4172180938176
 30
0.0
 40
12.16666666666663
100
AcDbArc
 50
169.342860874835
 51
221.112090439168
  0
LINE
  5
22F45E
330
6C
100
AcDbEntity
  8
0
  6
ACISOTGB
 62
     6
 48
25.0
100
AcDbLine
 10
-19424.30352227439
 20
-334.9172180937885
 30
0.0
 11
-19424.30352227439
 21
-1334.917218093756
 31
0.0
  0
ARC
  5
22F45F
330
6C
100
AcDbEntity
  8
0
  6
ACISOTGB
 62
     6
 48
25.0
100
AcDbCircle
 10
-17924.30352227439
 20
-334.9172180937885
 30
0.0
 40
1500.0
100
AcDbArc
 50
90.0
 51
180.0
1001
GENIUS_GENOBJ-N-FIL_13
1002
{
1000
OWNER
1000
GEN
1002
}
1001
GENIUS_GENODEF_13
1002
{
1000
HIER
1070
     0
1002
}
1002
{
1000
MANEDIT
1070
     0
1002
}
1002
{
1000
NOSEL
1070
     0
1002
}
1002
{
1000
BEHIND
1070
     0
1002
}
1002
{
1000
OTHER
1070
     0
1002
}
1002
{
1000
REACTOR
1002
}
  0
LINE
  5
22F460
330
6C
100
AcDbEntity
  8
0
  6
ACISOTGB
 62
     6
 48
25.0
100
AcDbLine
 10
-16924.30352227434
 20
1165.082781906211
 30
0.0
 11
-17924.30352227439
 21
1165.082781906211
 31
0.0
  0
LINE
  5
22F461
330
6C
100
AcDbEntity
  8
0
  6
ACISOTGB
 62
     6
 48
25.0
100
AcDbLine
 10
-15424.30352227434
 20
-1334.917218093752
 30
0.0
 11
-15424.30352227434
 21
-334.9172180937835
 31
0.0
  0
ARC
  5
22F462
330
6C
100
AcDbEntity
  8
0
  6
ACISOTGB
 62
     6
 48
25.0
100
AcDbCircle
 10
-16924.30352227434
 20
-334.9172180937885
 30
0.0
 40
1500.0
100
AcDbArc
 50
0.0
 51
90.0
1001
GENIUS_GENODEF_13
1002
{
1000
HIER
1070
     0
1002
}
1002
{
1000
MANEDIT
1070
     0
1002
}
1002
{
1000
NOSEL
1070
     0
1002
}
1002
{
1000
BEHIND
1070
     0
1002
}
1002
{
1000
OTHER
1070
     0
1002
}
1002
{
1000
REACTOR
1002
}
1001
GENIUS_GENOBJ-N-FIL_13
1002
{
1000
OWNER
1000
GEN
1002
}
  0
LINE
  5
22F463
330
6C
100
AcDbEntity
  8
0
  6
ACISOTGB
 62
     6
 48
25.0
100
AcDbLine
 10
-17924.30352227439
 20
-2834.917218093756
 30
0.0
 11
-16924.30352227434
 21
-2834.917218093756
 31
0.0
  0
ARC
  5
22F464
330
6C
100
AcDbEntity
  8
0
  6
ACISOTGB
 62
     6
 48
25.0
100
AcDbCircle
 10
-17924.30352227439
 20
-1334.917218093756
 30
0.0
 40
1500.0
100
AcDbArc
 50
180.0
 51
270.0
1001
GENIUS_GENODEF_13
1002
{
1000
HIER
1070
     0
1002
}
1002
{
1000
MANEDIT
1070
     0
1002
}
1002
{
1000
NOSEL
1070
     0
1002
}
1002
{
1000
BEHIND
1070
     0
1002
}
1002
{
1000
OTHER
1070
     0
1002
}
1002
{
1000
REACTOR
1002
}
1001
GENIUS_GENOBJ-N-FIL_13
1002
{
1000
OWNER
1000
GEN
1002
}
  0
ARC
  5
22F465
330
6C
100
AcDbEntity
  8
0
  6
ACISOTGB
 62
     6
 48
25.0
100
AcDbCircle
 10
-16924.30352227434
 20
-1334.917218093756
 30
0.0
 40
1500.0
100
AcDbArc
 50
270.0
 51
0.0
1001
GENIUS_GENODEF_13
1002
{
1000
HIER
1070
     0
1002
}
1002
{
1000
MANEDIT
1070
     0
1002
}
1002
{
1000
NOSEL
1070
     0
1002
}
1002
{
1000
BEHIND
1070
     0
1002
}
1002
{
1000
OTHER
1070
     0
1002
}
1002
{
1000
REACTOR
1002
}
1001
GENIUS_GENOBJ-N-FIL_13
1002
{
1000
OWNER
1000
GEN
1002
}
  0
LINE
  5
22F468
330
6C
100
AcDbEntity
  8
Widoczne (ISO)
 62
     2
100
AcDbLine
 10
-17964.30352227432
 20
-1625.417218093732
 30
0.0
 11
-17948.30352227432
 21
-1625.417218093732
 31
0.0
  0
LINE
  5
22F469
330
6C
100
AcDbEntity
  8
Widoczne (ISO)
 62
     2
100
AcDbLine
 10
-17948.30352227432
 20
-1624.917218093732
 30
0.0
 11
-17948.30352227432
 21
-1625.417218093732
 31
0.0
  0
LINE
  5
22F46A
330
6C
100
AcDbEntity
  8
Widoczne (ISO)
 62
     2
100
AcDbLine
 10
-17964.30352227432
 20
-1624.917218093732
 30
0.0
 11
-17964.30352227432
 21
-1625.417218093732
 31
0.0
  0
ARC
  5
22F46B
330
6C
100
AcDbEntity
  8
Widoczne (ISO)
 62
     2
100
AcDbCircle
 10
-17956.30352227432
 20
-1616.250551427065
 30
0.0
 40
12.16666666666669
100
AcDbArc
 50
228.8879095607388
 51
311.1120904392612
  0
LINE
  5
22F46C
330
6C
100
AcDbEntity
  8
Widoczne (ISO)
 62
     2
100
AcDbLine
 10
-17734.30352227432
 20
-1625.417218093732
 30
0.0
 11
-17718.30352227432
 21
-1625.417218093732
 31
0.0
  0
LINE
  5
22F46D
330
6C
100
AcDbEntity
  8
Widoczne (ISO)
 62
     2
100
AcDbLine
 10
-17718.30352227432
 20
-1624.917218093732
 30
0.0
 11
-17718.30352227432
 21
-1625.417218093732
 31
0.0
  0
LINE
  5
22F46E
330
6C
100
AcDbEntity
  8
Widoczne (ISO)
 62
     2
100
AcDbLine
 10
-17734.30352227432
 20
-1624.917218093732
 30
0.0
 11
-17734.30352227432
 21
-1625.417218093732
 31
0.0
  0
ARC
  5
22F46F
330
6C
100
AcDbEntity
  8
Widoczne (ISO)
 62
     2
100
AcDbCircle
 10
-17726.30352227432
 20
-1616.250551427065
 30
0.0
 40
12.16666666666669
100
AcDbArc
 50
228.8879095607388
 51
311.1120904392612
  0
LINE
  5
22F470
330
6C
100
AcDbEntity
  8
Widoczne (ISO)
 62
     2
100
AcDbLine
 10
-17504.30352227432
 20
-1625.417218093732
 30
0.0
 11
-17488.30352227432
 21
-1625.417218093732
 31
0.0
  0
LINE
  5
22F471
330
6C
100
AcDbEntity
  8
Widoczne (ISO)
 62
     2
100
AcDbLine
 10
-17488.30352227432
 20
-1624.917218093732
 30
0.0
 11
-17488.30352227432
 21
-1625.417218093732
 31
0.0
  0
LINE
  5
22F472
330
6C
100
AcDbEntity
  8
Widoczne (ISO)
 62
     2
100
AcDbLine
 10
-17504.30352227432
 20
-1624.917218093732
 30
0.0
 11
-17504.30352227432
 21
-1625.417218093732
 31
0.0
  0
ARC
  5
22F473
330
6C
100
AcDbEntity
  8
Widoczne (ISO)
 62
     2
100
AcDbCircle
 10
-17496.30352227432
 20
-1616.250551427065
 30
0.0
 40
12.16666666666669
100
AcDbArc
 50
228.8879095607388
 51
311.1120904392612
  0
LINE
  5
22F474
330
6C
100
AcDbEntity
  8
Widoczne (ISO)
 62
     2
100
AcDbLine
 10
-17274.30352227432
 20
-1625.417218093732
 30
0.0
 11
-17258.30352227432
 21
-1625.417218093732
 31
0.0
  0
LINE
  5
22F475
330
6C
100
AcDbEntity
  8
Widoczne (ISO)
 62
     2
100
AcDbLine
 10
-17258.30352227432
 20
-1624.917218093732
 30
0.0
 11
-17258.30352227432
 21
-1625.417218093732
 31
0.0
  0
LINE
  5
22F476
330
6C
100
AcDbEntity
  8
Widoczne (ISO)
 62
     2
100
AcDbLine
 10
-17274.30352227432
 20
-1624.917218093732
 30
0.0
 11
-17274.30352227432
 21
-1625.417218093732
 31
0.0
  0
ARC
  5
22F477
330
6C
100
AcDbEntity
  8
Widoczne (ISO)
 62
     2
100
AcDbCircle
 10
-17266.30352227432
 20
-1616.250551427065
 30
0.0
 40
12.16666666666669
100
AcDbArc
 50
228.8879095607388
 51
311.1120904392612
  0
LINE
  5
22F478
330
6C
100
AcDbEntity
  8
Widoczne (ISO)
 62
     2
100
AcDbLine
 10
-17044.30352227432
 20
-1625.417218093732
 30
0.0
 11
-17028.30352227432
 21
-1625.417218093732
 31
0.0
  0
LINE
  5
22F479
330
6C
100
AcDbEntity
  8
Widoczne (ISO)
 62
     2
100
AcDbLine
 10
-17028.30352227432
 20
-1624.917218093732
 30
0.0
 11
-17028.30352227432
 21
-1625.417218093732
 31
0.0
  0
LINE
  5
22F47A
330
6C
100
AcDbEntity
  8
Widoczne (ISO)
 62
     2
100
AcDbLine
 10
-17044.30352227432
 20
-1624.917218093732
 30
0.0
 11
-17044.30352227432
 21
-1625.417218093732
 31
0.0
  0
ARC
  5
22F47B
330
6C
100
AcDbEntity
  8
Widoczne (ISO)
 62
     2
100
AcDbCircle
 10
-17036.30352227432
 20
-1616.250551427065
 30
0.0
 40
12.16666666666669
100
AcDbArc
 50
228.8879095607388
 51
311.1120904392612
  0
LINE
  5
22F47C
330
6C
100
AcDbEntity
  8
Widoczne (ISO)
 62
     2
100
AcDbLine
 10
-17849.30352227432
 20
-1625.417218093732
 30
0.0
 11
-17833.30352227432
 21
-1625.417218093732
 31
0.0
  0
LINE
  5
22F47D
330
6C
100
AcDbEntity
  8
Widoczne (ISO)
 62
     2
100
AcDbLine
 10
-17833.30352227432
 20
-1624.917218093732
 30
0.0
 11
-17833.30352227432
 21
-1625.417218093732
 31
0.0
  0
LINE
  5
22F47E
330
6C
100
AcDbEntity
  8
Widoczne (ISO)
 62
     2
100
AcDbLine
 10
-17849.30352227432
 20
-1624.917218093732
 30
0.0
 11
-17849.30352227432
 21
-1625.417218093732
 31
0.0
  0
ARC
  5
22F47F
330
6C
100
AcDbEntity
  8
Widoczne (ISO)
 62
     2
100
AcDbCircle
 10
-17841.30352227432
 20
-1616.250551427065
 30
0.0
 40
12.16666666666666
100
AcDbArc
 50
228.8879095607388
 51
311.1120904392612
  0
LINE
  5
22F480
330
6C
100
AcDbEntity
  8
Widoczne (ISO)
 62
     2
100
AcDbLine
 10
-17619.30352227432
 20
-1625.417218093732
 30
0.0
 11
-17603.30352227432
 21
-1625.417218093732
 31
0.0
  0
LINE
  5
22F481
330
6C
100
AcDbEntity
  8
Widoczne (ISO)
 62
     2
100
AcDbLine
 10
-17603.30352227432
 20
-1624.917218093732
 30
0.0
 11
-17603.30352227432
 21
-1625.417218093732
 31
0.0
  0
LINE
  5
22F482
330
6C
100
AcDbEntity
  8
Widoczne (ISO)
 62
     2
100
AcDbLine
 10
-17619.30352227432
 20
-1624.917218093732
 30
0.0
 11
-17619.30352227432
 21
-1625.417218093732
 31
0.0
  0
ARC
  5
22F483
330
6C
100
AcDbEntity
  8
Widoczne (ISO)
 62
     2
100
AcDbCircle
 10
-17611.30352227432
 20
-1616.250551427065
 30
0.0
 40
12.16666666666666
100
AcDbArc
 50
228.8879095607388
 51
311.1120904392612
  0
LINE
  5
22F484
330
6C
100
AcDbEntity
  8
Widoczne (ISO)
 62
     2
100
AcDbLine
 10
-17389.30352227432
 20
-1625.417218093732
 30
0.0
 11
-17373.30352227432
 21
-1625.417218093732
 31
0.0
  0
LINE
  5
22F485
330
6C
100
AcDbEntity
  8
Widoczne (ISO)
 62
     2
100
AcDbLine
 10
-17373.30352227432
 20
-1624.917218093732
 30
0.0
 11
-17373.30352227432
 21
-1625.417218093732
 31
0.0
  0
LINE
  5
22F486
330
6C
100
AcDbEntity
  8
Widoczne (ISO)
 62
     2
100
AcDbLine
 10
-17389.30352227432
 20
-1624.917218093732
 30
0.0
 11
-17389.30352227432
 21
-1625.417218093732
 31
0.0
  0
ARC
  5
22F487
330
6C
100
AcDbEntity
  8
Widoczne (ISO)
 62
     2
100
AcDbCircle
 10
-17381.30352227432
 20
-1616.250551427065
 30
0.0
 40
12.16666666666666
100
AcDbArc
 50
228.8879095607388
 51
311.1120904392612
  0
LINE
  5
22F488
330
6C
100
AcDbEntity
  8
Widoczne (ISO)
 62
     2
100
AcDbLine
 10
-17159.30352227432
 20
-1625.417218093732
 30
0.0
 11
-17143.30352227432
 21
-1625.417218093732
 31
0.0
  0
LINE
  5
22F489
330
6C
100
AcDbEntity
  8
Widoczne (ISO)
 62
     2
100
AcDbLine
 10
-17143.30352227432
 20
-1624.917218093732
 30
0.0
 11
-17143.30352227432
 21
-1625.417218093732
 31
0.0
  0
LINE
  5
22F48A
330
6C
100
AcDbEntity
  8
Widoczne (ISO)
 62
     2
100
AcDbLine
 10
-17159.30352227432
 20
-1624.917218093732
 30
0.0
 11
-17159.30352227432
 21
-1625.417218093732
 31
0.0
  0
ARC
  5
22F48B
330
6C
100
AcDbEntity
  8
Widoczne (ISO)
 62
     2
100
AcDbCircle
 10
-17151.30352227432
 20
-1616.250551427065
 30
0.0
 40
12.16666666666666
100
AcDbArc
 50
228.8879095607388
 51
311.1120904392612
  0
LINE
  5
22F48C
330
6C
100
AcDbEntity
  8
Widoczne (ISO)
 62
     2
100
AcDbLine
 10
-16929.30352227432
 20
-1625.417218093732
 30
0.0
 11
-16913.30352227432
 21
-1625.417218093732
 31
0.0
  0
LINE
  5
22F48D
330
6C
100
AcDbEntity
  8
Widoczne (ISO)
 62
     2
100
AcDbLine
 10
-16913.30352227432
 20
-1624.917218093732
 30
0.0
 11
-16913.30352227432
 21
-1625.417218093732
 31
0.0
  0
LINE
  5
22F48E
330
6C
100
AcDbEntity
  8
Widoczne (ISO)
 62
     2
100
AcDbLine
 10
-16929.30352227432
 20
-1624.917218093732
 30
0.0
 11
-16929.30352227432
 21
-1625.417218093732
 31
0.0
  0
ARC
  5
22F48F
330
6C
100
AcDbEntity
  8
Widoczne (ISO)
 62
     2
100
AcDbCircle
 10
-16921.30352227432
 20
-1616.250551427065
 30
0.0
 40
12.16666666666666
100
AcDbArc
 50
228.8879095607388
 51
311.1120904392612
  0
LINE
  5
22F490
330
6C
100
AcDbEntity
  8
Widoczne (ISO)
 62
     2
100
AcDbLine
 10
-17603.30352227432
 20
-1625.417218093732
 30
0.0
 11
-17598.80352227432
 21
-1625.417218093732
 31
0.0
  0
LINE
  5
22F491
330
6C
100
AcDbEntity
  8
Widoczne (ISO)
 62
     2
100
AcDbLine
 10
-17598.80352227432
 20
-1624.917218093732
 30
0.0
 11
-17598.80352227432
 21
-1625.417218093732
 31
0.0
  0
ARC
  5
22F492
330
6C
100
AcDbEntity
  8
Widoczne (ISO)
 62
     2
100
AcDbCircle
 10
-17606.80352227432
 20
-1616.250551427065
 30
0.0
 40
12.16666666666666
100
AcDbArc
 50
259.3428608747534
 51
311.1120904392612
  0
LINE
  5
22F493
330
6C
100
AcDbEntity
  8
Widoczne (ISO)
 62
     2
100
AcDbLine
 10
-17225.80352227432
 20
-1625.417218093732
 30
0.0
 11
-17209.80352227432
 21
-1625.417218093732
 31
0.0
  0
LINE
  5
22F494
330
6C
100
AcDbEntity
  8
Widoczne (ISO)
 62
     2
100
AcDbLine
 10
-17209.80352227432
 20
-1624.917218093732
 30
0.0
 11
-17209.80352227432
 21
-1625.417218093732
 31
0.0
  0
LINE
  5
22F495
330
6C
100
AcDbEntity
  8
Widoczne (ISO)
 62
     2
100
AcDbLine
 10
-17225.80352227432
 20
-1624.917218093732
 30
0.0
 11
-17225.80352227432
 21
-1625.417218093732
 31
0.0
  0
ARC
  5
22F496
330
6C
100
AcDbEntity
  8
Widoczne (ISO)
 62
     2
100
AcDbCircle
 10
-17217.80352227432
 20
-1616.250551427065
 30
0.0
 40
12.16666666666665
100
AcDbArc
 50
228.8879095607388
 51
311.1120904392612
  0
LINE
  5
22F497
330
6C
100
AcDbEntity
  8
Widoczne (ISO)
 62
     2
100
AcDbLine
 10
-16633.80352227439
 20
-1374.917218093732
 30
0.0
 11
-16633.80352227439
 21
-1358.917218093732
 31
0.0
  0
LINE
  5
22F498
330
6C
100
AcDbEntity
  8
Widoczne (ISO)
 62
     2
100
AcDbLine
 10
-16634.30352227439
 20
-1358.917218093732
 30
0.0
 11
-16633.80352227439
 21
-1358.917218093732
 31
0.0
  0
LINE
  5
22F499
330
6C
100
AcDbEntity
  8
Widoczne (ISO)
 62
     2
100
AcDbLine
 10
-16634.30352227439
 20
-1374.917218093732
 30
0.0
 11
-16633.80352227439
 21
-1374.917218093732
 31
0.0
  0
ARC
  5
22F49A
330
6C
100
AcDbEntity
  8
Widoczne (ISO)
 62
     2
100
AcDbCircle
 10
-16642.97018894106
 20
-1366.917218093732
 30
0.0
 40
12.16666666666665
100
AcDbArc
 50
318.887909560832
 51
41.112090439168
  0
LINE
  5
22F49B
330
6C
100
AcDbEntity
  8
Widoczne (ISO)
 62
     2
100
AcDbLine
 10
-16633.80352227438
 20
-1144.917218093733
 30
0.0
 11
-16633.80352227438
 21
-1128.917218093733
 31
0.0
  0
LINE
  5
22F49C
330
6C
100
AcDbEntity
  8
Widoczne (ISO)
 62
     2
100
AcDbLine
 10
-16634.30352227438
 20
-1128.917218093733
 30
0.0
 11
-16633.80352227438
 21
-1128.917218093734
 31
0.0
  0
LINE
  5
22F49D
330
6C
100
AcDbEntity
  8
Widoczne (ISO)
 62
     2
100
AcDbLine
 10
-16634.30352227438
 20
-1144.917218093733
 30
0.0
 11
-16633.80352227438
 21
-1144.917218093733
 31
0.0
  0
ARC
  5
22F49E
330
6C
100
AcDbEntity
  8
Widoczne (ISO)
 62
     2
100
AcDbCircle
 10
-16642.97018894104
 20
-1136.917218093733
 30
0.0
 40
12.16666666666665
100
AcDbArc
 50
318.887909560832
 51
41.112090439168
  0
LINE
  5
22F49F
330
6C
100
AcDbEntity
  8
Widoczne (ISO)
 62
     2
100
AcDbLine
 10
-16633.80352227437
 20
-914.9172180937346
 30
0.0
 11
-16633.80352227436
 21
-898.9172180937346
 31
0.0
  0
LINE
  5
22F4A0
330
6C
100
AcDbEntity
  8
Widoczne (ISO)
 62
     2
100
AcDbLine
 10
-16634.30352227436
 20
-898.9172180937346
 30
0.0
 11
-16633.80352227436
 21
-898.9172180937346
 31
0.0
  0
LINE
  5
22F4A1
330
6C
100
AcDbEntity
  8
Widoczne (ISO)
 62
     2
100
AcDbLine
 10
-16634.30352227436
 20
-914.9172180937346
 30
0.0
 11
-16633.80352227437
 21
-914.9172180937346
 31
0.0
  0
ARC
  5
22F4A2
330
6C
100
AcDbEntity
  8
Widoczne (ISO)
 62
     2
100
AcDbCircle
 10
-16642.97018894103
 20
-906.9172180937339
 30
0.0
 40
12.16666666666666
100
AcDbArc
 50
318.887909560832
 51
41.112090439168
  0
LINE
  5
22F4A3
330
6C
100
AcDbEntity
  8
Widoczne (ISO)
 62
     2
100
AcDbLine
 10
-16633.80352227435
 20
-684.9172180937357
 30
0.0
 11
-16633.80352227435
 21
-668.9172180937357
 31
0.0
  0
LINE
  5
22F4A4
330
6C
100
AcDbEntity
  8
Widoczne (ISO)
 62
     2
100
AcDbLine
 10
-16634.30352227435
 20
-668.9172180937357
 30
0.0
 11
-16633.80352227435
 21
-668.9172180937357
 31
0.0
  0
LINE
  5
22F4A5
330
6C
100
AcDbEntity
  8
Widoczne (ISO)
 62
     2
100
AcDbLine
 10
-16634.30352227435
 20
-684.9172180937357
 30
0.0
 11
-16633.80352227435
 21
-684.9172180937357
 31
0.0
  0
ARC
  5
22F4A6
330
6C
100
AcDbEntity
  8
Widoczne (ISO)
 62
     2
100
AcDbCircle
 10
-16642.97018894101
 20
-676.9172180937353
 30
0.0
 40
12.16666666666666
100
AcDbArc
 50
318.887909560832
 51
41.112090439168
  0
LINE
  5
22F4A7
330
6C
100
AcDbEntity
  8
Widoczne (ISO)
 62
     2
100
AcDbLine
 10
-16633.80352227434
 20
-454.9172180937371
 30
0.0
 11
-16633.80352227434
 21
-438.9172180937371
 31
0.0
  0
LINE
  5
22F4A8
330
6C
100
AcDbEntity
  8
Widoczne (ISO)
 62
     2
100
AcDbLine
 10
-16634.30352227434
 20
-438.9172180937371
 30
0.0
 11
-16633.80352227434
 21
-438.9172180937371
 31
0.0
  0
LINE
  5
22F4A9
330
6C
100
AcDbEntity
  8
Widoczne (ISO)
 62
     2
100
AcDbLine
 10
-16634.30352227434
 20
-454.9172180937366
 30
0.0
 11
-16633.80352227434
 21
-454.9172180937366
 31
0.0
  0
ARC
  5
22F4AA
330
6C
100
AcDbEntity
  8
Widoczne (ISO)
 62
     2
100
AcDbCircle
 10
-16642.970188941
 20
-446.9172180937366
 30
0.0
 40
12.16666666666666
100
AcDbArc
 50
318.887909560832
 51
41.112090439168
  0
LINE
  5
22F4AB
330
6C
100
AcDbEntity
  8
Widoczne (ISO)
 62
     2
100
AcDbLine
 10
-16633.80352227438
 20
-1259.917218093733
 30
0.0
 11
-16633.80352227438
 21
-1243.917218093733
 31
0.0
  0
LINE
  5
22F4AC
330
6C
100
AcDbEntity
  8
Widoczne (ISO)
 62
     2
100
AcDbLine
 10
-16634.30352227439
 20
-1243.917218093733
 30
0.0
 11
-16633.80352227438
 21
-1243.917218093734
 31
0.0
  0
LINE
  5
22F4AD
330
6C
100
AcDbEntity
  8
Widoczne (ISO)
 62
     2
100
AcDbLine
 10
-16634.30352227439
 20
-1259.917218093733
 30
0.0
 11
-16633.80352227438
 21
-1259.917218093733
 31
0.0
  0
ARC
  5
22F4AE
330
6C
100
AcDbEntity
  8
Widoczne (ISO)
 62
     2
100
AcDbCircle
 10
-16642.97018894105
 20
-1251.917218093733
 30
0.0
 40
12.16666666666662
100
AcDbArc
 50
318.887909560832
 51
41.112090439168
  0
LINE
  5
22F4AF
330
6C
100
AcDbEntity
  8
Widoczne (ISO)
 62
     2
100
AcDbLine
 10
-16633.80352227437
 20
-1029.917218093734
 30
0.0
 11
-16633.80352227437
 21
-1013.917218093734
 31
0.0
  0
LINE
  5
22F4B0
330
6C
100
AcDbEntity
  8
Widoczne (ISO)
 62
     2
100
AcDbLine
 10
-16634.30352227436
 20
-1013.917218093734
 30
0.0
 11
-16633.80352227437
 21
-1013.917218093734
 31
0.0
  0
LINE
  5
22F4B1
330
6C
100
AcDbEntity
  8
Widoczne (ISO)
 62
     2
100
AcDbLine
 10
-16634.30352227436
 20
-1029.917218093734
 30
0.0
 11
-16633.80352227437
 21
-1029.917218093734
 31
0.0
  0
ARC
  5
22F4B2
330
6C
100
AcDbEntity
  8
Widoczne (ISO)
 62
     2
100
AcDbCircle
 10
-16642.97018894104
 20
-1021.917218093734
 30
0.0
 40
12.16666666666662
100
AcDbArc
 50
318.887909560832
 51
41.112090439168
  0
LINE
  5
22F4B3
330
6C
100
AcDbEntity
  8
Widoczne (ISO)
 62
     2
100
AcDbLine
 10
-16633.80352227436
 20
-799.9172180937351
 30
0.0
 11
-16633.80352227436
 21
-783.9172180937358
 31
0.0
  0
LINE
  5
22F4B4
330
6C
100
AcDbEntity
  8
Widoczne (ISO)
 62
     2
100
AcDbLine
 10
-16634.30352227436
 20
-783.9172180937351
 30
0.0
 11
-16633.80352227436
 21
-783.9172180937351
 31
0.0
  0
LINE
  5
22F4B5
330
6C
100
AcDbEntity
  8
Widoczne (ISO)
 62
     2
100
AcDbLine
 10
-16634.30352227436
 20
-799.9172180937351
 30
0.0
 11
-16633.80352227436
 21
-799.9172180937351
 31
0.0
  0
ARC
  5
22F4B6
330
6C
100
AcDbEntity
  8
Widoczne (ISO)
 62
     2
100
AcDbCircle
 10
-16642.97018894103
 20
-791.9172180937347
 30
0.0
 40
12.16666666666662
100
AcDbArc
 50
318.887909560832
 51
41.112090439168
  0
LINE
  5
22F4B7
330
6C
100
AcDbEntity
  8
Widoczne (ISO)
 62
     2
100
AcDbLine
 10
-16633.80352227435
 20
-569.9172180937366
 30
0.0
 11
-16633.80352227434
 21
-553.9172180937367
 31
0.0
  0
LINE
  5
22F4B8
330
6C
100
AcDbEntity
  8
Widoczne (ISO)
 62
     2
100
AcDbLine
 10
-16634.30352227434
 20
-553.9172180937367
 30
0.0
 11
-16633.80352227434
 21
-553.9172180937367
 31
0.0
  0
LINE
  5
22F4B9
330
6C
100
AcDbEntity
  8
Widoczne (ISO)
 62
     2
100
AcDbLine
 10
-16634.30352227435
 20
-569.9172180937366
 30
0.0
 11
-16633.80352227435
 21
-569.9172180937366
 31
0.0
  0
ARC
  5
22F4BA
330
6C
100
AcDbEntity
  8
Widoczne (ISO)
 62
     2
100
AcDbCircle
 10
-16642.97018894101
 20
-561.9172180937356
 30
0.0
 40
12.16666666666662
100
AcDbArc
 50
318.887909560832
 51
41.112090439168
  0
LINE
  5
22F4BB
330
6C
100
AcDbEntity
  8
Widoczne (ISO)
 62
     2
100
AcDbLine
 10
-16633.80352227433
 20
-339.9172180937376
 30
0.0
 11
-16633.80352227433
 21
-323.9172180937377
 31
0.0
  0
LINE
  5
22F4BC
330
6C
100
AcDbEntity
  8
Widoczne (ISO)
 62
     2
100
AcDbLine
 10
-16634.30352227433
 20
-323.9172180937377
 30
0.0
 11
-16633.80352227433
 21
-323.9172180937377
 31
0.0
  0
LINE
  5
22F4BD
330
6C
100
AcDbEntity
  8
Widoczne (ISO)
 62
     2
100
AcDbLine
 10
-16634.30352227433
 20
-339.9172180937376
 30
0.0
 11
-16633.80352227433
 21
-339.9172180937376
 31
0.0
  0
ARC
  5
22F4BE
330
6C
100
AcDbEntity
  8
Widoczne (ISO)
 62
     2
100
AcDbCircle
 10
-16642.970188941
 20
-331.9172180937371
 30
0.0
 40
12.16666666666662
100
AcDbArc
 50
318.887909560832
 51
41.112090439168
  0
LINE
  5
22F4BF
330
6C
100
AcDbEntity
  8
Widoczne (ISO)
 62
     2
100
AcDbLine
 10
-16633.80352227437
 20
-1013.917218093734
 30
0.0
 11
-16633.80352227437
 21
-1009.417218093735
 31
0.0
  0
LINE
  5
22F4C0
330
6C
100
AcDbEntity
  8
Widoczne (ISO)
 62
     2
100
AcDbLine
 10
-16634.30352227436
 20
-1009.417218093735
 30
0.0
 11
-16633.80352227437
 21
-1009.417218093735
 31
0.0
  0
ARC
  5
22F4C1
330
6C
100
AcDbEntity
  8
Widoczne (ISO)
 62
     2
100
AcDbCircle
 10
-16642.97018894104
 20
-1017.417218093735
 30
0.0
 40
12.16666666666662
100
AcDbArc
 50
349.3428608748093
 51
41.112090439168
  0
LINE
  5
22F4C2
330
6C
100
AcDbEntity
  8
Widoczne (ISO)
 62
     2
100
AcDbLine
 10
-16633.80352227435
 20
-636.4172180937371
 30
0.0
 11
-16633.80352227435
 21
-620.4172180937371
 31
0.0
  0
LINE
  5
22F4C3
330
6C
100
AcDbEntity
  8
Widoczne (ISO)
 62
     2
100
AcDbLine
 10
-16634.30352227435
 20
-620.4172180937371
 30
0.0
 11
-16633.80352227435
 21
-620.4172180937371
 31
0.0
  0
LINE
  5
22F4C4
330
6C
100
AcDbEntity
  8
Widoczne (ISO)
 62
     2
100
AcDbLine
 10
-16634.30352227435
 20
-636.4172180937371
 30
0.0
 11
-16633.80352227435
 21
-636.4172180937371
 31
0.0
  0
ARC
  5
22F4C5
330
6C
100
AcDbEntity
  8
Widoczne (ISO)
 62
     2
100
AcDbCircle
 10
-16642.97018894101
 20
-628.4172180937368
 30
0.0
 40
12.16666666666661
100
AcDbArc
 50
318.887909560832
 51
41.112090439168
  0
LINE
  5
22F4C6
330
6C
100
AcDbEntity
  8
Widoczne (ISO)
 62
     2
100
AcDbLine
 10
-16884.30352227432
 20
-44.41721809372392
 30
0.0
 11
-16900.30352227432
 21
-44.41721809372483
 31
0.0
  0
LINE
  5
22F4C7
330
6C
100
AcDbEntity
  8
Widoczne (ISO)
 62
     2
100
AcDbLine
 10
-16900.30352227432
 20
-44.91721809372484
 30
0.0
 11
-16900.30352227432
 21
-44.41721809372483
 31
0.0
  0
LINE
  5
22F4C8
330
6C
100
AcDbEntity
  8
Widoczne (ISO)
 62
     2
100
AcDbLine
 10
-16884.30352227432
 20
-44.91721809372438
 30
0.0
 11
-16884.30352227432
 21
-44.41721809372392
 31
0.0
  0
ARC
  5
22F4C9
330
6C
100
AcDbEntity
  8
Widoczne (ISO)
 62
     2
100
AcDbCircle
 10
-16892.30352227432
 20
-53.5838847603909
 30
0.0
 40
12.1666666666667
100
AcDbArc
 50
48.88790956073884
 51
131.1120904392611
  0
LINE
  5
22F4CA
330
6C
100
AcDbEntity
  8
Widoczne (ISO)
 62
     2
100
AcDbLine
 10
-17114.30352227432
 20
-44.41721809373575
 30
0.0
 11
-17130.30352227432
 21
-44.41721809373667
 31
0.0
  0
LINE
  5
22F4CB
330
6C
100
AcDbEntity
  8
Widoczne (ISO)
 62
     2
100
AcDbLine
 10
-17130.30352227432
 20
-44.91721809373621
 30
0.0
 11
-17130.30352227432
 21
-44.4172180937362
 31
0.0
  0
LINE
  5
22F4CC
330
6C
100
AcDbEntity
  8
Widoczne (ISO)
 62
     2
100
AcDbLine
 10
-17114.30352227432
 20
-44.91721809373575
 30
0.0
 11
-17114.30352227432
 21
-44.41721809373575
 31
0.0
  0
ARC
  5
22F4CD
330
6C
100
AcDbEntity
  8
Widoczne (ISO)
 62
     2
100
AcDbCircle
 10
-17122.30352227432
 20
-53.58388476040271
 30
0.0
 40
12.1666666666667
100
AcDbArc
 50
48.88790956073884
 51
131.1120904392611
  0
LINE
  5
22F4CE
330
6C
100
AcDbEntity
  8
Widoczne (ISO)
 62
     2
100
AcDbLine
 10
-17344.30352227432
 20
-44.41721809374757
 30
0.0
 11
-17360.30352227432
 21
-44.4172180937485
 31
0.0
  0
LINE
  5
22F4CF
330
6C
100
AcDbEntity
  8
Widoczne (ISO)
 62
     2
100
AcDbLine
 10
-17360.30352227432
 20
-44.91721809374803
 30
0.0
 11
-17360.30352227432
 21
-44.41721809374803
 31
0.0
  0
LINE
  5
22F4D0
330
6C
100
AcDbEntity
  8
Widoczne (ISO)
 62
     2
100
AcDbLine
 10
-17344.30352227432
 20
-44.91721809374758
 30
0.0
 11
-17344.30352227432
 21
-44.41721809374757
 31
0.0
  0
ARC
  5
22F4D1
330
6C
100
AcDbEntity
  8
Widoczne (ISO)
 62
     2
100
AcDbCircle
 10
-17352.30352227432
 20
-53.58388476041454
 30
0.0
 40
12.1666666666667
100
AcDbArc
 50
48.88790956073884
 51
131.1120904392611
  0
LINE
  5
22F4D2
330
6C
100
AcDbEntity
  8
Widoczne (ISO)
 62
     2
100
AcDbLine
 10
-17574.30352227432
 20
-44.41721809375848
 30
0.0
 11
-17590.30352227432
 21
-44.41721809375939
 31
0.0
  0
LINE
  5
22F4D3
330
6C
100
AcDbEntity
  8
Widoczne (ISO)
 62
     2
100
AcDbLine
 10
-17590.30352227432
 20
-44.91721809375939
 30
0.0
 11
-17590.30352227432
 21
-44.41721809375939
 31
0.0
  0
LINE
  5
22F4D4
330
6C
100
AcDbEntity
  8
Widoczne (ISO)
 62
     2
100
AcDbLine
 10
-17574.30352227432
 20
-44.91721809375849
 30
0.0
 11
-17574.30352227432
 21
-44.41721809375848
 31
0.0
  0
ARC
  5
22F4D5
330
6C
100
AcDbEntity
  8
Widoczne (ISO)
 62
     2
100
AcDbCircle
 10
-17582.30352227432
 20
-53.58388476042591
 30
0.0
 40
12.1666666666667
100
AcDbArc
 50
48.88790956073884
 51
131.1120904392611
  0
LINE
  5
22F4D6
330
6C
100
AcDbEntity
  8
Widoczne (ISO)
 62
     2
100
AcDbLine
 10
-17804.30352227432
 20
-44.41721809377031
 30
0.0
 11
-17820.30352227432
 21
-44.41721809377122
 31
0.0
  0
LINE
  5
22F4D7
330
6C
100
AcDbEntity
  8
Widoczne (ISO)
 62
     2
100
AcDbLine
 10
-17820.30352227432
 20
-44.91721809377077
 30
0.0
 11
-17820.30352227432
 21
-44.41721809377077
 31
0.0
  0
LINE
  5
22F4D8
330
6C
100
AcDbEntity
  8
Widoczne (ISO)
 62
     2
100
AcDbLine
 10
-17804.30352227432
 20
-44.91721809377032
 30
0.0
 11
-17804.30352227432
 21
-44.41721809377031
 31
0.0
  0
ARC
  5
22F4D9
330
6C
100
AcDbEntity
  8
Widoczne (ISO)
 62
     2
100
AcDbCircle
 10
-17812.30352227432
 20
-53.58388476043728
 30
0.0
 40
12.1666666666667
100
AcDbArc
 50
48.88790956073884
 51
131.1120904392611
  0
LINE
  5
22F4DA
330
6C
100
AcDbEntity
  8
Widoczne (ISO)
 62
     2
100
AcDbLine
 10
-16999.30352227432
 20
-44.41721809372983
 30
0.0
 11
-17015.30352227432
 21
-44.4172180937303
 31
0.0
  0
LINE
  5
22F4DB
330
6C
100
AcDbEntity
  8
Widoczne (ISO)
 62
     2
100
AcDbLine
 10
-17015.30352227432
 20
-44.9172180937303
 30
0.0
 11
-17015.30352227432
 21
-44.4172180937303
 31
0.0
  0
LINE
  5
22F4DC
330
6C
100
AcDbEntity
  8
Widoczne (ISO)
 62
     2
100
AcDbLine
 10
-16999.30352227432
 20
-44.91721809372983
 30
0.0
 11
-16999.30352227432
 21
-44.41721809372983
 31
0.0
  0
ARC
  5
22F4DD
330
6C
100
AcDbEntity
  8
Widoczne (ISO)
 62
     2
100
AcDbCircle
 10
-17007.30352227432
 20
-53.58388476039682
 30
0.0
 40
12.16666666666667
100
AcDbArc
 50
48.88790956073884
 51
131.1120904392611
  0
LINE
  5
22F4DE
330
6C
100
AcDbEntity
  8
Widoczne (ISO)
 62
     2
100
AcDbLine
 10
-17229.30352227432
 20
-44.4172180937412
 30
0.0
 11
-17245.30352227432
 21
-44.41721809374211
 31
0.0
  0
LINE
  5
22F4DF
330
6C
100
AcDbEntity
  8
Widoczne (ISO)
 62
     2
100
AcDbLine
 10
-17245.30352227432
 20
-44.91721809374211
 30
0.0
 11
-17245.30352227432
 21
-44.41721809374211
 31
0.0
  0
LINE
  5
22F4E0
330
6C
100
AcDbEntity
  8
Widoczne (ISO)
 62
     2
100
AcDbLine
 10
-17229.30352227432
 20
-44.91721809374165
 30
0.0
 11
-17229.30352227432
 21
-44.41721809374167
 31
0.0
  0
ARC
  5
22F4E1
330
6C
100
AcDbEntity
  8
Widoczne (ISO)
 62
     2
100
AcDbCircle
 10
-17237.30352227432
 20
-53.58388476040864
 30
0.0
 40
12.16666666666667
100
AcDbArc
 50
48.88790956073884
 51
131.1120904392611
  0
LINE
  5
22F4E2
330
6C
100
AcDbEntity
  8
Widoczne (ISO)
 62
     2
100
AcDbLine
 10
-17459.30352227432
 20
-44.41721809375303
 30
0.0
 11
-17475.30352227432
 21
-44.41721809375349
 31
0.0
  0
LINE
  5
22F4E3
330
6C
100
AcDbEntity
  8
Widoczne (ISO)
 62
     2
100
AcDbLine
 10
-17475.30352227432
 20
-44.91721809375394
 30
0.0
 11
-17475.30352227432
 21
-44.41721809375393
 31
0.0
  0
LINE
  5
22F4E4
330
6C
100
AcDbEntity
  8
Widoczne (ISO)
 62
     2
100
AcDbLine
 10
-17459.30352227432
 20
-44.91721809375303
 30
0.0
 11
-17459.30352227432
 21
-44.41721809375303
 31
0.0
  0
ARC
  5
22F4E5
330
6C
100
AcDbEntity
  8
Widoczne (ISO)
 62
     2
100
AcDbCircle
 10
-17467.30352227432
 20
-53.58388476042001
 30
0.0
 40
12.16666666666667
100
AcDbArc
 50
48.88790956073884
 51
131.1120904392611
  0
LINE
  5
22F4E6
330
6C
100
AcDbEntity
  8
Widoczne (ISO)
 62
     2
100
AcDbLine
 10
-17689.30352227432
 20
-44.41721809376439
 30
0.0
 11
-17705.30352227432
 21
-44.41721809376531
 31
0.0
  0
LINE
  5
22F4E7
330
6C
100
AcDbEntity
  8
Widoczne (ISO)
 62
     2
100
AcDbLine
 10
-17705.30352227432
 20
-44.91721809376577
 30
0.0
 11
-17705.30352227432
 21
-44.41721809376531
 31
0.0
  0
LINE
  5
22F4E8
330
6C
100
AcDbEntity
  8
Widoczne (ISO)
 62
     2
100
AcDbLine
 10
-17689.30352227432
 20
-44.91721809376485
 30
0.0
 11
-17689.30352227432
 21
-44.41721809376486
 31
0.0
  0
ARC
  5
22F4E9
330
6C
100
AcDbEntity
  8
Widoczne (ISO)
 62
     2
100
AcDbCircle
 10
-17697.30352227432
 20
-53.58388476043182
 30
0.0
 40
12.16666666666667
100
AcDbArc
 50
48.88790956073884
 51
131.1120904392611
  0
LINE
  5
22F4EA
330
6C
100
AcDbEntity
  8
Widoczne (ISO)
 62
     2
100
AcDbLine
 10
-17919.30352227432
 20
-44.41721809377578
 30
0.0
 11
-17935.30352227432
 21
-44.41721809377668
 31
0.0
  0
LINE
  5
22F4EB
330
6C
100
AcDbEntity
  8
Widoczne (ISO)
 62
     2
100
AcDbLine
 10
-17935.30352227432
 20
-44.91721809377714
 30
0.0
 11
-17935.30352227432
 21
-44.41721809377713
 31
0.0
  0
LINE
  5
22F4EC
330
6C
100
AcDbEntity
  8
Widoczne (ISO)
 62
     2
100
AcDbLine
 10
-17919.30352227432
 20
-44.91721809377668
 30
0.0
 11
-17919.30352227432
 21
-44.41721809377668
 31
0.0
  0
ARC
  5
22F4ED
330
6C
100
AcDbEntity
  8
Widoczne (ISO)
 62
     2
100
AcDbCircle
 10
-17927.30352227432
 20
-53.58388476044365
 30
0.0
 40
12.16666666666667
100
AcDbArc
 50
48.88790956073884
 51
131.1120904392611
  0
LINE
  5
22F4EE
330
6C
100
AcDbEntity
  8
Widoczne (ISO)
 62
     2
100
AcDbLine
 10
-17245.30352227432
 20
-44.4172180937412
 30
0.0
 11
-17249.80352227432
 21
-44.41721809374167
 31
0.0
  0
LINE
  5
22F4EF
330
6C
100
AcDbEntity
  8
Widoczne (ISO)
 62
     2
100
AcDbLine
 10
-17249.80352227432
 20
-44.9172180937412
 30
0.0
 11
-17249.80352227432
 21
-44.41721809374167
 31
0.0
  0
ARC
  5
22F4F0
330
6C
100
AcDbEntity
  8
Widoczne (ISO)
 62
     2
100
AcDbCircle
 10
-17241.80352227431
 20
-53.58388476040818
 30
0.0
 40
12.16666666666667
100
AcDbArc
 50
79.34286087475339
 51
131.1120904392611
  0
LINE
  5
22F4F1
330
6C
100
AcDbEntity
  8
Widoczne (ISO)
 62
     2
100
AcDbLine
 10
-17622.80352227432
 20
-44.41721809376031
 30
0.0
 11
-17638.80352227432
 21
-44.41721809376121
 31
0.0
  0
LINE
  5
22F4F2
330
6C
100
AcDbEntity
  8
Widoczne (ISO)
 62
     2
100
AcDbLine
 10
-17638.80352227432
 20
-44.91721809376031
 30
0.0
 11
-17638.80352227432
 21
-44.41721809376075
 31
0.0
  0
LINE
  5
22F4F3
330
6C
100
AcDbEntity
  8
Widoczne (ISO)
 62
     2
100
AcDbLine
 10
-17622.80352227432
 20
-44.91721809375984
 30
0.0
 11
-17622.80352227432
 21
-44.41721809376031
 31
0.0
  0
ARC
  5
22F4F4
330
6C
100
AcDbEntity
  8
Widoczne (ISO)
 62
     2
100
AcDbCircle
 10
-17630.80352227431
 20
-53.58388476042728
 30
0.0
 40
12.16666666666666
100
AcDbArc
 50
48.88790956073884
 51
131.1120904392611
  0
LINE
  5
22F4F5
330
6C
100
AcDbEntity
  8
Widoczne (ISO)
 62
     2
100
AcDbLine
 10
-18214.80352227439
 20
-294.9172180938199
 30
0.0
 11
-18214.80352227439
 21
-310.9172180938199
 31
0.0
  0
LINE
  5
22F4F6
330
6C
100
AcDbEntity
  8
Widoczne (ISO)
 62
     2
100
AcDbLine
 10
-18214.30352227439
 20
-310.9172180938199
 30
0.0
 11
-18214.80352227439
 21
-310.9172180938199
 31
0.0
  0
LINE
  5
22F4F7
330
6C
100
AcDbEntity
  8
Widoczne (ISO)
 62
     2
100
AcDbLine
 10
-18214.30352227439
 20
-294.9172180938199
 30
0.0
 11
-18214.80352227439
 21
-294.9172180938199
 31
0.0
  0
ARC
  5
22F4F8
330
6C
100
AcDbEntity
  8
Widoczne (ISO)
 62
     2
100
AcDbCircle
 10
-18205.63685560772
 20
-302.9172180938194
 30
0.0
 40
12.16666666666667
100
AcDbArc
 50
138.887909560832
 51
221.112090439168
  0
LINE
  5
22F4F9
330
6C
100
AcDbEntity
  8
Widoczne (ISO)
 62
     2
100
AcDbLine
 10
-18214.80352227438
 20
-524.9172180938193
 30
0.0
 11
-18214.80352227438
 21
-540.9172180938193
 31
0.0
  0
LINE
  5
22F4FA
330
6C
100
AcDbEntity
  8
Widoczne (ISO)
 62
     2
100
AcDbLine
 10
-18214.30352227438
 20
-524.9172180938193
 30
0.0
 11
-18214.80352227438
 21
-524.9172180938193
 31
0.0
  0
ARC
  5
22F4FB
330
6C
100
AcDbEntity
  8
Widoczne (ISO)
 62
     2
100
AcDbCircle
 10
-18205.63685560771
 20
-532.9172180938188
 30
0.0
 40
12.16666666666667
100
AcDbArc
 50
138.887909560832
 51
221.112090439168
  0
LINE
  5
22F4FC
330
6C
100
AcDbEntity
  8
Widoczne (ISO)
 62
     2
100
AcDbLine
 10
-18214.80352227434
 20
-1214.917218093817
 30
0.0
 11
-18214.80352227434
 21
-1230.917218093817
 31
0.0
  0
LINE
  5
22F4FD
330
6C
100
AcDbEntity
  8
Widoczne (ISO)
 62
     2
100
AcDbLine
 10
-18214.30352227434
 20
-1230.917218093817
 30
0.0
 11
-18214.80352227434
 21
-1230.917218093817
 31
0.0
  0
LINE
  5
22F4FE
330
6C
100
AcDbEntity
  8
Widoczne (ISO)
 62
     2
100
AcDbLine
 10
-18214.30352227434
 20
-1214.917218093817
 30
0.0
 11
-18214.80352227434
 21
-1214.917218093817
 31
0.0
  0
ARC
  5
22F4FF
330
6C
100
AcDbEntity
  8
Widoczne (ISO)
 62
     2
100
AcDbCircle
 10
-18205.63685560767
 20
-1222.917218093817
 30
0.0
 40
12.16666666666667
100
AcDbArc
 50
138.887909560832
 51
221.112090439168
  0
LINE
  5
22F500
330
6C
100
AcDbEntity
  8
Widoczne (ISO)
 62
     2
100
AcDbLine
 10
-18214.80352227439
 20
-409.917218093819
 30
0.0
 11
-18214.80352227439
 21
-425.917218093819
 31
0.0
  0
LINE
  5
22F501
330
6C
100
AcDbEntity
  8
Widoczne (ISO)
 62
     2
100
AcDbLine
 10
-18214.30352227438
 20
-425.917218093819
 30
0.0
 11
-18214.80352227439
 21
-425.917218093819
 31
0.0
  0
LINE
  5
22F502
330
6C
100
AcDbEntity
  8
Widoczne (ISO)
 62
     2
100
AcDbLine
 10
-18214.30352227438
 20
-409.917218093819
 30
0.0
 11
-18214.80352227439
 21
-409.917218093819
 31
0.0
  0
ARC
  5
22F503
330
6C
100
AcDbEntity
  8
Widoczne (ISO)
 62
     2
100
AcDbCircle
 10
-18205.63685560772
 20
-417.9172180938185
 30
0.0
 40
12.16666666666663
100
AcDbArc
 50
138.887909560832
 51
221.112090439168
  0
LINE
  5
22F504
330
6C
100
AcDbEntity
  8
Widoczne (ISO)
 62
     2
100
AcDbLine
 10
-18214.80352227435
 20
-1099.917218093817
 30
0.0
 11
-18214.80352227435
 21
-1115.917218093817
 31
0.0
  0
LINE
  5
22F505
330
6C
100
AcDbEntity
  8
Widoczne (ISO)
 62
     2
100
AcDbLine
 10
-18214.30352227435
 20
-1115.917218093817
 30
0.0
 11
-18214.80352227435
 21
-1115.917218093817
 31
0.0
  0
LINE
  5
22F506
330
6C
100
AcDbEntity
  8
Widoczne (ISO)
 62
     2
100
AcDbLine
 10
-18214.30352227435
 20
-1099.917218093817
 30
0.0
 11
-18214.80352227435
 21
-1099.917218093817
 31
0.0
  0
ARC
  5
22F507
330
6C
100
AcDbEntity
  8
Widoczne (ISO)
 62
     2
100
AcDbCircle
 10
-18205.63685560768
 20
-1107.917218093817
 30
0.0
 40
12.16666666666663
100
AcDbArc
 50
138.887909560832
 51
221.112090439168
  0
LINE
  5
22F508
330
6C
100
AcDbEntity
  8
Widoczne (ISO)
 62
     2
100
AcDbLine
 10
-18214.80352227433
 20
-1329.917218093817
 30
0.0
 11
-18214.80352227433
 21
-1345.917218093817
 31
0.0
  0
LINE
  5
22F509
330
6C
100
AcDbEntity
  8
Widoczne (ISO)
 62
     2
100
AcDbLine
 10
-18214.30352227433
 20
-1345.917218093817
 30
0.0
 11
-18214.80352227433
 21
-1345.917218093817
 31
0.0
  0
LINE
  5
22F50A
330
6C
100
AcDbEntity
  8
Widoczne (ISO)
 62
     2
100
AcDbLine
 10
-18214.30352227433
 20
-1329.917218093817
 30
0.0
 11
-18214.80352227433
 21
-1329.917218093817
 31
0.0
  0
ARC
  5
22F50B
330
6C
100
AcDbEntity
  8
Widoczne (ISO)
 62
     2
100
AcDbCircle
 10
-18205.63685560767
 20
-1337.917218093816
 30
0.0
 40
12.16666666666663
100
AcDbArc
 50
138.887909560832
 51
221.112090439168
  0
LINE
  5
22F50C
330
6C
100
AcDbEntity
  8
Widoczne (ISO)
 62
     2
100
AcDbLine
 10
-18214.80352227435
 20
-1033.417218093817
 30
0.0
 11
-18214.80352227435
 21
-1049.417218093817
 31
0.0
  0
LINE
  5
22F50D
330
6C
100
AcDbEntity
  8
Widoczne (ISO)
 62
     2
100
AcDbLine
 10
-18214.30352227435
 20
-1049.417218093817
 30
0.0
 11
-18214.80352227435
 21
-1049.417218093817
 31
0.0
  0
LINE
  5
22F50E
330
6C
100
AcDbEntity
  8
Widoczne (ISO)
 62
     2
100
AcDbLine
 10
-18214.30352227435
 20
-1033.417218093817
 30
0.0
 11
-18214.80352227435
 21
-1033.417218093817
 31
0.0
  0
ARC
  5
22F50F
330
6C
100
AcDbEntity
  8
Widoczne (ISO)
 62
     2
100
AcDbCircle
 10
-18205.63685560768
 20
-1041.417218093816
 30
0.0
 40
12.16666666666662
100
AcDbArc
 50
138.887909560832
 51
221.112090439168
  0
LINE
  5
22F510
330
6C
100
AcDbEntity
  8
Widoczne (ISO)
 62
     2
100
AcDbLine
 10
-16633.80352227432
 20
-69.91721809373803
 30
0.0
 11
-16633.80352227432
 21
-53.91721809373803
 31
0.0
  0
LINE
  5
22F511
330
6C
100
AcDbEntity
  8
Widoczne (ISO)
 62
     2
100
AcDbLine
 10
-16634.30352227432
 20
-53.91721809373757
 30
0.0
 11
-16633.80352227432
 21
-53.91721809373757
 31
0.0
  0
LINE
  5
22F512
330
6C
100
AcDbEntity
  8
Widoczne (ISO)
 62
     2
100
AcDbLine
 10
-16634.30352227432
 20
-69.91721809373803
 30
0.0
 11
-16633.80352227432
 21
-69.91721809373803
 31
0.0
  0
ARC
  5
22F513
330
6C
100
AcDbEntity
  8
Widoczne (ISO)
 62
     2
100
AcDbCircle
 10
-16642.97018894099
 20
-61.91721809373711
 30
0.0
 40
12.16666666666667
100
AcDbArc
 50
318.887909560832
 51
41.112090439168
  0
LINE
  5
22F514
330
6C
100
AcDbEntity
  8
Widoczne (ISO)
 62
     2
100
AcDbLine
 10
-18189.30352227432
 20
-44.41721809378941
 30
0.0
 11
-18205.30352227431
 21
-44.41721809379031
 31
0.0
  0
LINE
  5
22F515
330
6C
100
AcDbEntity
  8
Widoczne (ISO)
 62
     2
100
AcDbLine
 10
-18205.30352227431
 20
-44.91721809378986
 30
0.0
 11
-18205.30352227431
 21
-44.41721809379031
 31
0.0
  0
LINE
  5
22F516
330
6C
100
AcDbEntity
  8
Widoczne (ISO)
 62
     2
100
AcDbLine
 10
-18189.30352227432
 20
-44.9172180937894
 30
0.0
 11
-18189.30352227432
 21
-44.41721809378986
 31
0.0
  0
ARC
  5
22F517
330
6C
100
AcDbEntity
  8
Widoczne (ISO)
 62
     2
100
AcDbCircle
 10
-18197.30352227431
 20
-53.58388476045685
 30
0.0
 40
12.16666666666666
100
AcDbArc
 50
48.88790956073884
 51
131.1120904392611
  0
LINE
  5
22F518
330
6C
100
AcDbEntity
  8
Widoczne (ISO)
 62
     2
100
AcDbLine
 10
-18214.80352227432
 20
-1599.917218093817
 30
0.0
 11
-18214.80352227432
 21
-1615.917218093818
 31
0.0
  0
LINE
  5
22F519
330
6C
100
AcDbEntity
  8
Widoczne (ISO)
 62
     2
100
AcDbLine
 10
-18214.30352227432
 20
-1615.917218093818
 30
0.0
 11
-18214.80352227432
 21
-1615.917218093818
 31
0.0
  0
LINE
  5
22F51A
330
6C
100
AcDbEntity
  8
Widoczne (ISO)
 62
     2
100
AcDbLine
 10
-18214.30352227432
 20
-1599.917218093817
 30
0.0
 11
-18214.80352227432
 21
-1599.917218093817
 31
0.0
  0
ARC
  5
22F51B
330
6C
100
AcDbEntity
  8
Widoczne (ISO)
 62
     2
100
AcDbCircle
 10
-18205.63685560765
 20
-1607.917218093817
 30
0.0
 40
12.16666666666669
100
AcDbArc
 50
138.887909560832
 51
221.112090439168
  0
LINE
  5
22F51C
330
6C
100
AcDbEntity
  8
Widoczne (ISO)
 62
     2
100
AcDbLine
 10
-16659.30352227432
 20
-1625.417218093732
 30
0.0
 11
-16643.30352227432
 21
-1625.417218093732
 31
0.0
  0
LINE
  5
22F51D
330
6C
100
AcDbEntity
  8
Widoczne (ISO)
 62
     2
100
AcDbLine
 10
-16643.30352227432
 20
-1624.917218093732
 30
0.0
 11
-16643.30352227432
 21
-1625.417218093732
 31
0.0
  0
LINE
  5
22F51E
330
6C
100
AcDbEntity
  8
Widoczne (ISO)
 62
     2
100
AcDbLine
 10
-16659.30352227432
 20
-1624.917218093732
 30
0.0
 11
-16659.30352227432
 21
-1625.417218093732
 31
0.0
  0
ARC
  5
22F51F
330
6C
100
AcDbEntity
  8
Widoczne (ISO)
 62
     2
100
AcDbCircle
 10
-16651.30352227432
 20
-1616.250551427065
 30
0.0
 40
12.16666666666667
100
AcDbArc
 50
228.8879095607388
 51
311.1120904392612
  0
LINE
  5
2347AF
330
6C
100
AcDbEntity
  8
10_WYMIARY
 48
10.0
100
AcDbLine
 10
-17924.30352227439
 20
-334.9172180937789
 30
0.0
 11
-17924.30352227435
 21
-934.9172180937811
 31
0.0
  0
LINE
  5
2347B2
330
6C
100
AcDbEntity
  8
Widoczne (ISO)
 62
     2
100
AcDbLine
 10
-18214.3035222744
 20
-44.91721809379351
 30
0.0
 11
-17524.3035222744
 21
-44.91721809375714
 31
0.0
  0
LINE
  5
2347B3
330
6C
100
AcDbEntity
  8
Widoczne (ISO)
 62
     2
100
AcDbLine
 10
-18214.3035222744
 20
-44.91721809379351
 30
0.0
 11
-18214.30352227436
 21
-934.9172180937967
 31
0.0
  0
LINE
  5
2347B6
330
6C
100
AcDbEntity
  8
10_WYMIARY
 48
10.0
100
AcDbLine
 10
-16924.30352227433
 20
-334.9172180938108
 30
0.0
 11
-16924.30352227435
 21
-734.9172180938084
 31
0.0
  0
LINE
  5
2347B8
330
6C
100
AcDbEntity
  8
Widoczne (ISO)
 62
     2
100
AcDbLine
 10
-16634.30352227432
 20
-44.91721809382896
 30
0.0
 11
-16634.30352227435
 21
-734.9172180938284
 31
0.0
  0
LINE
  5
2347B9
330
6C
100
AcDbEntity
  8
Widoczne (ISO)
 62
     2
100
AcDbLine
 10
-16634.30352227432
 20
-44.91721809382896
 30
0.0
 11
-17524.30352227432
 21
-44.91721809377395
 31
0.0
  0
LINE
  5
2347BC
330
6C
100
AcDbEntity
  8
10_WYMIARY
 48
10.0
100
AcDbLine
 10
-17924.30352227433
 20
-1334.917218093776
 30
0.0
 11
-17924.30352227435
 21
-934.9172180937783
 31
0.0
  0
LINE
  5
2347BE
330
6C
100
AcDbEntity
  8
Widoczne (ISO)
 62
     2
100
AcDbLine
 10
-18214.30352227432
 20
-1624.917218093791
 30
0.0
 11
-18214.30352227435
 21
-934.9172180937907
 31
0.0
  0
LINE
  5
2347BF
330
6C
100
AcDbEntity
  8
Widoczne (ISO)
 62
     2
100
AcDbLine
 10
-18214.30352227432
 20
-1624.917218093791
 30
0.0
 11
-17324.30352227432
 21
-1624.917218093747
 31
0.0
  0
LINE
  5
2347C1
330
6C
100
AcDbEntity
  8
10_WYMIARY
 48
10.0
100
AcDbLine
 10
-16924.30352227434
 20
-1334.917218093731
 30
0.0
 11
-16924.30352227434
 21
-734.9172180937316
 31
0.0
  0
LINE
  5
2347C4
330
6C
100
AcDbEntity
  8
Widoczne (ISO)
 62
     2
100
AcDbLine
 10
-16634.30352227434
 20
-1624.917218093731
 30
0.0
 11
-17324.30352227434
 21
-1624.917218093731
 31
0.0
  0
LINE
  5
2347C5
330
6C
100
AcDbEntity
  8
Widoczne (ISO)
 62
     2
100
AcDbLine
 10
-16634.30352227434
 20
-1624.917218093731
 30
0.0
 11
-16634.30352227434
 21
-734.9172180937316
 31
0.0
  0
INSERT
  5
2FA9DE
330
6C
100
AcDbEntity
  8
0
100
AcDbBlockReference
  2
rterttt
 10
-3844.489759868386
 20
-319.8691514031238
 30
0.0
  0
LINE
  5
2FA9DF
330
6C
100
AcDbEntity
  8
10_WYMIARY
 48
10.0
100
AcDbLine
 10
-17924.30352227439
 20
-334.9172180937789
 30
0.0
 11
-16924.30352227433
 21
-334.9172180938244
 31
0.0
  0
LINE
  5
2FA9E0
330
6C
100
AcDbEntity
  8
10_WYMIARY
 48
10.0
100
AcDbLine
 10
-17924.30352227433
 20
-1334.917218093776
 30
0.0
 11
-16924.30352227434
 21
-1334.917218093731
 31
0.0
  0
ENDSEC
  0
SECTION
  2
OBJECTS
  0
DICTIONARY
  5
C
330
0
100
AcDbDictionary
281
     1
  3
ACAD_2007HEADERVARS_RT
350
2FAA5A
  3
ACAD_COLOR
350
63
  3
ACAD_GROUP
350
D
  3
ACAD_LAYOUT
350
62
  3
ACAD_MATERIAL
350
10
  3
ACAD_MLEADERSTYLE
350
66
  3
ACAD_MLINESTYLE
350
5F
  3
ACAD_PLOTSETTINGS
350
61
  3
ACAD_PLOTSTYLENAME
350
E
  3
ACAD_SCALELIST
350
42
  3
ACAD_TABLESTYLE
350
64
  3
ACAD_VISUALSTYLE
350
29
  3
ACDB_RECOMPOSE_DATA
350
2FAA58
  3
AcDbVariableDictionary
350
22DB7
  3
AcmDictionary
350
22E11
  3
AMG
350
22DC3
  3
AMGSNAPSETTINGS
350
22E52
  3
DWGPROPS
350
2FAA59
  0
DICTIONARY
  5
22E5D
330
2
100
AcDbDictionary
280
     1
281
     1
  3
ACAD_LAYERSTATES
360
22E5E
  3
AMLAYER_GROUPCOLORS
360
79095
  0
DICTIONARY
  5
22EDD
330
22EDC
100
AcDbDictionary
280
     1
281
     1
  0
DICTIONARY
  5
2D669
330
6C
100
AcDbDictionary
280
     1
281
     1
  3
ACAD_SORTENTS
360
2D66A
  0
DICTIONARY
  5
2FA2EE
330
2F9D9A
100
AcDbDictionary
280
     1
281
     1
  3
ACAD_SORTENTS
360
2FA2EF
  0
DICTIONARY
  5
2FAA5A
102
{ACAD_REACTORS
330
C
102
}
330
C
100
AcDbDictionary
281
     1
  3
DIMARCSYM
350
2FAA5B
  3
DIMLTEX1
350
2FAA5D
  3
DIMLTEX2
350
2FAA5E
  3
DIMLTYPE
350
2FAA5C
  0
DICTIONARY
  5
63
102
{ACAD_REACTORS
330
C
102
}
330
C
100
AcDbDictionary
281
     1
  0
DICTIONARY
  5
D
102
{ACAD_REACTORS
330
C
102
}
330
C
100
AcDbDictionary
281
     1
  0
DICTIONARY
  5
62
102
{ACAD_REACTORS
330
C
102
}
330
C
100
AcDbDictionary
281
     1
  3
Layout1
350
6B
  3
Layout2
350
73
  3
Model
350
6F
  0
DICTIONARY
  5
10
102
{ACAD_REACTORS
330
C
102
}
330
C
100
AcDbDictionary
281
     1
  3
ByBlock
350
19
  3
ByLayer
350
11
  3
Global
350
21
  0
DICTIONARY
  5
66
102
{ACAD_REACTORS
330
C
102
}
330
C
100
AcDbDictionary
281
     1
  3
Standard
350
67
  0
DICTIONARY
  5
5F
102
{ACAD_REACTORS
330
C
102
}
330
C
100
AcDbDictionary
281
     1
  3
Standard
350
60
  0
DICTIONARY
  5
61
102
{ACAD_REACTORS
330
C
102
}
330
C
100
AcDbDictionary
281
     1
  0
ACDBDICTIONARYWDFLT
  5
E
102
{ACAD_REACTORS
330
C
102
}
330
C
100
AcDbDictionary
281
     1
  3
Normal
350
F
100
AcDbDictionaryWithDefault
340
F
  0
DICTIONARY
  5
42
102
{ACAD_REACTORS
330
C
102
}
330
C
100
AcDbDictionary
281
     1
  3
A0
350
43
  3
A1
350
44
  3
A2
350
45
  3
A3
350
46
  3
A4
350
47
  3
A5
350
48
  3
A6
350
49
  3
A7
350
4A
  3
A8
350
4B
  3
A9
350
4C
  3
B0
350
4D
  3
B1
350
4E
  3
B2
350
4F
  3
B3
350
50
  3
B4
350
51
  3
B5
350
52
  3
B6
350
53
  0
DICTIONARY
  5
64
102
{ACAD_REACTORS
330
C
102
}
330
C
100
AcDbDictionary
281
     1
  3
Standard
350
65
  0
DICTIONARY
  5
29
102
{ACAD_REACTORS
330
C
102
}
330
C
100
AcDbDictionary
281
     1
  3
2dWireframe
350
2F
  3
3dWireframe
350
22EE4
  3
Basic
350
2E
  3
Brighten
350
35
  3
ColorChange
350
39
  3
Conceptual
350
32
  3
Dim
350
34
  3
EdgeColorOff
350
41
  3
Facepattern
350
38
  3
Flat
350
2A
  3
FlatWithEdges
350
2B
  3
Gouraud
350
2C
  3
GouraudWithEdges
350
2D
  3
Hidden
350
31
  3
JitterOff
350
3F
  3
Linepattern
350
37
  3
OverhangOff
350
40
  3
Realistic
350
33
  3
Shaded
350
3E
  3
Shaded with edges
350
3D
  3
Shades of Gray
350
3A
  3
Sketchy
350
3B
  3
Thicken
350
36
  3
Wireframe
350
30
  3
X-Ray
350
3C
  0
XRECORD
  5
2FAA58
102
{ACAD_REACTORS
330
C
102
}
330
C
100
AcDbXrecord
280
     1
 90
        1
330
65
  0
DICTIONARY
  5
22DB7
102
{ACAD_REACTORS
330
C
102
}
330
C
100
AcDbDictionary
281
     1
  3
CANNOSCALE
350
22DBA
  3
CMLEADERSTYLE
350
22DB9
  3
CTABLESTYLE
350
22DB8
  3
DIMASSOC
350
2F9CE1
  3
HIDETEXT
350
2F9CE0
  3
HPORIGIN
350
7A31F
  3
INDEXCTL
350
2F9CDF
  3
LAYEREVAL
350
2F9CDC
  3
LAYERNOTIFY
350
2F9CDD
  3
LIGHTINGUNITS
350
2F9CDB
  3
MSLTSCALE
350
2F9CDA
  3
SORTENTS
350
2F9CDE
  3
XCLIPFRAME
350
2FAA56
  0
DICTIONARY
  5
22E11
102
{ACAD_REACTORS
330
C
102
}
330
C
100
AcDbDictionary
281
     1
  3
AcmStdDictionary
350
22E1C
  0
DICTIONARY
  5
22DC3
102
{ACAD_REACTORS
330
C
102
}
330
C
100
AcDbDictionary
281
     1
  0
DICTIONARY
  5
22E52
102
{ACAD_REACTORS
330
C
102
}
330
C
100
AcDbDictionary
281
     1
  0
XRECORD
  5
2FAA59
102
{ACAD_REACTORS
330
C
102
}
330
C
100
AcDbXrecord
280
     1
  1
DWGPROPS COOKIE
  2

  3

  4
Daniel Mazur
  6

  7

  8
Jumpo
  9

300
Menadżer=
301
Firma=
302
Kategoria=
303
Numer części=
304
Opis=
305
Projekt=
306
Projektant=Daniel Mazur
307
Inżynier=
308
Zatwierdził=
309
Centrum kosztów=
 40
1.072715150462963
 41
2458022.861501852
 42
2458667.566029711
  1

 90
       16
300
Dostawca=
300
Stan użytkownika=
300
Stan projektu=PracaWToku
300
Sprawdził=
300
Zatwierdził konstrukcję=
300
Zatwierdził do produkcji=
  0
DICTIONARY
  5
22E5E
102
{ACAD_REACTORS
330
22E5D
102
}
330
22E5D
100
AcDbDictionary
281
     1
  0
DICTIONARY
  5
79095
102
{ACAD_REACTORS
330
22E5D
102
}
330
22E5D
100
AcDbDictionary
280
     1
281
     1
  0
SORTENTSTABLE
  5
2D66A
102
{ACAD_REACTORS
330
2D669
102
}
330
2D669
100
AcDbSortentsTable
330
6C
331
22F45E
  5
234404
331
22F464
  5
23440A
331
22F479
  5
23441F
331
22F47F
  5
234425
331
22F4D1
  5
234477
331
22F49A
  5
234440
331
22F485
  5
23442B
331
22F4D7
  5
23447D
331
22F4A0
  5
234446
331
22F4DD
  5
234483
331
22F4F2
  5
234498
331
22F4A6
  5
23444C
331
22F4BB
  5
234461
331
22F4F8
  5
23449E
331
22F4FE
  5
2344A4
331
22F513
  5
2344B9
331
22F519
  5
2344BF
331
22F51F
  5
2344C5
331
2347BC
  5
239C80
331
22F44D
  5
2343F3
331
22F453
  5
2343F9
331
22F468
  5
23440E
331
22F46E
  5
234414
331
22F4C0
  5
234466
331
22F474
  5
23441A
331
22F489
  5
23442F
331
22F4C6
  5
23446C
331
22F48F
  5
234435
331
22F4E1
  5
234487
331
22F4CC
  5
234472
331
22F4AA
  5
234450
331
22F495
  5
23443B
331
22F4E7
  5
23448D
331
22F4B0
  5
234456
331
22F4ED
  5
234493
331
22F502
  5
2344A8
331
22F4B6
  5
23445C
331
22F508
  5
2344AE
331
22F50E
  5
2344B4
331
22F45D
  5
234403
331
22F463
  5
234409
331
22F478
  5
23441E
331
22F47E
  5
234424
331
22F4D0
  5
234476
331
22F484
  5
23442A
331
22F499
  5
23443F
331
22F4D6
  5
23447C
331
22F49F
  5
234445
331
22F4DC
  5
234482
331
22F4F1
  5
234497
331
22F4A5
  5
23444B
331
22F4BA
  5
234460
331
22F4F7
  5
23449D
331
22F4FD
  5
2344A3
331
22F512
  5
2344B8
331
22F518
  5
2344BE
331
22F51E
  5
2344C4
331
22F44C
  5
2343F2
331
22F452
  5
2343F8
331
22F46D
  5
234413
331
22F473
  5
234419
331
22F488
  5
23442E
331
2347C5
  5
239C89
331
22F4C5
  5
23446B
331
22F48E
  5
234434
331
22F4CB
  5
234471
331
22F4E0
  5
234486
331
22F494
  5
23443A
331
22F4A9
  5
23444F
331
22F4E6
  5
23448C
331
22F4AF
  5
234455
331
22F4EC
  5
234492
331
22F501
  5
2344A7
331
22F4B5
  5
23445B
331
22F507
  5
2344AD
331
22F50D
  5
2344B3
331
2347B6
  5
239C7A
331
22F45C
  5
234402
331
22F462
  5
234408
331
22F47D
  5
234423
331
22F483
  5
234429
331
22F498
  5
23443E
331
22F4D5
  5
23447B
331
22F49E
  5
234444
331
22F4DB
  5
234481
331
22F4F0
  5
234496
331
22F4A4
  5
23444A
331
22F4B9
  5
23445F
331
22F4F6
  5
23449C
331
22F4BF
  5
234465
331
22F4FC
  5
2344A2
331
22F511
  5
2344B7
331
22F517
  5
2344BD
331
22F51D
  5
2344C3
331
22F44B
  5
2343F1
331
22F451
  5
2343F7
331
22F457
  5
2343FD
331
22F46C
  5
234412
331
22F472
  5
234418
331
2347C4
  5
239C88
331
22F4C4
  5
23446A
331
22F48D
  5
234433
331
22F4CA
  5
234470
331
22F493
  5
234439
331
22F4A8
  5
23444E
331
22F4E5
  5
23448B
331
22F4AE
  5
234454
331
22F4EB
  5
234491
331
22F500
  5
2344A6
331
22F4B4
  5
23445A
331
22F506
  5
2344AC
331
22F50C
  5
2344B2
331
2347AF
  5
239C73
331
22F45B
  5
234401
331
22F461
  5
234407
331
22F47C
  5
234422
331
22F482
  5
234428
331
22F4D4
  5
23447A
331
22F49D
  5
234443
331
22F4DA
  5
234480
331
22F4A3
  5
234449
331
22F4B8
  5
23445E
331
22F4F5
  5
23449B
331
22F4BE
  5
234464
331
22F4FB
  5
2344A1
331
22F510
  5
2344B6
331
22F516
  5
2344BC
331
22F51C
  5
2344C2
331
2347B9
  5
239C7D
331
2347BF
  5
239C83
331
22F44A
  5
2343F0
331
22F450
  5
2343F6
331
22F456
  5
2343FC
331
22F46B
  5
234411
331
22F471
  5
234417
331
22F4C3
  5
234469
331
22F477
  5
23441D
331
22F48C
  5
234432
331
22F4C9
  5
23446F
331
22F492
  5
234438
331
22F4E4
  5
23448A
331
22F4CF
  5
234475
331
22F4AD
  5
234453
331
22F4EA
  5
234490
331
22F4B3
  5
234459
331
22F505
  5
2344AB
331
22F50B
  5
2344B1
331
22F45A
  5
234400
331
22F460
  5
234406
331
22F47B
  5
234421
331
22F481
  5
234427
331
22F4D3
  5
234479
331
22F487
  5
23442D
331
22F49C
  5
234442
331
22F4D9
  5
23447F
331
22F4A2
  5
234448
331
22F4F4
  5
23449A
331
22F4DF
  5
234485
331
22F4BD
  5
234463
331
22F4FA
  5
2344A0
331
22F515
  5
2344BB
331
22F51B
  5
2344C1
331
2347B8
  5
239C7C
331
2347BE
  5
239C82
331
22F44F
  5
2343F5
331
22F455
  5
2343FB
331
22F46A
  5
234410
331
22F470
  5
234416
331
22F4C2
  5
234468
331
22F476
  5
23441C
331
22F48B
  5
234431
331
22F4C8
  5
23446E
331
22F491
  5
234437
331
22F4CE
  5
234474
331
22F4E3
  5
234489
331
22F497
  5
23443D
331
22F4AC
  5
234452
331
22F4E9
  5
23448F
331
22F4B2
  5
234458
331
22F504
  5
2344AA
331
22F4EF
  5
234495
331
22F50A
  5
2344B0
331
2347B3
  5
239C77
331
22F459
  5
2343FF
331
22F45F
  5
234405
331
22F47A
  5
234420
331
22F465
  5
23440B
331
22F480
  5
234426
331
22F4D2
  5
234478
331
22F486
  5
23442C
331
22F49B
  5
234441
331
22F4D8
  5
23447E
331
22F4A1
  5
234447
331
22F4DE
  5
234484
331
22F4F3
  5
234499
331
22F4A7
  5
23444D
331
22F4BC
  5
234462
331
22F4F9
  5
23449F
331
22F4FF
  5
2344A5
331
22F514
  5
2344BA
331
22F51A
  5
2344C0
331
22F44E
  5
2343F4
331
22F454
  5
2343FA
331
22F469
  5
23440F
331
22F46F
  5
234415
331
22F4C1
  5
234467
331
2347C1
  5
239C85
331
22F48A
  5
234430
331
22F475
  5
23441B
331
22F4C7
  5
23446D
331
22F490
  5
234436
331
22F4CD
  5
234473
331
22F4E2
  5
234488
331
22F496
  5
23443C
331
22F4AB
  5
234451
331
22F4E8
  5
23448E
331
22F4B1
  5
234457
331
22F4EE
  5
234494
331
22F503
  5
2344A9
331
22F4B7
  5
23445D
331
22F509
  5
2344AF
331
22F50F
  5
2344B5
331
2347B2
  5
239C76
331
22F458
  5
2343FE
  0
SORTENTSTABLE
  5
2FA2EF
102
{ACAD_REACTORS
330
2FA2EE
102
}
330
2FA2EE
100
AcDbSortentsTable
330
2F9D9A
  0
XRECORD
  5
2FAA5B
102
{ACAD_REACTORS
330
2FAA5A
102
}
330
2FAA5A
100
AcDbXrecord
280
     1
 70
     1
  0
XRECORD
  5
2FAA5D
102
{ACAD_REACTORS
330
2FAA5A
102
}
330
2FAA5A
100
AcDbXrecord
280
     1
340
5B
  0
XRECORD
  5
2FAA5E
102
{ACAD_REACTORS
330
2FAA5A
102
}
330
2FAA5A
100
AcDbXrecord
280
     1
340
5B
  0
XRECORD
  5
2FAA5C
102
{ACAD_REACTORS
330
2FAA5A
102
}
330
2FAA5A
100
AcDbXrecord
280
     1
340
5B
  0
LAYOUT
  5
6B
102
{ACAD_XDICTIONARY
360
2FAA90
102
}
102
{ACAD_REACTORS
330
62
102
}
330
62
100
AcDbPlotSettings
  1

  2

  4

  6

 40
0.0
 41
0.0
 42
0.0
 43
0.0
 44
0.0
 45
0.0
 46
0.0
 47
0.0
 48
0.0
 49
0.0
140
0.0
141
0.0
142
1.0
143
1.0
 70
   688
 72
     0
 73
     0
 74
     5
  7
monochrome.ctb
 75
    16
147
1.0
148
0.0
149
0.0
100
AcDbLayout
  1
Layout1
 70
     1
 71
     1
 10
0.0
 20
0.0
 11
420.0
 21
297.0
 12
0.0
 22
0.0
 32
0.0
 14
0.0
 24
0.0
 34
0.0
 15
420.0
 25
297.0
 35
0.0
146
0.0
 13
0.0
 23
0.0
 33
0.0
 16
1.0
 26
0.0
 36
0.0
 17
0.0
 27
1.0
 37
0.0
 76
     0
330
68
  0
LAYOUT
  5
73
102
{ACAD_XDICTIONARY
360
2FAA93
102
}
102
{ACAD_REACTORS
330
62
102
}
330
62
100
AcDbPlotSettings
  1

  2

  4

  6

 40
0.0
 41
0.0
 42
0.0
 43
0.0
 44
0.0
 45
0.0
 46
0.0
 47
0.0
 48
0.0
 49
0.0
140
0.0
141
0.0
142
1.0
143
1.0
 70
   688
 72
     0
 73
     0
 74
     5
  7
monochrome.ctb
 75
    16
147
1.0
148
0.0
149
0.0
100
AcDbLayout
  1
Layout2
 70
     1
 71
     2
 10
0.0
 20
0.0
 11
12.0
 21
9.0
 12
0.0
 22
0.0
 32
0.0
 14
0.0
 24
0.0
 34
0.0
 15
0.0
 25
0.0
 35
0.0
146
0.0
 13
0.0
 23
0.0
 33
0.0
 16
1.0
 26
0.0
 36
0.0
 17
0.0
 27
1.0
 37
0.0
 76
     0
330
70
  0
LAYOUT
  5
6F
102
{ACAD_XDICTIONARY
360
22E63
102
}
102
{ACAD_REACTORS
330
62
102
}
330
62
100
AcDbPlotSettings
  1

  2
PDFCreator
  4
A4
  6

 40
3.174999952316283
 41
3.174999952316283
 42
3.175003051757812
 43
3.17498779296875
 44
209.8886566162109
 45
297.0530090332031
 46
0.0
 47
0.0
 48
0.0
 49
0.0
140
0.0
141
0.0
142
1.0
143
44.55739079110223
 70
 11952
 72
     1
 73
     1
 74
     0
  7
monochrome.ctb
 75
     0
147
0.022442965852473
148
3615.822218811902
149
2375.763017350619
100
AcDbLayout
  1
Model
 70
     1
 71
     0
 10
0.0
 20
0.0
 11
12.0
 21
9.0
 12
0.0
 22
0.0
 32
0.0
 14
0.0
 24
0.0
 34
0.0
 15
0.0
 25
0.0
 35
0.0
146
0.0
 13
0.0
 23
0.0
 33
0.0
 16
1.0
 26
0.0
 36
0.0
 17
0.0
 27
1.0
 37
0.0
 76
     0
330
6C
331
57
1001
ACAD_PSEXT
1000
PDFCreator
1000
PDFCreator
1000
pdfcmon
1000
PDFCreator Printer
1070
     0
  0
MATERIAL
  5
19
102
{ACAD_XDICTIONARY
360
1A
102
}
102
{ACAD_REACTORS
330
10
102
}
330
10
100
AcDbMaterial
  1
ByBlock
 72
     0
 43
0.0208333333333333
 43
0.0
 43
0.0
 43
0.0
 43
0.0
 43
0.0208333333333333
 43
0.0
 43
0.0
 43
0.0
 43
0.0
 43
1.0
 43
0.0
 43
0.0
 43
0.0
 43
0.0
 43
1.0
 77
     0
 47
0.0208333333333333
 47
0.0
 47
0.0
 47
0.0
 47
0.0
 47
0.0208333333333333
 47
0.0
 47
0.0
 47
0.0
 47
0.0
 47
1.0
 47
0.0
 47
0.0
 47
0.0
 47
0.0
 47
1.0
171
     0
 49
0.0208333333333333
 49
0.0
 49
0.0
 49
0.0
 49
0.0
 49
0.0208333333333333
 49
0.0
 49
0.0
 49
0.0
 49
0.0
 49
1.0
 49
0.0
 49
0.0
 49
0.0
 49
0.0
 49
1.0
175
     0
142
0.0208333333333333
142
0.0
142
0.0
142
0.0
142
0.0
142
0.0208333333333333
142
0.0
142
0.0
142
0.0
142
0.0
142
1.0
142
0.0
142
0.0
142
0.0
142
0.0
142
1.0
179
     0
144
0.0208333333333333
144
0.0
144
0.0
144
0.0
144
0.0
144
0.0208333333333333
144
0.0
144
0.0
144
0.0
144
0.0
144
1.0
144
0.0
144
0.0
144
0.0
144
0.0
144
1.0
147
0.0208333333333333
147
0.0
147
0.0
147
0.0
147
0.0
147
0.0208333333333333
147
0.0
147
0.0
147
0.0
147
0.0
147
1.0
147
0.0
147
0.0
147
0.0
147
0.0
147
1.0
  0
MATERIAL
  5
11
102
{ACAD_XDICTIONARY
360
12
102
}
102
{ACAD_REACTORS
330
10
102
}
330
10
100
AcDbMaterial
  1
ByLayer
 72
     0
 43
0.0208333333333333
 43
0.0
 43
0.0
 43
0.0
 43
0.0
 43
0.0208333333333333
 43
0.0
 43
0.0
 43
0.0
 43
0.0
 43
1.0
 43
0.0
 43
0.0
 43
0.0
 43
0.0
 43
1.0
 77
     0
 47
0.0208333333333333
 47
0.0
 47
0.0
 47
0.0
 47
0.0
 47
0.0208333333333333
 47
0.0
 47
0.0
 47
0.0
 47
0.0
 47
1.0
 47
0.0
 47
0.0
 47
0.0
 47
0.0
 47
1.0
171
     0
 49
0.0208333333333333
 49
0.0
 49
0.0
 49
0.0
 49
0.0
 49
0.0208333333333333
 49
0.0
 49
0.0
 49
0.0
 49
0.0
 49
1.0
 49
0.0
 49
0.0
 49
0.0
 49
0.0
 49
1.0
175
     0
142
0.0208333333333333
142
0.0
142
0.0
142
0.0
142
0.0
142
0.0208333333333333
142
0.0
142
0.0
142
0.0
142
0.0
142
1.0
142
0.0
142
0.0
142
0.0
142
0.0
142
1.0
179
     0
144
0.0208333333333333
144
0.0
144
0.0
144
0.0
144
0.0
144
0.0208333333333333
144
0.0
144
0.0
144
0.0
144
0.0
144
1.0
144
0.0
144
0.0
144
0.0
144
0.0
144
1.0
147
0.0208333333333333
147
0.0
147
0.0
147
0.0
147
0.0
147
0.0208333333333333
147
0.0
147
0.0
147
0.0
147
0.0
147
1.0
147
0.0
147
0.0
147
0.0
147
0.0
147
1.0
  0
MATERIAL
  5
21
102
{ACAD_XDICTIONARY
360
22
102
}
102
{ACAD_REACTORS
330
10
102
}
330
10
100
AcDbMaterial
  1
Global
 72
     0
 43
0.0208333333333333
 43
0.0
 43
0.0
 43
0.0
 43
0.0
 43
0.0208333333333333
 43
0.0
 43
0.0
 43
0.0
 43
0.0
 43
1.0
 43
0.0
 43
0.0
 43
0.0
 43
0.0
 43
1.0
 77
     0
 47
0.0208333333333333
 47
0.0
 47
0.0
 47
0.0
 47
0.0
 47
0.0208333333333333
 47
0.0
 47
0.0
 47
0.0
 47
0.0
 47
1.0
 47
0.0
 47
0.0
 47
0.0
 47
0.0
 47
1.0
171
     0
 49
0.0208333333333333
 49
0.0
 49
0.0
 49
0.0
 49
0.0
 49
0.0208333333333333
 49
0.0
 49
0.0
 49
0.0
 49
0.0
 49
1.0
 49
0.0
 49
0.0
 49
0.0
 49
0.0
 49
1.0
175
     0
142
0.0208333333333333
142
0.0
142
0.0
142
0.0
142
0.0
142
0.0208333333333333
142
0.0
142
0.0
142
0.0
142
0.0
142
1.0
142
0.0
142
0.0
142
0.0
142
0.0
142
1.0
179
     0
144
0.0208333333333333
144
0.0
144
0.0
144
0.0
144
0.0
144
0.0208333333333333
144
0.0
144
0.0
144
0.0
144
0.0
144
1.0
144
0.0
144
0.0
144
0.0
144
0.0
144
1.0
147
0.0208333333333333
147
0.0
147
0.0
147
0.0
147
0.0
147
0.0208333333333333
147
0.0
147
0.0
147
0.0
147
0.0
147
1.0
147
0.0
147
0.0
147
0.0
147
0.0
147
1.0
  0
MLEADERSTYLE
  5
67
102
{ACAD_REACTORS
330
66
102
}
330
66
100
AcDbMLeaderStyle
170
     2
171
     1
172
     0
 90
        2
 40
0.0
 41
0.0
173
     1
 91
-1056964608
340
5B
 92
       -2
290
     1
 42
0.09
291
     1
 43
0.36
  3
Standard
 44
0.18
300

342
55
174
     1
178
     6
175
     1
176
     0
 93
-1056964608
 45
0.18
292
     0
297
     0
 46
0.18
 94
-1056964608
 47
1.0
 49
1.0
140
1.0
293
     1
141
0.0
294
     1
177
     0
142
1.0
295
     0
296
     0
143
0.125
1001
ACAD_MLEADERVER
1070
     2
  0
MLINESTYLE
  5
60
102
{ACAD_REACTORS
330
5F
102
}
330
5F
100
AcDbMlineStyle
  2
STANDARD
 70
     0
  3

 62
   256
 51
90.0
 52
90.0
 71
     2
 49
0.5
 62
   256
  6
BYLAYER
 49
-0.5
 62
   256
  6
BYLAYER
  0
ACDBPLACEHOLDER
  5
F
102
{ACAD_REACTORS
330
E
102
}
330
E
  0
SCALE
  5
43
102
{ACAD_REACTORS
330
42
102
}
330
42
100
AcDbScale
 70
     0
300
1:1
140
1.0
141
1.0
290
     1
  0
SCALE
  5
44
102
{ACAD_REACTORS
330
42
102
}
330
42
100
AcDbScale
 70
     0
300
1/128" = 1'-0"
140
0.0078125
141
12.0
290
     0
  0
SCALE
  5
45
102
{ACAD_REACTORS
330
42
102
}
330
42
100
AcDbScale
 70
     0
300
1/64" = 1'-0"
140
0.015625
141
12.0
290
     0
  0
SCALE
  5
46
102
{ACAD_REACTORS
330
42
102
}
330
42
100
AcDbScale
 70
     0
300
1/32" = 1'-0"
140
0.03125
141
12.0
290
     0
  0
SCALE
  5
47
102
{ACAD_REACTORS
330
42
102
}
330
42
100
AcDbScale
 70
     0
300
1/16" = 1'-0"
140
0.0625
141
12.0
290
     0
  0
SCALE
  5
48
102
{ACAD_REACTORS
330
42
102
}
330
42
100
AcDbScale
 70
     0
300
3/32" = 1'-0"
140
0.09375
141
12.0
290
     0
  0
SCALE
  5
49
102
{ACAD_REACTORS
330
42
102
}
330
42
100
AcDbScale
 70
     0
300
1/8" = 1'-0"
140
0.125
141
12.0
290
     0
  0
SCALE
  5
4A
102
{ACAD_REACTORS
330
42
102
}
330
42
100
AcDbScale
 70
     0
300
3/16" = 1'-0"
140
0.1875
141
12.0
290
     0
  0
SCALE
  5
4B
102
{ACAD_REACTORS
330
42
102
}
330
42
100
AcDbScale
 70
     0
300
1/4" = 1'-0"
140
0.25
141
12.0
290
     0
  0
SCALE
  5
4C
102
{ACAD_REACTORS
330
42
102
}
330
42
100
AcDbScale
 70
     0
300
3/8" = 1'-0"
140
0.375
141
12.0
290
     0
  0
SCALE
  5
4D
102
{ACAD_REACTORS
330
42
102
}
330
42
100
AcDbScale
 70
     0
300
1/2" = 1'-0"
140
0.5
141
12.0
290
     0
  0
SCALE
  5
4E
102
{ACAD_REACTORS
330
42
102
}
330
42
100
AcDbScale
 70
     0
300
3/4" = 1'-0"
140
0.75
141
12.0
290
     0
  0
SCALE
  5
4F
102
{ACAD_REACTORS
330
42
102
}
330
42
100
AcDbScale
 70
     0
300
1" = 1'-0"
140
1.0
141
12.0
290
     0
  0
SCALE
  5
50
102
{ACAD_REACTORS
330
42
102
}
330
42
100
AcDbScale
 70
     0
300
1-1/2" = 1'-0"
140
1.5
141
12.0
290
     0
  0
SCALE
  5
51
102
{ACAD_REACTORS
330
42
102
}
330
42
100
AcDbScale
 70
     0
300
3" = 1'-0"
140
3.0
141
12.0
290
     0
  0
SCALE
  5
52
102
{ACAD_REACTORS
330
42
102
}
330
42
100
AcDbScale
 70
     0
300
6" = 1'-0"
140
6.0
141
12.0
290
     0
  0
SCALE
  5
53
102
{ACAD_REACTORS
330
42
102
}
330
42
100
AcDbScale
 70
     0
300
1'-0" = 1'-0"
140
12.0
141
12.0
290
     0
  0
TABLESTYLE
  5
65
102
{ACAD_XDICTIONARY
360
2F9CE3
102
}
102
{ACAD_REACTORS
330
64
102
}
330
64
100
AcDbTableStyle
  3
Standard
 70
     0
 71
     0
 40
0.06
 41
0.06
280
     0
281
     0
  7
Standard
140
0.18
170
     2
 62
     0
 63
     7
283
     0
274
    -2
284
     1
 64
     0
275
    -2
285
     1
 65
     0
276
    -2
286
     1
 66
     0
277
    -2
287
     1
 67
     0
278
    -2
288
     1
 68
     0
279
    -2
289
     1
 69
     0
  7
Standard
140
0.25
170
     5
 62
     0
 63
     7
283
     0
274
    -2
284
     1
 64
     0
275
    -2
285
     1
 65
     0
276
    -2
286
     1
 66
     0
277
    -2
287
     1
 67
     0
278
    -2
288
     1
 68
     0
279
    -2
289
     1
 69
     0
  7
Standard
140
0.18
170
     5
 62
     0
 63
     7
283
     0
274
    -2
284
     1
 64
     0
275
    -2
285
     1
 65
     0
276
    -2
286
     1
 66
     0
277
    -2
287
     1
 67
     0
278
    -2
288
     1
 68
     0
279
    -2
289
     1
 69
     0
  0
VISUALSTYLE
  5
2F
102
{ACAD_XDICTIONARY
360
2FAA69
102
}
102
{ACAD_REACTORS
330
29
102
}
330
29
100
AcDbVisualStyle
  2

 70
     4
 71
     0
 72
     2
 73
     0
 90
        0
 40
-0.6
 41
-30.0
 62
     5
 63
     7
 74
     1
 91
        4
 64
     7
 65
   257
 75
     1
175
     1
 42
1.0
 92
        0
 66
   257
 43
1.0
 76
     1
 77
     6
 78
     2
 67
     7
 79
     5
170
     0
171
     0
290
     0
174
     0
 93
        1
 44
0.0
173
     0
291
     0
 45
0.0
1001
ACAD
1000
AcDbSavedByObjectVersion
1070
     0
  0
VISUALSTYLE
  5
22EE4
102
{ACAD_XDICTIONARY
360
2FAA95
102
}
102
{ACAD_REACTORS
330
29
102
}
330
29
100
AcDbVisualStyle
  2

 70
     5
 71
     0
 72
     2
 73
     1
 90
        0
 40
-0.6
 41
-30.0
 62
     5
 63
     7
 74
     1
 91
        4
 64
     7
 65
   257
 75
     1
175
     1
 42
1.0
 92
        0
 66
   257
 43
1.0
 76
     1
 77
     6
 78
     2
 67
     7
 79
     5
170
     0
171
     0
290
     0
174
     0
 93
        1
 44
0.0
173
     0
291
     0
 45
0.0
1001
ACAD
1000
AcDbSavedByObjectVersion
1070
     0
  0
VISUALSTYLE
  5
2E
102
{ACAD_XDICTIONARY
360
2FAA67
102
}
102
{ACAD_REACTORS
330
29
102
}
330
29
100
AcDbVisualStyle
  2

 70
     7
 71
     1
 72
     0
 73
     1
 90
        0
 40
-0.6
 41
-30.0
 62
     5
 63
     7
 74
     0
 91
        4
 64
     7
 65
   257
 75
     1
175
     1
 42
1.0
 92
        8
 66
     7
 43
1.0
 76
     1
 77
     6
 78
     2
 67
     7
 79
     5
170
     0
171
     0
290
     0
174
     0
 93
        1
 44
0.0
173
     0
291
     1
 45
0.0
1001
ACAD
1000
AcDbSavedByObjectVersion
1070
     0
  0
VISUALSTYLE
  5
35
102
{ACAD_XDICTIONARY
360
2FAA75
102
}
102
{ACAD_REACTORS
330
29
102
}
330
29
100
AcDbVisualStyle
  2

 70
    12
 71
     2
 72
     2
 73
     0
 90
        0
 40
-0.6
 41
-30.0
 62
     5
 63
     7
 74
     1
 91
        4
 64
     7
 65
   257
 75
     1
175
     1
 42
1.0
 92
        8
 66
     7
 43
1.0
 76
     1
 77
     6
 78
     2
 67
     7
 79
     5
170
     0
171
     0
290
     0
174
     0
 93
        1
 44
50.0
173
     0
291
     1
 45
0.0
1001
ACAD
1000
AcDbSavedByObjectVersion
1070
     0
  0
VISUALSTYLE
  5
39
102
{ACAD_XDICTIONARY
360
2FAA7D
102
}
102
{ACAD_REACTORS
330
29
102
}
330
29
100
AcDbVisualStyle
  2

 70
    16
 71
     2
 72
     2
 73
     3
 90
        0
 40
-0.6
 41
-30.0
 62
     5
 63
     8
 74
     1
 91
        4
 64
     7
 65
   257
 75
     1
175
     1
 42
1.0
 92
        8
 66
     8
 43
1.0
 76
     1
 77
     6
 78
     2
 67
     7
 79
     5
170
     0
171
     0
290
     0
174
     0
 93
        1
 44
0.0
173
     0
291
     1
 45
0.0
1001
ACAD
1000
AcDbSavedByObjectVersion
1070
     0
  0
VISUALSTYLE
  5
32
102
{ACAD_XDICTIONARY
360
2FAA6F
102
}
102
{ACAD_REACTORS
330
29
102
}
330
29
100
AcDbVisualStyle
  2

 70
     9
 71
     3
 72
     2
 73
     0
 90
        0
 40
-0.6
 41
-30.0
 62
     5
 63
     7
 74
     2
 91
        2
 64
     7
 65
   257
 75
     1
175
     1
 42
179.0
 92
        8
 66
     7
 43
1.0
 76
     1
 77
     6
 78
     2
 67
     7
 79
     3
170
     0
171
     0
290
     0
174
     0
 93
        1
 44
0.0
173
     0
291
     0
 45
0.0
1001
ACAD
1000
AcDbSavedByObjectVersion
1070
     0
  0
VISUALSTYLE
  5
34
102
{ACAD_XDICTIONARY
360
2FAA73
102
}
102
{ACAD_REACTORS
330
29
102
}
330
29
100
AcDbVisualStyle
  2

 70
    11
 71
     2
 72
     2
 73
     0
 90
        0
 40
-0.6
 41
-30.0
 62
     5
 63
     7
 74
     1
 91
        4
 64
     7
 65
   257
 75
     1
175
     1
 42
1.0
 92
        8
 66
     7
 43
1.0
 76
     1
 77
     6
 78
     2
 67
     7
 79
     5
170
     0
171
     0
290
     0
174
     0
 93
        1
 44
-50.0
173
     0
291
     1
 45
0.0
1001
ACAD
1000
AcDbSavedByObjectVersion
1070
     0
  0
VISUALSTYLE
  5
41
102
{ACAD_XDICTIONARY
360
2FAA8D
102
}
102
{ACAD_REACTORS
330
29
102
}
330
29
100
AcDbVisualStyle
  2

 70
    22
 71
     2
 72
     2
 73
     0
 90
        0
 40
-0.6
 41
-30.0
 62
     5
 63
     7
 74
     1
 91
        4
 64
     7
 65
   257
 75
     1
175
     1
 42
1.0
 92
        8
 66
     7
 43
1.0
 76
     1
 77
     6
 78
     2
 67
     7
 79
     5
170
     0
171
     0
290
     0
174
     0
 93
        1
 44
0.0
173
     0
291
     1
 45
0.0
1001
ACAD
1000
AcDbSavedByObjectVersion
1070
     0
  0
VISUALSTYLE
  5
38
102
{ACAD_XDICTIONARY
360
2FAA7B
102
}
102
{ACAD_REACTORS
330
29
102
}
330
29
100
AcDbVisualStyle
  2

 70
    15
 71
     2
 72
     2
 73
     0
 90
        0
 40
-0.6
 41
-30.0
 62
     5
 63
     7
 74
     1
 91
        4
 64
     7
 65
   257
 75
     1
175
     1
 42
1.0
 92
        8
 66
     7
 43
1.0
 76
     1
 77
     6
 78
     2
 67
     7
 79
     5
170
     0
171
     0
290
     0
174
     0
 93
        1
 44
0.0
173
     0
291
     1
 45
0.0
1001
ACAD
1000
AcDbSavedByObjectVersion
1070
     0
  0
VISUALSTYLE
  5
2A
102
{ACAD_XDICTIONARY
360
2FAA5F
102
}
102
{ACAD_REACTORS
330
29
102
}
330
29
100
AcDbVisualStyle
  2

 70
     0
 71
     2
 72
     1
 73
     1
 90
        2
 40
-0.6
 41
30.0
 62
     5
 63
     7
 74
     0
 91
        0
 64
     7
 65
   257
 75
     1
175
     1
 42
1.0
 92
        8
 66
     7
 43
1.0
 76
     1
 77
     6
 78
     2
 67
     7
 79
     5
170
     0
171
     0
290
     0
174
     0
 93
       13
 44
0.0
173
     0
291
     1
 45
0.0
1001
ACAD
1000
AcDbSavedByObjectVersion
1070
     0
  0
VISUALSTYLE
  5
2B
102
{ACAD_XDICTIONARY
360
2FAA61
102
}
102
{ACAD_REACTORS
330
29
102
}
330
29
100
AcDbVisualStyle
  2

 70
     1
 71
     2
 72
     1
 73
     1
 90
        2
 40
-0.6
 41
30.0
 62
     5
 63
     7
 74
     1
 91
        0
 64
     7
 65
   257
 75
     1
175
     1
 42
1.0
 92
        0
 66
   257
 43
1.0
 76
     1
 77
     6
 78
     2
 67
     7
 79
     5
170
     0
171
     0
290
     0
174
     0
 93
       13
 44
0.0
173
     0
291
     1
 45
0.0
1001
ACAD
1000
AcDbSavedByObjectVersion
1070
     0
  0
VISUALSTYLE
  5
2C
102
{ACAD_XDICTIONARY
360
2FAA63
102
}
102
{ACAD_REACTORS
330
29
102
}
330
29
100
AcDbVisualStyle
  2

 70
     2
 71
     2
 72
     2
 73
     1
 90
        2
 40
-0.6
 41
30.0
 62
     5
 63
     7
 74
     0
 91
        0
 64
     7
 65
   257
 75
     1
175
     1
 42
1.0
 92
        0
 66
     7
 43
1.0
 76
     1
 77
     6
 78
     2
 67
     7
 79
     5
170
     0
171
     0
290
     0
174
     0
 93
       13
 44
0.0
173
     0
291
     1
 45
0.0
1001
ACAD
1000
AcDbSavedByObjectVersion
1070
     0
  0
VISUALSTYLE
  5
2D
102
{ACAD_XDICTIONARY
360
2FAA65
102
}
102
{ACAD_REACTORS
330
29
102
}
330
29
100
AcDbVisualStyle
  2

 70
     3
 71
     2
 72
     2
 73
     1
 90
        2
 40
-0.6
 41
30.0
 62
     5
 63
     7
 74
     1
 91
        0
 64
     7
 65
   257
 75
     1
175
     1
 42
1.0
 92
        0
 66
   257
 43
1.0
 76
     1
 77
     6
 78
     2
 67
     7
 79
     5
170
     0
171
     0
290
     0
174
     0
 93
       13
 44
0.0
173
     0
291
     1
 45
0.0
1001
ACAD
1000
AcDbSavedByObjectVersion
1070
     0
  0
VISUALSTYLE
  5
31
102
{ACAD_XDICTIONARY
360
2FAA6D
102
}
102
{ACAD_REACTORS
330
29
102
}
330
29
100
AcDbVisualStyle
  2

 70
     6
 71
     1
 72
     2
 73
     2
 90
        0
 40
-0.6
 41
-30.0
 62
     5
 63
     7
 74
     2
 91
        2
 64
     7
 65
   257
 75
     2
175
     1
 42
40.0
 92
        0
 66
   257
 43
1.0
 76
     1
 77
     6
 78
     2
 67
     7
 79
     3
170
     0
171
     0
290
     0
174
     0
 93
        1
 44
0.0
173
     0
291
     0
 45
0.0
1001
ACAD
1000
AcDbSavedByObjectVersion
1070
     0
  0
VISUALSTYLE
  5
3F
102
{ACAD_XDICTIONARY
360
2FAA89
102
}
102
{ACAD_REACTORS
330
29
102
}
330
29
100
AcDbVisualStyle
  2

 70
    20
 71
     2
 72
     2
 73
     0
 90
        0
 40
-0.6
 41
-30.0
 62
     5
 63
     7
 74
     1
 91
        4
 64
     7
 65
   257
 75
     1
175
     1
 42
1.0
 92
       10
 66
     7
 43
1.0
 76
     1
 77
     6
 78
     2
 67
     7
 79
     5
170
     0
171
     0
290
     0
174
     0
 93
        1
 44
0.0
173
     0
291
     1
 45
0.0
1001
ACAD
1000
AcDbSavedByObjectVersion
1070
     0
  0
VISUALSTYLE
  5
37
102
{ACAD_XDICTIONARY
360
2FAA79
102
}
102
{ACAD_REACTORS
330
29
102
}
330
29
100
AcDbVisualStyle
  2

 70
    14
 71
     2
 72
     2
 73
     0
 90
        0
 40
-0.6
 41
-30.0
 62
     5
 63
     7
 74
     1
 91
        4
 64
     7
 65
   257
 75
     7
175
     7
 42
1.0
 92
        8
 66
     7
 43
1.0
 76
     1
 77
     6
 78
     2
 67
     7
 79
     5
170
     0
171
     0
290
     0
174
     0
 93
        1
 44
0.0
173
     0
291
     1
 45
0.0
1001
ACAD
1000
AcDbSavedByObjectVersion
1070
     0
  0
VISUALSTYLE
  5
40
102
{ACAD_XDICTIONARY
360
2FAA8B
102
}
102
{ACAD_REACTORS
330
29
102
}
330
29
100
AcDbVisualStyle
  2

 70
    21
 71
     2
 72
     2
 73
     0
 90
        0
 40
-0.6
 41
-30.0
 62
     5
 63
     7
 74
     1
 91
        4
 64
     7
 65
   257
 75
     1
175
     1
 42
1.0
 92
        9
 66
     7
 43
1.0
 76
     1
 77
     6
 78
     2
 67
     7
 79
     5
170
     0
171
     0
290
     0
174
     0
 93
        1
 44
0.0
173
     0
291
     1
 45
0.0
1001
ACAD
1000
AcDbSavedByObjectVersion
1070
     0
  0
VISUALSTYLE
  5
33
102
{ACAD_XDICTIONARY
360
2FAA71
102
}
102
{ACAD_REACTORS
330
29
102
}
330
29
100
AcDbVisualStyle
  2

 70
     8
 71
     2
 72
     3
 73
     0
 90
        2
 40
-0.6
 41
30.0
 62
     5
 63
     7
 74
     0
 91
        0
 64
     7
 65
   257
 75
     1
175
     1
 42
1.0
 92
        8
 66
   257
 43
1.0
 76
     1
 77
     6
 78
     2
 67
     7
 79
     3
170
     0
171
     0
290
     0
174
     0
 93
       13
 44
0.0
173
     0
291
     0
 45
0.0
1001
ACAD
1000
AcDbSavedByObjectVersion
1070
     0
  0
VISUALSTYLE
  5
3E
102
{ACAD_XDICTIONARY
360
2FAA87
102
}
102
{ACAD_REACTORS
330
29
102
}
330
29
100
AcDbVisualStyle
  2

 70
    27
 71
     2
 72
     2
 73
     1
 90
        2
 40
-0.6
 41
30.0
 62
     5
 63
     7
 74
     0
 91
        4
 64
     7
 65
   257
 75
     1
175
     1
 42
1.0
 92
        8
 66
   257
 43
1.0
 76
     1
 77
     6
 78
     2
 67
     8
 79
     3
170
     0
171
     0
290
     0
174
     0
 93
        5
 44
0.0
173
     0
291
     0
 45
0.0
1001
ACAD
1000
AcDbSavedByObjectVersion
1070
     0
  0
VISUALSTYLE
  5
3D
102
{ACAD_XDICTIONARY
360
2FAA85
102
}
102
{ACAD_REACTORS
330
29
102
}
330
29
100
AcDbVisualStyle
  2

 70
    26
 71
     2
 72
     2
 73
     1
 90
        2
 40
-0.6
 41
30.0
 62
     5
 63
     7
 74
     1
 91
       10
 64
     7
 65
   257
 75
     2
175
     1
 42
1.0
 92
        8
 66
   257
 43
1.0
 76
     1
 77
     6
 78
     2
 67
     7
 79
     3
170
     0
171
     0
290
     0
174
     0
 93
        5
 44
0.0
173
     0
291
     0
 45
0.0
1001
ACAD
1000
AcDbSavedByObjectVersion
1070
     0
  0
VISUALSTYLE
  5
3A
102
{ACAD_XDICTIONARY
360
2FAA7F
102
}
102
{ACAD_REACTORS
330
29
102
}
330
29
100
AcDbVisualStyle
  2

 70
    23
 71
     2
 72
     2
 73
     3
 90
        0
 40
-0.6
 41
-30.0
 62
     5
 63
     7
 74
     2
 91
        2
 64
     7
 65
     7
 75
     1
175
     1
 42
40.0
 92
        8
 66
     7
 43
1.0
 76
     1
 77
     6
 78
     2
 67
     7
 79
     3
170
     0
171
     0
290
     0
174
     0
 93
        1
 44
0.0
173
     0
291
     0
 45
0.0
1001
ACAD
1000
AcDbSavedByObjectVersion
1070
     0
  0
VISUALSTYLE
  5
3B
102
{ACAD_XDICTIONARY
360
2FAA81
102
}
102
{ACAD_REACTORS
330
29
102
}
330
29
100
AcDbVisualStyle
  2

 70
    24
 71
     1
 72
     2
 73
     2
 90
        0
 40
-0.6
 41
-30.0
 62
     5
 63
     7
 74
     2
 91
        2
 64
     7
 65
     7
 75
     1
175
     1
 42
40.0
 92
       11
 66
     7
 43
1.0
 76
     1
 77
     6
 78
     2
 67
     7
 79
     6
170
     0
171
     0
290
     0
174
     0
 93
        1
 44
0.0
173
     0
291
     0
 45
0.0
1001
ACAD
1000
AcDbSavedByObjectVersion
1070
     0
  0
VISUALSTYLE
  5
36
102
{ACAD_XDICTIONARY
360
2FAA77
102
}
102
{ACAD_REACTORS
330
29
102
}
330
29
100
AcDbVisualStyle
  2

 70
    13
 71
     2
 72
     2
 73
     0
 90
        0
 40
-0.6
 41
-30.0
 62
     5
 63
     7
 74
     1
 91
        4
 64
     7
 65
   257
 75
     1
175
     1
 42
1.0
 92
       12
 66
     7
 43
1.0
 76
     1
 77
     6
 78
     2
 67
     7
 79
     5
170
     0
171
     0
290
     0
174
     0
 93
        1
 44
0.0
173
     0
291
     1
 45
0.0
1001
ACAD
1000
AcDbSavedByObjectVersion
1070
     0
  0
VISUALSTYLE
  5
30
102
{ACAD_XDICTIONARY
360
2FAA6B
102
}
102
{ACAD_REACTORS
330
29
102
}
330
29
100
AcDbVisualStyle
  2

 70
     5
 71
     0
 72
     2
 73
     0
 90
        0
 40
-0.6
 41
-30.0
 62
     5
 63
     7
 74
     1
 91
        4
 64
     7
 65
   257
 75
     1
175
     1
 42
1.0
 92
        0
 66
   257
 43
1.0
 76
     1
 77
     6
 78
     2
 67
     7
 79
     3
170
     0
171
     0
290
     0
174
     0
 93
        1
 44
0.0
173
     0
291
     0
 45
0.0
1001
ACAD
1000
AcDbSavedByObjectVersion
1070
     0
  0
VISUALSTYLE
  5
3C
102
{ACAD_XDICTIONARY
360
2FAA83
102
}
102
{ACAD_REACTORS
330
29
102
}
330
29
100
AcDbVisualStyle
  2

 70
    25
 71
     2
 72
     2
 73
     1
 90
        1
 40
0.5
 41
-30.0
 62
     5
 63
     7
 74
     1
 91
        0
 64
     7
 65
   257
 75
     1
175
     1
 42
1.0
 92
        8
 66
     7
 43
1.0
 76
     1
 77
     6
 78
     2
 67
     7
 79
     3
170
     0
171
     0
290
     0
174
     0
 93
       13
 44
0.0
173
     0
291
     0
 45
0.0
1001
ACAD
1000
AcDbSavedByObjectVersion
1070
     0
  0
DICTIONARYVAR
  5
22DBA
102
{ACAD_REACTORS
330
22DB7
102
}
330
22DB7
100
DictionaryVariables
280
     0
  1
1:1
  0
DICTIONARYVAR
  5
22DB9
102
{ACAD_REACTORS
330
22DB7
102
}
330
22DB7
100
DictionaryVariables
280
     0
  1
STANDARD
  0
DICTIONARYVAR
  5
22DB8
102
{ACAD_REACTORS
330
22DB7
102
}
330
22DB7
100
DictionaryVariables
280
     0
  1
STANDARD
  0
DICTIONARYVAR
  5
2F9CE1
102
{ACAD_REACTORS
330
22DB7
102
}
330
22DB7
100
DictionaryVariables
280
     0
  1
1
  0
DICTIONARYVAR
  5
2F9CE0
102
{ACAD_REACTORS
330
22DB7
102
}
330
22DB7
100
DictionaryVariables
280
     0
  1
1
  0
DICTIONARYVAR
  5
7A31F
102
{ACAD_REACTORS
330
22DB7
102
}
330
22DB7
100
DictionaryVariables
280
     0
  1
-201.059514;-1326.672515
  0
DICTIONARYVAR
  5
2F9CDF
102
{ACAD_REACTORS
330
22DB7
102
}
330
22DB7
100
DictionaryVariables
280
     0
  1
0
  0
DICTIONARYVAR
  5
2F9CDC
102
{ACAD_REACTORS
330
22DB7
102
}
330
22DB7
100
DictionaryVariables
280
     0
  1
0
  0
DICTIONARYVAR
  5
2F9CDD
102
{ACAD_REACTORS
330
22DB7
102
}
330
22DB7
100
DictionaryVariables
280
     0
  1
0
  0
DICTIONARYVAR
  5
2F9CDB
102
{ACAD_REACTORS
330
22DB7
102
}
330
22DB7
100
DictionaryVariables
280
     0
  1
2
  0
DICTIONARYVAR
  5
2F9CDA
102
{ACAD_REACTORS
330
22DB7
102
}
330
22DB7
100
DictionaryVariables
280
     0
  1
1
  0
DICTIONARYVAR
  5
2F9CDE
102
{ACAD_REACTORS
330
22DB7
102
}
330
22DB7
100
DictionaryVariables
280
     0
  1
127
  0
DICTIONARYVAR
  5
2FAA56
102
{ACAD_REACTORS
330
22DB7
102
}
330
22DB7
100
DictionaryVariables
280
     0
  1
2
  0
DICTIONARY
  5
22E1C
102
{ACAD_REACTORS
330
22E11
102
}
330
22E11
100
AcDbDictionary
281
     1
  0
DICTIONARY
  5
2FAA90
330
6B
100
AcDbDictionary
280
     1
281
     1
  3
ACAD_XREC_ROUNDTRIP
360
2FAA91
  0
DICTIONARY
  5
2FAA93
330
73
100
AcDbDictionary
280
     1
281
     1
  3
ACAD_XREC_ROUNDTRIP
360
2FAA94
  0
DICTIONARY
  5
22E63
330
6F
100
AcDbDictionary
280
     1
281
     1
  3
ACAD_XREC_ROUNDTRIP
360
2FAA92
  3
ADSK_XREC_LAYOUTTHUMBNAIL
360
22E64
  0
DICTIONARY
  5
1A
330
19
100
AcDbDictionary
280
     1
281
     1
  3
ACAD_XREC_ROUNDTRIP
360
2F9CE8
  3
BUMPTILE
360
1C
  3
DIFFUSETILE
360
1B
  3
OPACITYTILE
360
1F
  3
REFLECTIONTILE
360
1E
  3
REFRACTIONTILE
360
20
  3
SPECULARTILE
360
1D
  0
DICTIONARY
  5
12
330
11
100
AcDbDictionary
280
     1
281
     1
  3
ACAD_XREC_ROUNDTRIP
360
2F9CE7
  3
BUMPTILE
360
14
  3
DIFFUSETILE
360
13
  3
OPACITYTILE
360
17
  3
REFLECTIONTILE
360
16
  3
REFRACTIONTILE
360
18
  3
SPECULARTILE
360
15
  0
DICTIONARY
  5
22
330
21
100
AcDbDictionary
280
     1
281
     1
  3
ACAD_XREC_ROUNDTRIP
360
2F9CE9
  3
BUMPTILE
360
24
  3
DIFFUSETILE
360
23
  3
OPACITYTILE
360
27
  3
REFLECTIONTILE
360
26
  3
REFRACTIONTILE
360
28
  3
SPECULARTILE
360
25
  0
DICTIONARY
  5
2F9CE3
330
65
100
AcDbDictionary
280
     1
281
     1
  3
ACAD_ROUNDTRIP_2008_TABLESTYLE_CELLSTYLEMAP
360
2FAA57
  3
ACAD_XREC_ROUNDTRIP
360
2FAA8F
  0
DICTIONARY
  5
2FAA69
330
2F
100
AcDbDictionary
280
     1
281
     1
  3
ACAD_XREC_ROUNDTRIP
360
2FAA6A
  0
DICTIONARY
  5
2FAA95
330
22EE4
100
AcDbDictionary
280
     1
281
     1
  3
ACAD_XREC_ROUNDTRIP
360
2FAA96
  0
DICTIONARY
  5
2FAA67
330
2E
100
AcDbDictionary
280
     1
281
     1
  3
ACAD_XREC_ROUNDTRIP
360
2FAA68
  0
DICTIONARY
  5
2FAA75
330
35
100
AcDbDictionary
280
     1
281
     1
  3
ACAD_XREC_ROUNDTRIP
360
2FAA76
  0
DICTIONARY
  5
2FAA7D
330
39
100
AcDbDictionary
280
     1
281
     1
  3
ACAD_XREC_ROUNDTRIP
360
2FAA7E
  0
DICTIONARY
  5
2FAA6F
330
32
100
AcDbDictionary
280
     1
281
     1
  3
ACAD_XREC_ROUNDTRIP
360
2FAA70
  0
DICTIONARY
  5
2FAA73
330
34
100
AcDbDictionary
280
     1
281
     1
  3
ACAD_XREC_ROUNDTRIP
360
2FAA74
  0
DICTIONARY
  5
2FAA8D
330
41
100
AcDbDictionary
280
     1
281
     1
  3
ACAD_XREC_ROUNDTRIP
360
2FAA8E
  0
DICTIONARY
  5
2FAA7B
330
38
100
AcDbDictionary
280
     1
281
     1
  3
ACAD_XREC_ROUNDTRIP
360
2FAA7C
  0
DICTIONARY
  5
2FAA5F
330
2A
100
AcDbDictionary
280
     1
281
     1
  3
ACAD_XREC_ROUNDTRIP
360
2FAA60
  0
DICTIONARY
  5
2FAA61
330
2B
100
AcDbDictionary
280
     1
281
     1
  3
ACAD_XREC_ROUNDTRIP
360
2FAA62
  0
DICTIONARY
  5
2FAA63
330
2C
100
AcDbDictionary
280
     1
281
     1
  3
ACAD_XREC_ROUNDTRIP
360
2FAA64
  0
DICTIONARY
  5
2FAA65
330
2D
100
AcDbDictionary
280
     1
281
     1
  3
ACAD_XREC_ROUNDTRIP
360
2FAA66
  0
DICTIONARY
  5
2FAA6D
330
31
100
AcDbDictionary
280
     1
281
     1
  3
ACAD_XREC_ROUNDTRIP
360
2FAA6E
  0
DICTIONARY
  5
2FAA89
330
3F
100
AcDbDictionary
280
     1
281
     1
  3
ACAD_XREC_ROUNDTRIP
360
2FAA8A
  0
DICTIONARY
  5
2FAA79
330
37
100
AcDbDictionary
280
     1
281
     1
  3
ACAD_XREC_ROUNDTRIP
360
2FAA7A
  0
DICTIONARY
  5
2FAA8B
330
40
100
AcDbDictionary
280
     1
281
     1
  3
ACAD_XREC_ROUNDTRIP
360
2FAA8C
  0
DICTIONARY
  5
2FAA71
330
33
100
AcDbDictionary
280
     1
281
     1
  3
ACAD_XREC_ROUNDTRIP
360
2FAA72
  0
DICTIONARY
  5
2FAA87
330
3E
100
AcDbDictionary
280
     1
281
     1
  3
ACAD_XREC_ROUNDTRIP
360
2FAA88
  0
DICTIONARY
  5
2FAA85
330
3D
100
AcDbDictionary
280
     1
281
     1
  3
ACAD_XREC_ROUNDTRIP
360
2FAA86
  0
DICTIONARY
  5
2FAA7F
330
3A
100
AcDbDictionary
280
     1
281
     1
  3
ACAD_XREC_ROUNDTRIP
360
2FAA80
  0
DICTIONARY
  5
2FAA81
330
3B
100
AcDbDictionary
280
     1
281
     1
  3
ACAD_XREC_ROUNDTRIP
360
2FAA82
  0
DICTIONARY
  5
2FAA77
330
36
100
AcDbDictionary
280
     1
281
     1
  3
ACAD_XREC_ROUNDTRIP
360
2FAA78
  0
DICTIONARY
  5
2FAA6B
330
30
100
AcDbDictionary
280
     1
281
     1
  3
ACAD_XREC_ROUNDTRIP
360
2FAA6C
  0
DICTIONARY
  5
2FAA83
330
3C
100
AcDbDictionary
280
     1
281
     1
  3
ACAD_XREC_ROUNDTRIP
360
2FAA84
  0
XRECORD
  5
2FAA91
102
{ACAD_REACTORS
330
2FAA90
102
}
330
2FAA90
100
AcDbXrecord
280
     1
102
SHADEPLOT
 70
     0
102
SHADEPLOTRESLEVEL
 70
     2
102
SHADEPLOTCUSTOMDPI
 70
   300
  0
XRECORD
  5
2FAA94
102
{ACAD_REACTORS
330
2FAA93
102
}
330
2FAA93
100
AcDbXrecord
280
     1
102
SHADEPLOT
 70
     0
102
SHADEPLOTRESLEVEL
 70
     2
102
SHADEPLOTCUSTOMDPI
 70
   300
  0
XRECORD
  5
2FAA92
102
{ACAD_REACTORS
330
22E63
102
}
330
22E63
100
AcDbXrecord
280
     1
102
SHADEPLOT
 70
     0
102
SHADEPLOTRESLEVEL
 70
     2
102
SHADEPLOTCUSTOMDPI
 70
   300
  0
XRECORD
  5
22E64
102
{ACAD_REACTORS
330
22E63
102
}
330
22E63
100
AcDbXrecord
280
     1
310
28000000000100005A0000000100080000000000005A0000000000000000000000010000000000003028210000000000FFFFFF000000000000000000000000000000000000000000000000000000000000000000330000006600000099000000CC000000FF00000000330000333300006633000099330000CC330000FF3300
310
0000660000336600006666000099660000CC660000FF66000000990000339900006699000099990000CC990000FF99000000CC000033CC000066CC000099CC0000CCCC0000FFCC000000FF000033FF000066FF000099FF0000CCFF0000FFFF000000003300330033006600330099003300CC003300FF003300003333003333
310
33006633330099333300CC333300FF33330000663300336633006666330099663300CC663300FF66330000993300339933006699330099993300CC993300FF99330000CC330033CC330066CC330099CC3300CCCC3300FFCC330000FF330033FF330066FF330099FF3300CCFF3300FFFF330000006600330066006600660099
310
006600CC006600FF00660000336600333366006633660099336600CC336600FF33660000666600336666006666660099666600CC666600FF66660000996600339966006699660099996600CC996600FF99660000CC660033CC660066CC660099CC6600CCCC6600FFCC660000FF660033FF660066FF660099FF6600CCFF6600
310
FFFF660000009900330099006600990099009900CC009900FF00990000339900333399006633990099339900CC339900FF33990000669900336699006666990099669900CC669900FF66990000999900339999006699990099999900CC999900FF99990000CC990033CC990066CC990099CC9900CCCC9900FFCC990000FF99
310
0033FF990066FF990099FF9900CCFF9900FFFF99000000CC003300CC006600CC009900CC00CC00CC00FF00CC000033CC003333CC006633CC009933CC00CC33CC00FF33CC000066CC003366CC006666CC009966CC00CC66CC00FF66CC000099CC003399CC006699CC009999CC00CC99CC00FF99CC0000CCCC0033CCCC0066CC
310
CC0099CCCC00CCCCCC00FFCCCC0000FFCC0033FFCC0066FFCC0099FFCC00CCFFCC00FFFFCC000000FF003300FF006600FF009900FF00CC00FF00FF00FF000033FF003333FF006633FF009933FF00CC33FF00FF33FF000066FF003366FF006666FF009966FF00CC66FF00FF66FF000099FF003399FF006699FF009999FF00CC
310
99FF00FF99FF0000CCFF0033CCFF0066CCFF0099CCFF00CCCCFF00FFCCFF0000FFFF0033FFFF0066FFFF0099FFFF00CCFFFF00FFFFFF00000000000D0D0D001A1A1A00282828003535350043434300505050005D5D5D006B6B6B00787878008686860093939300A1A1A100AEAEAE00BBBBBB00C9C9C900D6D6D600E4E4E400
310
F1F1F100FFFFFF000000000000000000000000000000000000000000000000000000000000000000000000000000000000000000000000000000000000000000000000000000000000000000000000000000000000000000000000000000000000000000000000000000000000000000000000000000000000000000000000
310
00000000000000000000000000000000000000000000000000000000000000000000C3C3C3C3C3C3C3C3C3C3C3C3C3C3C3C3C3C3C3C3C3C3C3C3C3C3C3C3C3C3000000000000000000000000000000000000000000000000000000000000000000000000000000000000000000000000000000000000000000000000000000
310
00000000000000000000000000000000000000000000000000000000000000000000000000000000000000000000000000000000000000000000000000000000000000000000000000000000000000000000000000000000000000000000000000000000000000000000000000000000000000000000000000000000000000
310
00000000000000000000000000000000000000000000000000000000000000C3C3C3C3C3C300000000000000000000000000000000000000000000000000000000C3C3C3C3C3C30000000000000000000000000000000000000000000000000000000000000000000000000000000000000000000000000000000000000000
310
00000000000000000000000000000000000000000000000000000000000000000000000000000000000000000000000000000000000000000000000000000000000000000000000000000000000000000000000000000000000000000000000000000000000000000000000000000000000000000000000000000000000000
310
000000000000000000000000000000000000000000000000000000000000C3C3C300000000000000000000000000000000000000000000000000000000000000000000000000000000C3C3C3000000000000000000000000000000000000000000000000000000000000000000000000000000000000000000000000000000
310
00000000000000000000000000000000000000000000000000000000000000000000000000000000000000000000000000000000000000000000000000000000000000000000000000000000000000000000000000000000000000000000000000000000000000000000000000000000000000000000000000000000000000
310
0000000000000000000000000000000000000000000000000000000000C3C3C300000000000000000000000000000000000000000000000000000000000000000000000000000000000000000000C3C3C300000000000000000000000000000000000000000000000000000000000000000000000000000000000000000000
310
00000000000000000000000000000000000000000000000000000000000000000000000000000000000000000000000000000000000000000000000000000000000000000000000000000000000000000000000000000000000000000000000000000000000000000000000000000000000000000000000000000000000000
310
0000000000000000000000000000000000000000000000000000000000C3C3C30000000000000000000000000000000000000000000000000000000000000000000000000000000000000000000000000000C3C3C3000000000000000000000000000000000000000000000000000000000000000000000000000000000000
310
00000000000000000000000000000000000000000000000000000000000000000000000000000000000000000000000000000000000000000000000000000000000000000000000000000000000000000000000000000000000000000000000000000000000000000000000000000000000000000000000000000000000000
310
000000000000000000000000000000000000000000000000000000000000C3C3000000000000000000000000000000000000000000000000000000000000000000000000000000000000000000000000000000000000C3C3000000000000000000000000000000000000000000000000000000000000000000000000000000
310
00000000000000000000000000000000000000000000000000000000000000000000000000000000000000000000000000000000000000000000000000000000000000000000000000000000000000000000000000000000000000000000000000000000000000000000000000000000000000000000000000000000000000
310
000000000000000000000000000000000000000000000000000000000000C3C300000000000000000000000000000000000000000000000000000000000000000000000000000000000000000000000000000000000000000000C3C30000000000000000000000000000000000000000000000000000000000000000000000
310
00000000000000000000000000000000000000000000000000000000000000000000000000000000000000000000000000000000000000000000000000000000000000000000000000000000000000000000000000000000000000000000000000000000000000000000000000000000000000000000000000000000000000
310
00000000000000000000000000000000000000000000000000000000000000C3C3000000000000000000000000000000000000000000000000000000000000000000000000000000000000000000000000000000000000000000000000C3C30000000000000000000000000000000000000000000000000000000000000000
310
00000000000000000000000000000000000000000000000000000000000000000000000000000000000000000000000000000000000000000000000000000000000000000000000000000000000000000000000000000000000000000000000000000000000000000000000000000000000000000000000000000000000000
310
0000000000000000000000000000000000000000000000000000000000000000C300000000000000000000000000000000000000000000000000000000000000000000000000000000000000000000000000000000000000000000000000000000C30000000000000000000000000000000000000000000000000000000000
310
00000000000000000000000000000000000000000000000000000000000000000000000000000000000000000000000000000000000000000000000000000000000000000000000000000000000000000000000000000000000000000000000000000000000000000000000000000000000000000000000000000000000000
310
0000000000000000000000000000000000000000000000000000000000000000C3C3000000000000000000000000000000000000000000000000000000000000000000000000000000000000000000000000000000000000000000000000000000000000C3C300000000000000000000000000000000000000000000000000
310
00000000000000000000000000000000000000000000000000000000000000000000000000000000000000000000000000000000000000000000000000000000000000000000000000000000000000000000000000000000000000000000000000000000000000000000000000000000000000000000000000000000000000
310
00000000000000000000000000000000000000000000000000000000000000000000C30000000000000000000000000000000000000000000000000000000000000000000000000000000000000000000000000000000000000000000000000000000000000000C30000000000000000000000000000000000000000000000
310
00000000000000000000000000000000000000000000000000000000000000000000000000000000000000000000000000000000000000000000000000000000000000000000000000000000000000000000000000000000000000000000000000000000000000000000000000000000000000000000000000000000000000
310
0000000000000000000000000000000000000000000000000000000000000000000000C300000000000000000000000000000000000000000000000000000000000000000000000000000000000000000000000000000000000000000000000000000000000000000000C30000000000000000000000000000000000000000
310
00000000000000000000000000000000000000000000000000000000000000000000000000000000000000000000000000000000000000000000000000000000000000000000000000000000000000000000000000000000000000000000000000000000000000000000000000000000000000000000000000000000000000
310
0000000000000000000000000000000000000000000000000000000000000000000000C3C3000000000000000000000000000000000000000000000000000000000000000000000000000000000000000000000000000000000000000000000000000000000000000000000000C3C300000000000000000000000000000000
310
00000000000000000000000000000000000000000000000000000000000000000000000000000000000000000000000000000000000000000000000000000000000000000000000000000000000000000000000000000000000000000000000000000000000000000000000000000000000000000000000000000000000000
310
00000000000000000000000000000000000000000000000000000000000000000000000000C30000000000000000000000000000000000000000000000000000000000000000000000000000000000000000000000000000000000000000000000000000000000000000000000000000C30000000000000000000000000000
310
00000000000000000000000000000000000000000000000000000000000000000000000000000000000000000000000000000000000000000000000000000000000000000000000000000000000000000000000000000000000000000000000000000000000000000000000000000000000000000000000000000000000000
310
0000000000000000000000000000000000000000000000000000000000000000000000000000C300000000000000000000000000000000000000000000000000000000000000000000000000000000000000000000000000000000000000000000000000000000000000000000000000000000C30000000000000000000000
310
00000000000000000000000000000000000000000000000000000000000000000000000000000000000000000000000000000000000000000000000000000000000000000000000000000000000000000000000000000000000000000000000000000000000000000000000000000000000000000000000000000000000000
310
000000000000000000000000000000000000000000000000000000000000000000000000000000C3C300000000000000000000000000000000000000000000000000000000000000000000000000000000000000000000000000000000000000000000000000000000000000000000000000000000C3C30000000000000000
310
00000000000000000000000000000000000000000000000000000000000000000000000000000000000000000000000000000000000000000000000000000000000000000000000000000000000000000000000000000000000000000000000000000000000000000000000000000000000000000000000000000000000000
310
0000000000000000000000000000000000000000000000000000000000000000000000000000000000C3000000000000000000000000000000000000000000000000000000000000000000000000000000000000000000000000000000000000000000000000000000000000000000000000000000000000C3000000000000
310
00000000000000000000000000000000000000000000000000000000000000000000000000000000000000000000000000000000000000000000000000000000000000000000000000000000000000000000000000000000000000000000000000000000000000000000000000000000000000000000000000000000000000
310
000000000000000000000000000000000000000000000000000000000000000000000000000000000000C3C3000000000000000000000000000000000000000000000000000000000000000000000000000000000000000000000000000000000000000000000000000000000000000000000000000000000000C3C3000000
310
00000000000000000000000000000000000000000000000000000000000000000000000000000000000000000000000000000000000000000000000000000000000000000000000000000000000000000000000000000000000000000000000000000000000000000000000000000000000000000000000000000000000000
310
0000000000000000000000000000000000000000000000000000000000000000000000000000000000000000C30000000000000000000000000000000000000000000000000000000000000000000000000000000000000000000000000000000000000000000000000000000000000000000000000000000000000000C300
310
00000000000000000000000000000000000000000000000000000000000000000000000000000000000000000000000000000000000000000000000000000000000000000000000000000000000000000000000000000000000000000000000000000000000000000000000000000000000000000000000000000000000000
310
000000000000000000000000000000000000000000000000000000000000000000000000000000000000000000C3000000000000000000000000000000000000000000000000000000000000000000000000000000000000000000000000000000000000000000000000000000000000000000000000000000000000000000
310
00C30000000000000000000000000000000000000000000000000000000000000000000000000000000000000000000000000000000000000000000000000000000000000000000000000000000000000000000000000000000000000000000000000000000000000000000000000000000000000000000000000000000000
310
0000000000000000000000000000000000000000000000000000000000000000000000000000000000000000000000C300000000000000000000000000000000000000000000000000000000000000000000000000000000000000000000000000000000000000000000000000000000000000000000000000000000000000
310
000000C3000000000000000000000000000000000000000000000000000000000000000000000000000000000000000000000000000000000000000000000000000000000000000000000000000000000000000000000000000000000000000000000000000000000000000000000000000000000000000000000000000000
310
000000000000000000000000000000000000000000000000000000000000000000000000000000000000000000000000C3000000000000000000000000000000000000000000000000000000000000000000000000000000000000000000000000000000000000000000000000000000000000000000000000000000000000
310
000000000000C3000000000000000000000000000000000000000000000000000000000000000000000000000000000000000000000000000000000000000000000000000000000000000000000000000000000000000000000000000000000000000000000000000000000000000000000000000000000000000000000000
310
0000000000000000000000000000000000000000000000000000000000000000000000000000000000000000000000000000C300000000000000000000000000000000000000000000000000000000000000000000000000000000000000000000000000000000000000000000000000000000000000000000000000000000
310
0000000000000000C300000000000000000000000000000000000000000000000000000000000000000000000000000000000000000000000000000000000000000000000000000000000000000000000000000000000000000000000000000000000000000000000000000000000000000000000000000000000000000000
310
00000000000000000000000000000000000000000000000000000000000000000000000000000000000000000000000000000000C30000000000000000000000000000000000000000000000000000000000000000000000000000000000000000000000000000000000000000000000000000000000000000000000000000
310
00000000000000000000C30000000000000000000000000000000000000000000000000000000000000000000000000000000000000000000000000000000000000000000000000000000000000000000000000000000000000000000000000000000000000000000000000000000000000000000000000000000000000000
310
0000000000000000000000000000000000000000000000000000000000000000000000000000000000000000000000000000000000C300000000000000000000000000000000000000000000000000000000000000000000000000000000000000000000000000000000000000000000000000000000000000000000000000
310
00000000000000000000000000C30000000000000000000000000000000000000000000000000000000000000000000000000000000000000000000000000000000000000000000000000000000000000000000000000000000000000000000000000000000000000000000000000000000000000000000000000000000000
310
00000000000000000000000000000000000000000000000000000000000000000000000000000000000000000000000000000000000000C30000000000000000000000000000000000000000000000000000000000000000000000000000000000000000000000000000000000000000000000000000000000000000000000
310
000000000000000000000000000000C3000000000000000000000000000000000000000000000000000000000000000000000000000000000000000000000000000000000000000000000000000000000000000000000000000000000000000000000000000000000000000000000000000000000000000000000000000000
310
000000000000000000000000000000000000000000000000000000000000000000000000000000000000000000000000000000000000000000C3000000000000000000000000000000000000000000000000000000000000000000000000000000000000000000000000000000000000000000000000000000000000000000
310
0000000000000000000000000000000000C300000000000000000000000000000000000000000000000000000000000000000000000000000000000000000000000000000000000000000000000000000000000000000000000000000000000000000000000000000000000000000000000000000000000000000000000000
310
0000000000000000000000000000000000000000000000000000000000000000000000000000000000000000000000000000000000000000000000C300000000000000000000000000000000000000000000000000DCDCDCDCDCDCDCDCDCDCDCDCDCDCDCDCDCDCDCDCDCDCDCDCDCDCDCDCDCDCDCDCDCDCDCDC000000000000
310
00000000000000000000000000000000000000C30000000000000000000000000000000000000000000000000000000000000000000000000000000000000000000000000000000000000000000000000000000000000000000000000000000000000000000000000000000000000000000000000000000000000000000000
310
000000000000000000000000000000000000000000000000000000000000000000000000000000000000000000000000000000000000000000000000C30000000000000000000000000000000000000000000000000000DC00000000000000000000000000000000000000000000000000000000000000000000DC00000000
310
00000000000000000000000000000000000000000000C30000000000000000000000000000000000000000000000000000000000000000000000000000000000000000000000000000000000000000000000000000000000000000000000000000000000000000000000000000000000000000000000000000000000000000
310
0000000000000000000000000000000000000000000000000000000000000000000000000000000000000000000000000000000000000000000000000000C30000000000000000000000000000000000000000000000000000DC00000000000000000000000000000000000000000000000000000000000000000000DC0000
310
000000000000000000000000000000000000000000000000C3000000000000000000000000000000000000000000000000000000000000000000000000000000000000000000000000000000000000000000000000000000000000000000000000000000000000000000000000000000000000000000000000000000000000
310
00000000000000000000000000000000000000000000000000000000000000000000000000000000000000000000000000000000000000000000000000000000C30000000000000000000000000000000000000000000000000000DC00000000000000000000000000000000000000000000000000000000000000000000DC
310
0000000000000000000000000000000000000000000000000000C300000000000000000000000000000000000000000000000000000000000000000000000000000000000000000000000000000000000000000000000000000000000000000000000000000000000000000000000000000000000000000000000000000000
310
000000000000000000000000000000000000000000000000000000000000000000000000000000000000000000000000000000000000000000000000000000000000C30000000000000000000000000000000000000000000000000000DC000000000000000000000000000000000000000000000000000000000000000000
310
00DC0000000000000000000000000000000000000000000000000000C30000000000000000000000000000000000000000000000000000000000000000000000000000000000000000000000000000000000000000000000000000000000000000000000000000000000000000000000000000000000000000000000000000
310
0000000000000000000000000000000000000000000000000000000000000000000000000000000000000000000000000000000000000000000000000000000000000000C30000000000000000000000000000000000000000000000000000DC00000000000000000000000000000000000000000000000000000000000000
310
000000DC0000000000000000000000000000000000000000000000000000C3000000000000000000000000000000000000000000000000000000000000000000000000000000000000000000000000000000000000000000000000000000000000000000000000000000000000000000000000000000000000000000000000
310
00000000000000000000000000000000000000000000000000000000000000000000000000000000000000000000000000000000000000000000000000000000000000000000C30000000000000000000000000000000000000000000000000000DC0000000000BE2D2D2D2D2D2D2D2D2D2D2D2D2D2D2D2D2D2D2D2D2D2DBE
310
0000000000DC0000000000000000000000000000000000000000000000000000C300000000000000000000000000000000000000000000000000000000000000000000000000000000000000000000000000000000000000000000000000000000000000000000000000000000000000000000000000000000000000000000
310
000000000000000000000000000000000000000000000000000000000000000000000000000000000000000000000000000000000000000000000000000000000000000000000000C30000000000000000000000000000000000000000000000000000DC00000000002D2D2D2D2D2D2D2D2D2D2D2D2D2D2D2D2D2D2D2D2D2D
310
2D2D0000000000DC0000000000000000000000000000000000000000000000000000C30000000000000000000000000000000000000000000000000000000000000000000000000000000000000000000000000000000000000000000000000000000000000000000000000000000000000000000000000000000000000000
310
0000000000000000000000000000000000000000000000000000000000000000000000000000000000000000000000000000000000000000000000000000000000000000000000000000C30000000000000000000000000000000000000000000000000000DC00000000002D2D2D2D2D2D2D2D2D2D2D2D2D2D2D2D2D2D2D2D
310
2D2D2D2D0000000000DC0000000000000000000000000000000000000000000000000000C3000000000000000000000000000000000000000000000000000000000000000000000000000000000000000000000000000000000000000000000000000000000000000000000000000000000000000000000000000000000000
310
00000000000000000000000000000000000000000000000000000000000000000000000000000000000000000000000000000000000000000000000000000000000000000000000000000000C30000000000000000000000000000000000000000000000000000DC00000000002D2D2D2D2D2D2D2D2D2D2D2D2D2D2D2D2D2D
310
2D2D2D2D2D2D0000000000DC0000000000000000000000000000000000000000000000000000C300000000000000000000000000000000000000000000000000000000000000000000000000000000000000000000000000000000000000000000000000000000000000000000000000000000000000000000000000000000
310
000000000000000000000000000000000000000000000000000000000000000000000000000000000000000000000000000000000000000000000000000000000000000000000000000000000000C30000000000000000000000000000000000000000000000000000DC00000000002D2D2D2D2D2D2D2D2D2D2D2D2D2D2D2D
310
2D2D2D2D2D2D2D2D0000000000DC0000000000000000000000000000000000000000000000000000C30000000000000000000000000000000000000000000000000000000000000000000000000000000000000000000000000000000000000000000000000000000000000000000000000000000000000000000000000000
310
0000000000000000000000000000000000000000000000000000000000000000000000000000000000000000000000000000000000000000000000000000000000000000000000000000000000000000C30000000000000000000000000000000000000000000000000000DC00000000002D2D2D2D2D2D2D2D2D2D2D2D2D2D
310
2D2D2D2D2D2D2D2D2D2D0000000000DC0000000000000000000000000000000000000000000000000000C3000000000000000000000000000000000000000000000000000000000000000000000000000000000000000000000000000000000000000000000000000000000000000000000000000000000000000000000000
310
00000000000000000000000000000000000000000000000000000000000000000000000000000000000000000000000000000000000000000000000000000000000000000000000000000000000000000000C30000000000000000000000000000000000000000000000000000DC00000000002D2D2D2D2D2D2D2D2D2D2D2D
310
2D2D2D2D2D2D2D2D2D2D2D2D0000000000DC0000000000000000000000000000000000000000000000000000C300000000000000000000000000000000000000000000000000000000000000000000000000000000000000000000000000000000000000000000000000000000000000000000000000000000000000000000
310
000000000000000000000000000000000000000000000000000000000000000000000000000000000000000000000000000000000000000000000000000000000000000000000000000000000000000000000000C30000000000000000000000000000000000000000000000000000DC00000000002D2D2D2D2D2D2D2D2D2D
310
2D2D2D2D2D2D2D2D2D2D2D2D2D2D0000000000DC0000000000000000000000000000000000000000000000000000C30000000000000000000000000000000000000000000000000000000000000000000000000000000000000000000000000000000000000000000000000000000000000000000000000000000000000000
310
0000000000000000000000000000000000000000000000000000000000000000000000000000000000000000000000000000000000000000000000000000000000000000000000000000000000000000000000000000C30000000000000000000000000000000000000000000000000000DC00000000002D2D2D2D2D2D2D2D
310
2D2D2D2D2D2D2D2D2D2D2D2D2D2D2D2D0000000000DC0000000000000000000000000000000000000000000000000000C3000000000000000000000000000000000000000000000000000000000000000000000000000000000000000000000000000000000000000000000000000000000000000000000000000000000000
310
00000000000000000000000000000000000000000000000000000000000000000000000000000000000000000000000000000000000000000000000000000000000000000000000000000000000000000000000000000000C30000000000000000000000000000000000000000000000000000DC00000000002D2D2D2D2D2D
310
2D2D2D2D2D2D2D2D2D2D2D2D2D2D2D2D2D2D0000000000DC0000000000000000000000000000000000000000000000000000C300000000000000000000000000000000000000000000000000000000000000000000000000000000000000000000000000000000000000000000000000000000000000000000000000000000
310
000000000000000000000000000000000000000000000000000000000000000000000000000000000000000000000000000000000000000000000000000000000000000000000000000000000000000000000000000000000000C30000000000000000000000000000000000000000000000000000DC00000000002D2D2D2D
310
2D2D2D2D2D2D2D2D2D2D2D2D2D2D2D2D2D2D2D2D0000000000DC0000000000000000000000000000000000000000000000000000C30000000000000000000000000000000000000000000000000000000000000000000000000000000000000000000000000000000000000000000000000000000000000000000000000000
310
0000000000000000000000000000000000000000000000000000000000000000000000000000000000000000000000000000000000000000000000000000000000000000000000000000000000000000000000000000000000000000C30000000000000000000000000000000000000000000000000000DC00000000002D2D
310
2D2D2D2D2D2D2D2D2D2D2D2D2D2D2D2D2D2D2D2D2D2D0000000000DC0000000000000000000000000000000000000000000000000000C3000000000000000000000000000000000000000000000000000000000000000000000000000000000000000000000000000000000000000000000000000000000000000000000000
310
00000000000000000000000000000000000000000000000000000000000000000000000000000000000000000000000000000000000000000000000000000000000000000000000000000000000000000000000000000000000000000000C30000000000000000000000000000000000000000000000000000DC0000000000
310
2D2D2D2D2D2D2D2D2D2D2D2D2D2D2D2D2D2D2D2D2D2D2D2D0000000000DC0000000000000000000000000000000000000000000000000000C300000000000000000000000000000000000000000000000000000000000000000000000000000000000000000000000000000000000000000000000000000000000000000000
310
000000000000000000000000000000000000000000000000000000000000000000000000000000000000000000000000000000000000000000000000000000000000000000000000000000000000000000000000000000000000000000000000C30000000000000000000000000000000000000000000000000000DC000000
310
00002D2D2D2D2D2D2D2D2D2D2D2D2D2D2D2D2D2D2D2D2D2D2D2D0000000000DC0000000000000000000000000000000000000000000000000000C30000000000000000000000000000000000000000000000000000000000000000000000000000000000000000000000000000000000000000000000000000000000000000
310
0000000000000000000000000000000000000000000000000000000000000000000000000000000000000000000000000000000000000000000000000000000000000000000000000000000000000000000000000000000000000000000000000000C30000000000000000000000000000000000000000000000000000DC00
310
000000002D2D2D2D2D2D2D2D2D2D2D2D2D2D2D2D2D2D2D2D2D2D2D2D0000000000DC0000000000000000000000000000000000000000000000000000C3000000000000000000000000000000000000000000000000000000000000000000000000000000000000000000000000000000000000000000000000000000000000
310
00000000000000000000000000000000000000000000000000000000000000000000000000000000000000000000000000000000000000000000000000000000000000000000000000000000000000000000000000000000000000000000000000000000C30000000000000000000000000000000000000000000000000000
310
DC00000000002D2D2D2D2D2D2D2D2D2D2D2D2D2D2D2D2D2D2D2D2D2D2D2D0000000000DC0000000000000000000000000000000000000000000000000000C300000000000000000000000000000000000000000000000000000000000000000000000000000000000000000000000000000000000000000000000000000000
310
000000000000000000000000000000000000000000000000000000000000000000000000000000000000000000000000000000000000000000000000000000000000000000000000000000000000000000000000000000000000000000000000000000000000C3000000000000000000000000000000000000000000000000
310
0000DC00000000002D2D2D2D2D2D2D2D2D2D2D2D2D2D2D2D2D2D2D2D2D2D2D2D0000000000DC0000000000000000000000000000000000000000000000000000C30000000000000000000000000000000000000000000000000000000000000000000000000000000000000000000000000000000000000000000000000000
310
0000000000000000000000000000000000000000000000000000000000000000000000000000000000000000000000000000000000000000000000000000000000000000000000000000000000000000000000000000000000000000000000000000000000000000C300000000000000000000000000000000000000000000
310
00000000DC00000000002D2D2D2D2D2D2D2D2D2D2D2D2D2D2D2D2D2D2D2D2D2D2D2D0000000000DC0000000000000000000000000000000000000000000000000000C3000000000000000000000000000000000000000000000000000000000000000000000000000000000000000000000000000000000000000000000000
310
00000000000000000000000000000000000000000000000000000000000000000000000000000000000000000000000000000000000000000000000000000000000000000000000000000000000000000000000000000000000000000000000000000000000000000000C30000000000000000000000000000000000000000
310
000000000000DC00000000002D2D2D2D2D2D2D2D2D2D2D2D2D2D2D2D2D2D2D2D2D2D2D2D0000000000DC0000000000000000000000000000000000000000000000000000C300000000000000000000000000000000000000000000000000000000000000000000000000000000000000000000000000000000000000000000
310
000000000000000000000000000000000000000000000000000000000000000000000000000000000000000000000000000000000000000000000000000000000000000000000000000000000000000000000000000000000000000000000000000000000000000000000000C3000000000000000000000000000000000000
310
0000000000000000DC00000000002D2D2D2D2D2D2D2D2D2D2D2D2D2D2D2D2D2D2D2D2D2D2D2D0000000000DC0000000000000000000000000000000000000000000000000000C30000000000000000000000000000000000000000000000000000000000000000000000000000000000000000000000000000000000000000
310
0000000000000000000000000000000000000000000000000000000000000000000000000000000000000000000000000000000000000000000000000000000000000000000000000000000000000000000000000000000000000000000000000000000000000000000000000000C300000000000000000000000000000000
310
00000000000000000000DC00000000002D2D2D2D2D2D2D2D2D2D2D2D2D2D2D2D2D2D2D2D2D2D2D2D0000000000DC0000000000000000000000000000000000000000000000000000C3000000000000000000000000000000000000000000000000000000000000000000000000000000000000000000000000000000000000
310
00000000000000000000000000000000000000000000000000000000000000000000000000000000000000000000000000000000000000000000000000000000000000000000000000000000000000000000000000000000000000000000000000000000000000000000000000000000C30000000000000000000000000000
310
000000000000000000000000DC00000000002D2D2D2D2D2D2D2D2D2D2D2D2D2D2D2D2D2D2D2D2D2D2D2D0000000000DC0000000000000000000000000000000000000000000000000000C300000000000000000000000000000000000000000000000000000000000000000000000000000000000000000000000000000000
310
000000000000000000000000000000000000000000000000000000000000000000000000000000000000000000000000000000000000000000000000000000000000000000000000000000000000000000000000000000000000000000000000000000000000000000000000000000000000C3000000000000000000000000
310
0000000000000000000000000000DC00000000002D2D2D2D2D2D2D2D2D2D2D2D2D2D2D2D2D2D2D2D2D2D2D2D0000000000DC0000000000000000000000000000000000000000000000000000C30000000000000000000000000000000000000000000000000000000000000000000000000000000000000000000000000000
310
0000000000000000000000000000000000000000000000000000000000000000000000000000000000000000000000000000000000000000000000000000000000000000000000000000000000000000000000000000000000000000000000000000000000000000000000000000000000000000C300000000000000000000
310
00000000000000000000000000000000DC00000000002D2D2D2D2D2D2D2D2D2D2D2D2D2D2D2D2D2D2D2D2D2D2D2D0000000000DC0000000000000000000000000000000000000000000000000000C3000000000000000000000000000000000000000000000000000000000000000000000000000000000000000000000000
310
00000000000000000000000000000000000000000000000000000000000000000000000000000000000000000000000000000000000000000000000000000000000000000000000000000000000000000000000000000000000000000000000000000000000000000000000000000000000000000000C30000000000000000
310
000000000000000000000000000000000000DC00000000000000000000000000000000000000000000000000000000000000000000DC0000000000000000000000000000000000000000000000000000C300000000000000000000000000000000000000000000000000000000000000000000000000000000000000000000
310
000000000000000000000000000000000000000000000000000000000000000000000000000000000000000000000000000000000000000000000000000000000000000000000000000000000000000000000000000000000000000000000000000000000000000000000000000000000000000000000000C3000000000000
310
0000000000000000000000000000000000000000DC00000000000000000000000000000000000000000000000000000000000000000000DC0000000000000000000000000000000000000000000000000000C30000000000000000000000000000000000000000000000000000000000000000000000000000000000000000
310
0000000000000000000000000000000000000000000000000000000000000000000000000000000000000000000000000000000000000000000000000000000000000000000000000000000000000000000000000000000000000000000000000000000000000000000000000000000000000000000000000000C300000000
310
00000000000000000000000000000000000000000000DC00000000000000000000000000000000000000000000000000000000000000000000DC0000000000000000000000000000000000000000000000000000C3000000000000000000000000000000000000000000000000000000000000000000000000000000000000
310
00000000000000000000000000000000000000000000000000000000000000000000000000000000000000000000000000000000000000000000000000000000000000000000000000000000000000000000000000000000000000000000000000000000000000000000000000000000000000000000000000000000C30000
310
000000000000000000000000000000000000000000000000DC00000000000000000000000000000000000000000000000000000000000000000000DC0000000000000000000000000000000000000000000000000000C300000000000000000000000000000000000000000000000000000000000000000000000000000000
310
000000000000000000000000000000000000000000000000000000000000000000000000000000000000000000000000000000000000000000000000000000000000000000000000000000000000000000000000000000000000000000000000000000000000000000000000000000000000000000000000000000000000C3
310
0000000000000000000000000000000000000000000000000000DC00000000000000000000000000000000000000000000000000000000000000000000DC0000000000000000000000000000000000000000000000000000C30000000000000000000000000000000000000000000000000000000000000000000000000000
310
00000000000000000000000000000000000000000000000000000000000000000000000000000000000000000000000000000000000000000000000000000000000000000000000000000000000000000000000000000000000000000000000000000000000000000000000000000000000000000000000000000000000000
310
0000C300000000000000000000000000000000000000000000000000DCDCDCDCDCDCDCDCDCDCDCDCDCDCDCDCDCDCDCDCDCDCDCDCDCDCDCDCDCDCDCDCDCDCDCDC00000000000000000000000000000000000000000000000000C300000000000000000000000000000000000000000000000000000000000000000000000000
310
00000000000000000000000000000000000000000000000000000000000000000000000000000000000000000000000000000000000000000000000000000000000000000000000000000000000000000000000000000000000000000000000000000000000000000000000000000000000000000000000000000000000000
310
00000000C30000000000000000000000000000000000000000000000000000000000000000000000000000000000000000000000000000000000000000000000000000000000000000000000000000000000000000000000000000C30000000000000000000000000000000000000000000000000000000000000000000000
310
00000000000000000000000000000000000000000000000000000000000000000000000000000000000000000000000000000000000000000000000000000000000000000000000000000000000000000000000000000000000000000000000000000000000000000000000000000000000000000000000000000000000000
310
000000000000C30000000000000000000000000000000000000000000000000000000000000000000000000000000000000000000000000000000000000000000000000000000000000000000000000000000000000000000000000000C3000000000000000000000000000000000000000000000000000000000000000000
310
00000000000000000000000000000000000000000000000000000000000000000000000000000000000000000000000000000000000000000000000000000000000000000000000000000000000000000000000000000000000000000000000000000000000000000000000000000000000000000000000000000000000000
310
0000000000000000C30000000000000000000000000000000000000000000000000000000000000000000000000000000000000000000000000000000000000000000000000000000000000000000000000000000000000000000000000000C300000000000000000000000000000000000000000000000000000000000000
310
00000000000000000000000000000000000000000000000000000000000000000000000000000000000000000000000000000000000000000000000000000000000000000000000000000000000000000000000000000000000000000000000000000000000000000000000000000000000000000000000000000000000000
310
0000000000000000000000C3000000000000000000000000000000000000000000000000000000000000000000000000000000000000000000000000000000000000000000000000000000000000000000000000000000000000000000000000C3000000000000000000000000000000000000000000000000000000000000
310
00000000000000000000000000000000000000000000000000000000000000000000000000000000000000000000000000000000000000000000000000000000000000000000000000000000000000000000000000000000000000000000000000000000000000000000000000000000000000000000000000000000000000
310
00000000000000000000000000C3000000000000000000000000000000000000000000000000000000000000000000000000000000000000000000000000000000000000000000000000000000000000000000000000000000000000000000000000C300000000000000000000000000000000000000000000000000000000
310
00000000000000000000000000000000000000000000000000000000000000000000000000000000000000000000000000000000000000000000000000000000000000000000000000000000000000000000000000000000000000000000000000000000000000000000000000000000000000000000000000000000000000
310
000000000000000000000000000000C3000000000000000000000000000000000000000000000000000000000000000000000000000000000000000000000000000000000000000000000000000000000000000000000000000000000000000000000000C30000000000000000000000000000000000000000000000000000
310
00000000000000000000000000000000000000000000000000000000000000000000000000000000000000000000000000000000000000000000000000000000000000000000000000000000000000000000000000000000000000000000000000000000000000000000000000000000000000000000000000000000000000
310
000000000000000000000000000000000000C300000000000000000000000000000000000000000000000000000000000000000000000000000000000000000000000000000000000000000000000000000000000000000000000000000000000000000000C300000000000000000000000000000000000000000000000000
310
00000000000000000000000000000000000000000000000000000000000000000000000000000000000000000000000000000000000000000000000000000000000000000000000000000000000000000000000000000000000000000000000000000000000000000000000000000000000000000000000000000000000000
310
0000000000000000000000000000000000000000C300000000000000000000000000000000000000000000000000000000000000000000000000000000000000000000000000000000000000000000000000000000000000000000000000000000000000000000C30000000000000000000000000000000000000000000000
310
00000000000000000000000000000000000000000000000000000000000000000000000000000000000000000000000000000000000000000000000000000000000000000000000000000000000000000000000000000000000000000000000000000000000000000000000000000000000000000000000000000000000000
310
0000000000000000000000000000000000000000000000C30000000000000000000000000000000000000000000000000000000000000000000000000000000000000000000000000000000000000000000000000000000000000000000000000000000000000000C300000000000000000000000000000000000000000000
310
00000000000000000000000000000000000000000000000000000000000000000000000000000000000000000000000000000000000000000000000000000000000000000000000000000000000000000000000000000000000000000000000000000000000000000000000000000000000000000000000000000000000000
310
00000000000000000000000000000000000000000000000000C3C3000000000000000000000000000000000000000000000000000000000000000000000000000000000000000000000000000000000000000000000000000000000000000000000000000000000000C3C30000000000000000000000000000000000000000
310
00000000000000000000000000000000000000000000000000000000000000000000000000000000000000000000000000000000000000000000000000000000000000000000000000000000000000000000000000000000000000000000000000000000000000000000000000000000000000000000000000000000000000
310
00000000000000000000000000000000000000000000000000000000C3000000000000000000000000000000000000000000000000000000000000000000000000000000000000000000000000000000000000000000000000000000000000000000000000000000000000C300000000000000000000000000000000000000
310
00000000000000000000000000000000000000000000000000000000000000000000000000000000000000000000000000000000000000000000000000000000000000000000000000000000000000000000000000000000000000000000000000000000000000000000000000000000000000000000000000000000000000
310
000000000000000000000000000000000000000000000000000000000000C3C300000000000000000000000000000000000000000000000000000000000000000000000000000000000000000000000000000000000000000000000000000000000000000000000000000000C3C30000000000000000000000000000000000
310
00000000000000000000000000000000000000000000000000000000000000000000000000000000000000000000000000000000000000000000000000000000000000000000000000000000000000000000000000000000000000000000000000000000000000000000000000000000000000000000000000000000000000
310
000000000000000000000000000000000000000000000000000000000000000000C300000000000000000000000000000000000000000000000000000000000000000000000000000000000000000000000000000000000000000000000000000000000000000000000000000000C300000000000000000000000000000000
310
00000000000000000000000000000000000000000000000000000000000000000000000000000000000000000000000000000000000000000000000000000000000000000000000000000000000000000000000000000000000000000000000000000000000000000000000000000000000000000000000000000000000000
310
000000000000000000000000000000000000000000000000000000000000000000000000C30000000000000000000000000000000000000000000000000000000000000000000000000000000000000000000000000000000000000000000000000000000000000000000000000000C3000000000000000000000000000000
310
00000000000000000000000000000000000000000000000000000000000000000000000000000000000000000000000000000000000000000000000000000000000000000000000000000000000000000000000000000000000000000000000000000000000000000000000000000000000000000000000000000000000000
310
0000000000000000000000000000000000000000000000000000000000000000000000000000C3C3000000000000000000000000000000000000000000000000000000000000000000000000000000000000000000000000000000000000000000000000000000000000000000000000C3C300000000000000000000000000
310
00000000000000000000000000000000000000000000000000000000000000000000000000000000000000000000000000000000000000000000000000000000000000000000000000000000000000000000000000000000000000000000000000000000000000000000000000000000000000000000000000000000000000
310
000000000000000000000000000000000000000000000000000000000000000000000000000000000000C300000000000000000000000000000000000000000000000000000000000000000000000000000000000000000000000000000000000000000000000000000000000000000000C300000000000000000000000000
310
00000000000000000000000000000000000000000000000000000000000000000000000000000000000000000000000000000000000000000000000000000000000000000000000000000000000000000000000000000000000000000000000000000000000000000000000000000000000000000000000000000000000000
310
000000000000000000000000000000000000000000000000000000000000000000000000000000000000000000C30000000000000000000000000000000000000000000000000000000000000000000000000000000000000000000000000000000000000000000000000000000000000000C3000000000000000000000000
310
00000000000000000000000000000000000000000000000000000000000000000000000000000000000000000000000000000000000000000000000000000000000000000000000000000000000000000000000000000000000000000000000000000000000000000000000000000000000000000000000000000000000000
310
0000000000000000000000000000000000000000000000000000000000000000000000000000000000000000000000C3C3000000000000000000000000000000000000000000000000000000000000000000000000000000000000000000000000000000000000000000000000000000000000C3C300000000000000000000
310
00000000000000000000000000000000000000000000000000000000000000000000000000000000000000000000000000000000000000000000000000000000000000000000000000000000000000000000000000000000000000000000000000000000000000000000000000000000000000000000000000000000000000
310
000000000000000000000000000000000000000000000000000000000000000000000000000000000000000000000000000000C300000000000000000000000000000000000000000000000000000000000000000000000000000000000000000000000000000000000000000000000000000000C300000000000000000000
310
00000000000000000000000000000000000000000000000000000000000000000000000000000000000000000000000000000000000000000000000000000000000000000000000000000000000000000000000000000000000000000000000000000000000000000000000000000000000000000000000000000000000000
310
000000000000000000000000000000000000000000000000000000000000000000000000000000000000000000000000000000000000C3C3000000000000000000000000000000000000000000000000000000000000000000000000000000000000000000000000000000000000000000000000C3C3000000000000000000
310
00000000000000000000000000000000000000000000000000000000000000000000000000000000000000000000000000000000000000000000000000000000000000000000000000000000000000000000000000000000000000000000000000000000000000000000000000000000000000000000000000000000000000
310
000000000000000000000000000000000000000000000000000000000000000000000000000000000000000000000000000000000000000000C3C300000000000000000000000000000000000000000000000000000000000000000000000000000000000000000000000000000000000000000000C3C30000000000000000
310
00000000000000000000000000000000000000000000000000000000000000000000000000000000000000000000000000000000000000000000000000000000000000000000000000000000000000000000000000000000000000000000000000000000000000000000000000000000000000000000000000000000000000
310
00000000000000000000000000000000000000000000000000000000000000000000000000000000000000000000000000000000000000000000000000C3C3000000000000000000000000000000000000000000000000000000000000000000000000000000000000000000000000000000000000C3C30000000000000000
310
00000000000000000000000000000000000000000000000000000000000000000000000000000000000000000000000000000000000000000000000000000000000000000000000000000000000000000000000000000000000000000000000000000000000000000000000000000000000000000000000000000000000000
310
00000000000000000000000000000000000000000000000000000000000000000000000000000000000000000000000000000000000000000000000000000000C3C3C30000000000000000000000000000000000000000000000000000000000000000000000000000000000000000000000000000C3C3C300000000000000
310
00000000000000000000000000000000000000000000000000000000000000000000000000000000000000000000000000000000000000000000000000000000000000000000000000000000000000000000000000000000000000000000000000000000000000000000000000000000000000000000000000000000000000
310
0000000000000000000000000000000000000000000000000000000000000000000000000000000000000000000000000000000000000000000000000000000000000000C3C3C300000000000000000000000000000000000000000000000000000000000000000000000000000000000000000000C3C3C300000000000000
310
00000000000000000000000000000000000000000000000000000000000000000000000000000000000000000000000000000000000000000000000000000000000000000000000000000000000000000000000000000000000000000000000000000000000000000000000000000000000000000000000000000000000000
310
00000000000000000000000000000000000000000000000000000000000000000000000000000000000000000000000000000000000000000000000000000000000000000000000000C3C3C300000000000000000000000000000000000000000000000000000000000000000000000000000000C3C3C30000000000000000
310
00000000000000000000000000000000000000000000000000000000000000000000000000000000000000000000000000000000000000000000000000000000000000000000000000000000000000000000000000000000000000000000000000000000000000000000000000000000000000000000000000000000000000
310
000000000000000000000000000000000000000000000000000000000000000000000000000000000000000000000000000000000000000000000000000000000000000000000000000000000000C3C3C3C3C3C300000000000000000000000000000000000000000000000000000000C3C3C3C3C3C3000000000000000000
310
00000000000000000000000000000000000000000000000000000000000000000000000000000000000000000000000000000000000000000000000000000000000000000000000000000000000000000000000000000000000000000000000000000000000000000000000000000000000000000000000000000000000000
310
00000000000000000000000000000000000000000000000000000000000000000000000000000000000000000000000000000000000000000000000000000000000000000000000000000000000000000000000000C3C3C3C3C3C3C3C3C3C3C3C3C3C3C3C3C3C3C3C3C3C3C3C3C3C3C3C3C3C3000000000000000000000000
310
0000000000000000000000000000000000000000000000000000000000000000000000000000000000000000000000000000000000000000000000000000000000000000000000000000000000000000000000000000000000000000000000000000000000
  0
XRECORD
  5
2F9CE8
102
{ACAD_REACTORS
330
1A
102
}
330
1A
100
AcDbXrecord
280
     1
102
MATERIAL
148
0.0
149
0.0
149
0.0
 93
        0
 94
      127
282
     0
 72
     0
 77
     0
171
     0
175
     0
179
     0
273
     0
  0
XRECORD
  5
1C
102
{ACAD_REACTORS
330
1A
102
}
330
1A
100
AcDbXrecord
280
     1
270
     1
271
     1
  0
XRECORD
  5
1B
102
{ACAD_REACTORS
330
1A
102
}
330
1A
100
AcDbXrecord
280
     1
270
     1
271
     1
  0
XRECORD
  5
1F
102
{ACAD_REACTORS
330
1A
102
}
330
1A
100
AcDbXrecord
280
     1
270
     1
271
     1
  0
XRECORD
  5
1E
102
{ACAD_REACTORS
330
1A
102
}
330
1A
100
AcDbXrecord
280
     1
270
     1
271
     1
  0
XRECORD
  5
20
102
{ACAD_REACTORS
330
1A
102
}
330
1A
100
AcDbXrecord
280
     1
270
     1
271
     1
  0
XRECORD
  5
1D
102
{ACAD_REACTORS
330
1A
102
}
330
1A
100
AcDbXrecord
280
     1
270
     1
271
     1
  0
XRECORD
  5
2F9CE7
102
{ACAD_REACTORS
330
12
102
}
330
12
100
AcDbXrecord
280
     1
102
MATERIAL
148
0.0
149
0.0
149
0.0
 93
        0
 94
      127
282
     0
 72
     0
 77
     0
171
     0
175
     0
179
     0
273
     0
  0
XRECORD
  5
14
102
{ACAD_REACTORS
330
12
102
}
330
12
100
AcDbXrecord
280
     1
270
     1
271
     1
  0
XRECORD
  5
13
102
{ACAD_REACTORS
330
12
102
}
330
12
100
AcDbXrecord
280
     1
270
     1
271
     1
  0
XRECORD
  5
17
102
{ACAD_REACTORS
330
12
102
}
330
12
100
AcDbXrecord
280
     1
270
     1
271
     1
  0
XRECORD
  5
16
102
{ACAD_REACTORS
330
12
102
}
330
12
100
AcDbXrecord
280
     1
270
     1
271
     1
  0
XRECORD
  5
18
102
{ACAD_REACTORS
330
12
102
}
330
12
100
AcDbXrecord
280
     1
270
     1
271
     1
  0
XRECORD
  5
15
102
{ACAD_REACTORS
330
12
102
}
330
12
100
AcDbXrecord
280
     1
270
     1
271
     1
  0
XRECORD
  5
2F9CE9
102
{ACAD_REACTORS
330
22
102
}
330
22
100
AcDbXrecord
280
     1
102
MATERIAL
148
0.0
149
0.0
149
0.0
 93
        0
 94
      127
282
     0
 72
     0
 77
     0
171
     0
175
     0
179
     0
273
     0
  0
XRECORD
  5
24
102
{ACAD_REACTORS
330
22
102
}
330
22
100
AcDbXrecord
280
     1
270
     1
271
     1
  0
XRECORD
  5
23
102
{ACAD_REACTORS
330
22
102
}
330
22
100
AcDbXrecord
280
     1
270
     1
271
     1
  0
XRECORD
  5
27
102
{ACAD_REACTORS
330
22
102
}
330
22
100
AcDbXrecord
280
     1
270
     1
271
     1
  0
XRECORD
  5
26
102
{ACAD_REACTORS
330
22
102
}
330
22
100
AcDbXrecord
280
     1
270
     1
271
     1
  0
XRECORD
  5
28
102
{ACAD_REACTORS
330
22
102
}
330
22
100
AcDbXrecord
280
     1
270
     1
271
     1
  0
XRECORD
  5
25
102
{ACAD_REACTORS
330
22
102
}
330
22
100
AcDbXrecord
280
     1
270
     1
271
     1
  0
CELLSTYLEMAP
  5
2FAA57
102
{ACAD_REACTORS
330
2F9CE3
102
}
330
2F9CE3
100
AcDbCellStyleMap
 90
        3
300
CELLSTYLE
  1
TABLEFORMAT_BEGIN
 90
        5
170
     1
 91
        0
 92
    32768
 62
   257
 93
        1
300
CONTENTFORMAT
  1
CONTENTFORMAT_BEGIN
 90
        0
 91
        0
 92
      512
 93
        0
300

 40
0.0
140
1.0
 94
        5
 62
     0
340
55
144
0.25
309
CONTENTFORMAT_END
171
     1
301
MARGIN
  1
CELLMARGIN_BEGIN
 40
0.06
 40
0.06
 40
0.06
 40
0.06
 40
0.18
 40
0.18
309
CELLMARGIN_END
 94
        6
 95
        1
302
GRIDFORMAT
  1
GRIDFORMAT_BEGIN
 90
        0
 91
        1
 62
     0
 92
       -2
340
0
 93
        0
 40
0.045
309
GRIDFORMAT_END
 95
        2
302
GRIDFORMAT
  1
GRIDFORMAT_BEGIN
 90
        0
 91
        1
 62
     0
 92
       -2
340
0
 93
        0
 40
0.045
309
GRIDFORMAT_END
 95
        4
302
GRIDFORMAT
  1
GRIDFORMAT_BEGIN
 90
        0
 91
        1
 62
     0
 92
       -2
340
0
 93
        0
 40
0.045
309
GRIDFORMAT_END
 95
        8
302
GRIDFORMAT
  1
GRIDFORMAT_BEGIN
 90
        0
 91
        1
 62
     0
 92
       -2
340
0
 93
        0
 40
0.045
309
GRIDFORMAT_END
 95
       16
302
GRIDFORMAT
  1
GRIDFORMAT_BEGIN
 90
        0
 91
        1
 62
     0
 92
       -2
340
0
 93
        0
 40
0.045
309
GRIDFORMAT_END
 95
       32
302
GRIDFORMAT
  1
GRIDFORMAT_BEGIN
 90
        0
 91
        1
 62
     0
 92
       -2
340
0
 93
        0
 40
0.045
309
GRIDFORMAT_END
309
TABLEFORMAT_END
  1
CELLSTYLE_BEGIN
 90
        1
 91
        1
300
_TITLE
309
CELLSTYLE_END
300
CELLSTYLE
  1
TABLEFORMAT_BEGIN
 90
        5
170
     1
 91
        0
 92
        0
 62
   257
 93
        1
300
CONTENTFORMAT
  1
CONTENTFORMAT_BEGIN
 90
        0
 91
        0
 92
      512
 93
        0
300

 40
0.0
140
1.0
 94
        5
 62
     0
340
55
144
0.18
309
CONTENTFORMAT_END
171
     1
301
MARGIN
  1
CELLMARGIN_BEGIN
 40
0.06
 40
0.06
 40
0.06
 40
0.06
 40
0.18
 40
0.18
309
CELLMARGIN_END
 94
        6
 95
        1
302
GRIDFORMAT
  1
GRIDFORMAT_BEGIN
 90
        0
 91
        1
 62
     0
 92
       -2
340
0
 93
        0
 40
0.045
309
GRIDFORMAT_END
 95
        2
302
GRIDFORMAT
  1
GRIDFORMAT_BEGIN
 90
        0
 91
        1
 62
     0
 92
       -2
340
0
 93
        0
 40
0.045
309
GRIDFORMAT_END
 95
        4
302
GRIDFORMAT
  1
GRIDFORMAT_BEGIN
 90
        0
 91
        1
 62
     0
 92
       -2
340
0
 93
        0
 40
0.045
309
GRIDFORMAT_END
 95
        8
302
GRIDFORMAT
  1
GRIDFORMAT_BEGIN
 90
        0
 91
        1
 62
     0
 92
       -2
340
0
 93
        0
 40
0.045
309
GRIDFORMAT_END
 95
       16
302
GRIDFORMAT
  1
GRIDFORMAT_BEGIN
 90
        0
 91
        1
 62
     0
 92
       -2
340
0
 93
        0
 40
0.045
309
GRIDFORMAT_END
 95
       32
302
GRIDFORMAT
  1
GRIDFORMAT_BEGIN
 90
        0
 91
        1
 62
     0
 92
       -2
340
0
 93
        0
 40
0.045
309
GRIDFORMAT_END
309
TABLEFORMAT_END
  1
CELLSTYLE_BEGIN
 90
        2
 91
        1
300
_HEADER
309
CELLSTYLE_END
300
CELLSTYLE
  1
TABLEFORMAT_BEGIN
 90
        5
170
     1
 91
        0
 92
        0
 62
   257
 93
        1
300
CONTENTFORMAT
  1
CONTENTFORMAT_BEGIN
 90
        0
 91
        0
 92
      512
 93
        0
300

 40
0.0
140
1.0
 94
        2
 62
     0
340
55
144
0.18
309
CONTENTFORMAT_END
171
     1
301
MARGIN
  1
CELLMARGIN_BEGIN
 40
0.06
 40
0.06
 40
0.06
 40
0.06
 40
0.18
 40
0.18
309
CELLMARGIN_END
 94
        6
 95
        1
302
GRIDFORMAT
  1
GRIDFORMAT_BEGIN
 90
        0
 91
        1
 62
     0
 92
       -2
340
0
 93
        0
 40
0.045
309
GRIDFORMAT_END
 95
        2
302
GRIDFORMAT
  1
GRIDFORMAT_BEGIN
 90
        0
 91
        1
 62
     0
 92
       -2
340
0
 93
        0
 40
0.045
309
GRIDFORMAT_END
 95
        4
302
GRIDFORMAT
  1
GRIDFORMAT_BEGIN
 90
        0
 91
        1
 62
     0
 92
       -2
340
0
 93
        0
 40
0.045
309
GRIDFORMAT_END
 95
        8
302
GRIDFORMAT
  1
GRIDFORMAT_BEGIN
 90
        0
 91
        1
 62
     0
 92
       -2
340
0
 93
        0
 40
0.045
309
GRIDFORMAT_END
 95
       16
302
GRIDFORMAT
  1
GRIDFORMAT_BEGIN
 90
        0
 91
        1
 62
     0
 92
       -2
340
0
 93
        0
 40
0.045
309
GRIDFORMAT_END
 95
       32
302
GRIDFORMAT
  1
GRIDFORMAT_BEGIN
 90
        0
 91
        1
 62
     0
 92
       -2
340
0
 93
        0
 40
0.045
309
GRIDFORMAT_END
309
TABLEFORMAT_END
  1
CELLSTYLE_BEGIN
 90
        3
 91
        2
300
_DATA
309
CELLSTYLE_END
  0
XRECORD
  5
2FAA8F
102
{ACAD_REACTORS
330
2F9CE3
102
}
330
2F9CE3
100
AcDbXrecord
280
     1
102
ACAD_ROUNDTRIP_PRE2007_TABLESTYLE
 90
      512
 91
        0
  1

 92
      512
 93
        0
  2

 94
      512
 95
        0
  3

  0
XRECORD
  5
2FAA6A
102
{ACAD_REACTORS
330
2FAA69
102
}
330
2FAA69
100
AcDbXrecord
280
     1
102
RTVSPropertyOp0
 70
     1
102
RTVSPropertyOp1
 70
     1
102
RTVSPropertyOp2
 70
     1
102
RTVSPropertyOp3
 70
     1
102
RTVSPropertyOp4
 70
     1
102
RTVSPropertyOp5
 70
     1
102
RTVSPropertyOp6
 70
     1
102
RTVSPropertyOp7
 70
     1
102
RTVSPropertyOp8
 70
     1
102
RTVSPropertyOp9
 70
     1
102
RTVSPropertyOp10
 70
     1
102
RTVSPropertyOp11
 70
     1
102
RTVSPropertyOp12
 70
     1
102
RTVSPropertyOp13
 70
     1
102
RTVSPropertyOp14
 70
     1
102
RTVSPropertyOp15
 70
     1
102
RTVSPropertyOp16
 70
     1
102
RTVSPropertyOp17
 70
     1
102
RTVSPropertyOp18
 70
     1
102
RTVSPropertyOp19
 70
     1
102
RTVSPropertyOp20
 70
     1
102
RTVSPropertyOp21
 70
     1
102
RTVSPropertyOp22
 70
     1
102
RTVSPropertyOp23
 70
     1
102
RTVSPropertyOp24
 70
     1
102
RTVSPropertyOp25
 70
     1
102
RTVSPropertyOp26
 70
     1
102
RTVSPropertyOp27
 70
     1
102
RTVSPropertyOp28
 70
     1
102
RTVSPropertyOp29
 70
     1
102
RTVSPropertyOp30
 70
     1
102
RTVSPropertyOp31
 70
     1
102
RTVSPropertyOp32
 70
     1
  0
XRECORD
  5
2FAA96
102
{ACAD_REACTORS
330
2FAA95
102
}
330
2FAA95
100
AcDbXrecord
280
     1
102
RTVSPropertyOp0
 70
     1
102
RTVSPropertyOp1
 70
     1
102
RTVSPropertyOp2
 70
     1
102
RTVSPropertyOp3
 70
     1
102
RTVSPropertyOp4
 70
     1
102
RTVSPropertyOp5
 70
     1
102
RTVSPropertyOp6
 70
     1
102
RTVSPropertyOp7
 70
     1
102
RTVSPropertyOp8
 70
     1
102
RTVSPropertyOp9
 70
     1
102
RTVSPropertyOp10
 70
     1
102
RTVSPropertyOp11
 70
     1
102
RTVSPropertyOp12
 70
     1
102
RTVSPropertyOp13
 70
     1
102
RTVSPropertyOp14
 70
     1
102
RTVSPropertyOp15
 70
     1
102
RTVSPropertyOp16
 70
     1
102
RTVSPropertyOp17
 70
     1
102
RTVSPropertyOp18
 70
     1
102
RTVSPropertyOp19
 70
     1
102
RTVSPropertyOp20
 70
     1
102
RTVSPropertyOp21
 70
     1
102
RTVSPropertyOp22
 70
     1
102
RTVSPropertyOp23
 70
     1
102
RTVSPropertyOp24
 70
     1
102
RTVSPropertyOp25
 70
     1
102
RTVSPropertyOp26
 70
     1
102
RTVSPropertyOp27
 70
     1
102
RTVSPropertyOp28
 70
     1
102
RTVSPropertyOp29
 70
     1
102
RTVSPropertyOp30
 70
     1
102
RTVSPropertyOp31
 70
     1
102
RTVSPropertyOp32
 70
     1
  0
XRECORD
  5
2FAA68
102
{ACAD_REACTORS
330
2FAA67
102
}
330
2FAA67
100
AcDbXrecord
280
     1
102
RTVSPropertyOp0
 70
     1
102
RTVSPropertyOp1
 70
     1
102
RTVSPropertyOp2
 70
     1
102
RTVSPropertyOp3
 70
     1
102
RTVSPropertyOp4
 70
     1
102
RTVSPropertyOp5
 70
     1
102
RTVSPropertyOp6
 70
     1
102
RTVSPropertyOp7
 70
     1
102
RTVSPropertyOp8
 70
     1
102
RTVSPropertyOp9
 70
     1
102
RTVSPropertyOp10
 70
     1
102
RTVSPropertyOp11
 70
     1
102
RTVSPropertyOp12
 70
     1
102
RTVSPropertyOp13
 70
     1
102
RTVSPropertyOp14
 70
     1
102
RTVSPropertyOp15
 70
     1
102
RTVSPropertyOp16
 70
     1
102
RTVSPropertyOp17
 70
     1
102
RTVSPropertyOp18
 70
     1
102
RTVSPropertyOp19
 70
     1
102
RTVSPropertyOp20
 70
     1
102
RTVSPropertyOp21
 70
     1
102
RTVSPropertyOp22
 70
     1
102
RTVSPropertyOp23
 70
     1
102
RTVSPropertyOp24
 70
     1
102
RTVSPropertyOp25
 70
     1
102
RTVSPropertyOp26
 70
     1
102
RTVSPropertyOp27
 70
     1
102
RTVSPropertyOp28
 70
     1
102
RTVSPropertyOp29
 70
     1
102
RTVSPropertyOp30
 70
     1
102
RTVSPropertyOp31
 70
     1
102
RTVSPropertyOp32
 70
     1
  0
XRECORD
  5
2FAA76
102
{ACAD_REACTORS
330
2FAA75
102
}
330
2FAA75
100
AcDbXrecord
280
     1
102
RTVSPropertyOp0
 70
     1
102
RTVSPropertyOp1
 70
     1
102
RTVSPropertyOp2
 70
     1
102
RTVSPropertyOp3
 70
     1
102
RTVSPropertyOp4
 70
     1
102
RTVSPropertyOp5
 70
     1
102
RTVSPropertyOp6
 70
     1
102
RTVSPropertyOp7
 70
     1
102
RTVSPropertyOp8
 70
     1
102
RTVSPropertyOp9
 70
     1
102
RTVSPropertyOp10
 70
     1
102
RTVSPropertyOp11
 70
     1
102
RTVSPropertyOp12
 70
     1
102
RTVSPropertyOp13
 70
     1
102
RTVSPropertyOp14
 70
     1
102
RTVSPropertyOp15
 70
     1
102
RTVSPropertyOp16
 70
     1
102
RTVSPropertyOp17
 70
     1
102
RTVSPropertyOp18
 70
     1
102
RTVSPropertyOp19
 70
     1
102
RTVSPropertyOp20
 70
     1
102
RTVSPropertyOp21
 70
     1
102
RTVSPropertyOp22
 70
     1
102
RTVSPropertyOp23
 70
     1
102
RTVSPropertyOp24
 70
     1
102
RTVSPropertyOp25
 70
     1
102
RTVSPropertyOp26
 70
     1
102
RTVSPropertyOp27
 70
     1
102
RTVSPropertyOp28
 70
     1
102
RTVSPropertyOp29
 70
     1
102
RTVSPropertyOp30
 70
     1
102
RTVSPropertyOp31
 70
     1
102
RTVSPropertyOp32
 70
     1
  0
XRECORD
  5
2FAA7E
102
{ACAD_REACTORS
330
2FAA7D
102
}
330
2FAA7D
100
AcDbXrecord
280
     1
102
RTVSPropertyOp0
 70
     1
102
RTVSPropertyOp1
 70
     1
102
RTVSPropertyOp2
 70
     1
102
RTVSPropertyOp3
 70
     1
102
RTVSPropertyOp4
 70
     1
102
RTVSPropertyOp5
 70
     1
102
RTVSPropertyOp6
 70
     1
102
RTVSPropertyOp7
 70
     1
102
RTVSPropertyOp8
 70
     1
102
RTVSPropertyOp9
 70
     1
102
RTVSPropertyOp10
 70
     1
102
RTVSPropertyOp11
 70
     1
102
RTVSPropertyOp12
 70
     1
102
RTVSPropertyOp13
 70
     1
102
RTVSPropertyOp14
 70
     1
102
RTVSPropertyOp15
 70
     1
102
RTVSPropertyOp16
 70
     1
102
RTVSPropertyOp17
 70
     1
102
RTVSPropertyOp18
 70
     1
102
RTVSPropertyOp19
 70
     1
102
RTVSPropertyOp20
 70
     1
102
RTVSPropertyOp21
 70
     1
102
RTVSPropertyOp22
 70
     1
102
RTVSPropertyOp23
 70
     1
102
RTVSPropertyOp24
 70
     1
102
RTVSPropertyOp25
 70
     1
102
RTVSPropertyOp26
 70
     1
102
RTVSPropertyOp27
 70
     1
102
RTVSPropertyOp28
 70
     1
102
RTVSPropertyOp29
 70
     1
102
RTVSPropertyOp30
 70
     1
102
RTVSPropertyOp31
 70
     1
102
RTVSPropertyOp32
 70
     1
  0
XRECORD
  5
2FAA70
102
{ACAD_REACTORS
330
2FAA6F
102
}
330
2FAA6F
100
AcDbXrecord
280
     1
102
RTVSPropertyOp0
 70
     1
102
RTVSPropertyOp1
 70
     1
102
RTVSPropertyOp2
 70
     1
102
RTVSPropertyOp3
 70
     1
102
RTVSPropertyOp4
 70
     1
102
RTVSPropertyOp5
 70
     1
102
RTVSPropertyOp6
 70
     1
102
RTVSPropertyOp7
 70
     1
102
RTVSPropertyOp8
 70
     1
102
RTVSPropertyOp9
 70
     1
102
RTVSPropertyOp10
 70
     1
102
RTVSPropertyOp11
 70
     1
102
RTVSPropertyOp12
 70
     1
102
RTVSPropertyOp13
 70
     1
102
RTVSPropertyOp14
 70
     1
102
RTVSPropertyOp15
 70
     1
102
RTVSPropertyOp16
 70
     1
102
RTVSPropertyOp17
 70
     1
102
RTVSPropertyOp18
 70
     1
102
RTVSPropertyOp19
 70
     1
102
RTVSPropertyOp20
 70
     1
102
RTVSPropertyOp21
 70
     1
102
RTVSPropertyOp22
 70
     1
102
RTVSPropertyOp23
 70
     1
102
RTVSPropertyOp24
 70
     1
102
RTVSPropertyOp25
 70
     1
102
RTVSPropertyOp26
 70
     1
102
RTVSPropertyOp27
 70
     1
102
RTVSPropertyOp28
 70
     1
102
RTVSPropertyOp29
 70
     1
102
RTVSPropertyOp30
 70
     1
102
RTVSPropertyOp31
 70
     1
102
RTVSPropertyOp32
 70
     1
  0
XRECORD
  5
2FAA74
102
{ACAD_REACTORS
330
2FAA73
102
}
330
2FAA73
100
AcDbXrecord
280
     1
102
RTVSPropertyOp0
 70
     1
102
RTVSPropertyOp1
 70
     1
102
RTVSPropertyOp2
 70
     1
102
RTVSPropertyOp3
 70
     1
102
RTVSPropertyOp4
 70
     1
102
RTVSPropertyOp5
 70
     1
102
RTVSPropertyOp6
 70
     1
102
RTVSPropertyOp7
 70
     1
102
RTVSPropertyOp8
 70
     1
102
RTVSPropertyOp9
 70
     1
102
RTVSPropertyOp10
 70
     1
102
RTVSPropertyOp11
 70
     1
102
RTVSPropertyOp12
 70
     1
102
RTVSPropertyOp13
 70
     1
102
RTVSPropertyOp14
 70
     1
102
RTVSPropertyOp15
 70
     1
102
RTVSPropertyOp16
 70
     1
102
RTVSPropertyOp17
 70
     1
102
RTVSPropertyOp18
 70
     1
102
RTVSPropertyOp19
 70
     1
102
RTVSPropertyOp20
 70
     1
102
RTVSPropertyOp21
 70
     1
102
RTVSPropertyOp22
 70
     1
102
RTVSPropertyOp23
 70
     1
102
RTVSPropertyOp24
 70
     1
102
RTVSPropertyOp25
 70
     1
102
RTVSPropertyOp26
 70
     1
102
RTVSPropertyOp27
 70
     1
102
RTVSPropertyOp28
 70
     1
102
RTVSPropertyOp29
 70
     1
102
RTVSPropertyOp30
 70
     1
102
RTVSPropertyOp31
 70
     1
102
RTVSPropertyOp32
 70
     1
  0
XRECORD
  5
2FAA8E
102
{ACAD_REACTORS
330
2FAA8D
102
}
330
2FAA8D
100
AcDbXrecord
280
     1
102
RTVSPropertyOp0
 70
     0
102
RTVSPropertyOp1
 70
     0
102
RTVSPropertyOp2
 70
     0
102
RTVSPropertyOp3
 70
     0
102
RTVSPropertyOp4
 70
     0
102
RTVSPropertyOp5
 70
     0
102
RTVSPropertyOp6
 70
     0
102
RTVSPropertyOp7
 70
     0
102
RTVSPropertyOp8
 70
     0
102
RTVSPropertyOp9
 70
     0
102
RTVSPropertyOp10
 70
     0
102
RTVSPropertyOp11
 70
     0
102
RTVSPropertyOp12
 70
     0
102
RTVSPropertyOp13
 70
     0
102
RTVSPropertyOp14
 70
     2
102
RTVSPropertyOp15
 70
     0
102
RTVSPropertyOp16
 70
     0
102
RTVSPropertyOp17
 70
     0
102
RTVSPropertyOp18
 70
     0
102
RTVSPropertyOp19
 70
     0
102
RTVSPropertyOp20
 70
     0
102
RTVSPropertyOp21
 70
     0
102
RTVSPropertyOp22
 70
     0
102
RTVSPropertyOp23
 70
     0
102
RTVSPropertyOp24
 70
     0
102
RTVSPropertyOp25
 70
     0
102
RTVSPropertyOp26
 70
     0
102
RTVSPropertyOp27
 70
     0
102
RTVSPropertyOp28
 70
     1
102
RTVSPropertyOp29
 70
     1
102
RTVSPropertyOp30
 70
     1
102
RTVSPropertyOp31
 70
     1
102
RTVSPropertyOp32
 70
     1
  0
XRECORD
  5
2FAA7C
102
{ACAD_REACTORS
330
2FAA7B
102
}
330
2FAA7B
100
AcDbXrecord
280
     1
102
RTVSPropertyOp0
 70
     1
102
RTVSPropertyOp1
 70
     1
102
RTVSPropertyOp2
 70
     1
102
RTVSPropertyOp3
 70
     1
102
RTVSPropertyOp4
 70
     1
102
RTVSPropertyOp5
 70
     1
102
RTVSPropertyOp6
 70
     1
102
RTVSPropertyOp7
 70
     1
102
RTVSPropertyOp8
 70
     1
102
RTVSPropertyOp9
 70
     1
102
RTVSPropertyOp10
 70
     1
102
RTVSPropertyOp11
 70
     1
102
RTVSPropertyOp12
 70
     1
102
RTVSPropertyOp13
 70
     1
102
RTVSPropertyOp14
 70
     1
102
RTVSPropertyOp15
 70
     1
102
RTVSPropertyOp16
 70
     1
102
RTVSPropertyOp17
 70
     1
102
RTVSPropertyOp18
 70
     1
102
RTVSPropertyOp19
 70
     1
102
RTVSPropertyOp20
 70
     1
102
RTVSPropertyOp21
 70
     1
102
RTVSPropertyOp22
 70
     1
102
RTVSPropertyOp23
 70
     1
102
RTVSPropertyOp24
 70
     1
102
RTVSPropertyOp25
 70
     1
102
RTVSPropertyOp26
 70
     1
102
RTVSPropertyOp27
 70
     1
102
RTVSPropertyOp28
 70
     1
102
RTVSPropertyOp29
 70
     1
102
RTVSPropertyOp30
 70
     1
102
RTVSPropertyOp31
 70
     1
102
RTVSPropertyOp32
 70
     1
  0
XRECORD
  5
2FAA60
102
{ACAD_REACTORS
330
2FAA5F
102
}
330
2FAA5F
100
AcDbXrecord
280
     1
102
RTVSPropertyOp0
 70
     1
102
RTVSPropertyOp1
 70
     1
102
RTVSPropertyOp2
 70
     1
102
RTVSPropertyOp3
 70
     1
102
RTVSPropertyOp4
 70
     1
102
RTVSPropertyOp5
 70
     1
102
RTVSPropertyOp6
 70
     1
102
RTVSPropertyOp7
 70
     1
102
RTVSPropertyOp8
 70
     1
102
RTVSPropertyOp9
 70
     1
102
RTVSPropertyOp10
 70
     1
102
RTVSPropertyOp11
 70
     1
102
RTVSPropertyOp12
 70
     1
102
RTVSPropertyOp13
 70
     1
102
RTVSPropertyOp14
 70
     1
102
RTVSPropertyOp15
 70
     1
102
RTVSPropertyOp16
 70
     1
102
RTVSPropertyOp17
 70
     1
102
RTVSPropertyOp18
 70
     1
102
RTVSPropertyOp19
 70
     1
102
RTVSPropertyOp20
 70
     1
102
RTVSPropertyOp21
 70
     1
102
RTVSPropertyOp22
 70
     1
102
RTVSPropertyOp23
 70
     1
102
RTVSPropertyOp24
 70
     1
102
RTVSPropertyOp25
 70
     1
102
RTVSPropertyOp26
 70
     1
102
RTVSPropertyOp27
 70
     1
102
RTVSPropertyOp28
 70
     1
102
RTVSPropertyOp29
 70
     1
102
RTVSPropertyOp30
 70
     1
102
RTVSPropertyOp31
 70
     1
102
RTVSPropertyOp32
 70
     1
  0
XRECORD
  5
2FAA62
102
{ACAD_REACTORS
330
2FAA61
102
}
330
2FAA61
100
AcDbXrecord
280
     1
102
RTVSPropertyOp0
 70
     1
102
RTVSPropertyOp1
 70
     1
102
RTVSPropertyOp2
 70
     1
102
RTVSPropertyOp3
 70
     1
102
RTVSPropertyOp4
 70
     1
102
RTVSPropertyOp5
 70
     1
102
RTVSPropertyOp6
 70
     1
102
RTVSPropertyOp7
 70
     1
102
RTVSPropertyOp8
 70
     1
102
RTVSPropertyOp9
 70
     1
102
RTVSPropertyOp10
 70
     1
102
RTVSPropertyOp11
 70
     1
102
RTVSPropertyOp12
 70
     1
102
RTVSPropertyOp13
 70
     1
102
RTVSPropertyOp14
 70
     1
102
RTVSPropertyOp15
 70
     1
102
RTVSPropertyOp16
 70
     1
102
RTVSPropertyOp17
 70
     1
102
RTVSPropertyOp18
 70
     1
102
RTVSPropertyOp19
 70
     1
102
RTVSPropertyOp20
 70
     1
102
RTVSPropertyOp21
 70
     1
102
RTVSPropertyOp22
 70
     1
102
RTVSPropertyOp23
 70
     1
102
RTVSPropertyOp24
 70
     1
102
RTVSPropertyOp25
 70
     1
102
RTVSPropertyOp26
 70
     1
102
RTVSPropertyOp27
 70
     1
102
RTVSPropertyOp28
 70
     1
102
RTVSPropertyOp29
 70
     1
102
RTVSPropertyOp30
 70
     1
102
RTVSPropertyOp31
 70
     1
102
RTVSPropertyOp32
 70
     1
  0
XRECORD
  5
2FAA64
102
{ACAD_REACTORS
330
2FAA63
102
}
330
2FAA63
100
AcDbXrecord
280
     1
102
RTVSPropertyOp0
 70
     1
102
RTVSPropertyOp1
 70
     1
102
RTVSPropertyOp2
 70
     1
102
RTVSPropertyOp3
 70
     1
102
RTVSPropertyOp4
 70
     1
102
RTVSPropertyOp5
 70
     1
102
RTVSPropertyOp6
 70
     1
102
RTVSPropertyOp7
 70
     1
102
RTVSPropertyOp8
 70
     1
102
RTVSPropertyOp9
 70
     1
102
RTVSPropertyOp10
 70
     1
102
RTVSPropertyOp11
 70
     1
102
RTVSPropertyOp12
 70
     1
102
RTVSPropertyOp13
 70
     1
102
RTVSPropertyOp14
 70
     1
102
RTVSPropertyOp15
 70
     1
102
RTVSPropertyOp16
 70
     1
102
RTVSPropertyOp17
 70
     1
102
RTVSPropertyOp18
 70
     1
102
RTVSPropertyOp19
 70
     1
102
RTVSPropertyOp20
 70
     1
102
RTVSPropertyOp21
 70
     1
102
RTVSPropertyOp22
 70
     1
102
RTVSPropertyOp23
 70
     1
102
RTVSPropertyOp24
 70
     1
102
RTVSPropertyOp25
 70
     1
102
RTVSPropertyOp26
 70
     1
102
RTVSPropertyOp27
 70
     1
102
RTVSPropertyOp28
 70
     1
102
RTVSPropertyOp29
 70
     1
102
RTVSPropertyOp30
 70
     1
102
RTVSPropertyOp31
 70
     1
102
RTVSPropertyOp32
 70
     1
  0
XRECORD
  5
2FAA66
102
{ACAD_REACTORS
330
2FAA65
102
}
330
2FAA65
100
AcDbXrecord
280
     1
102
RTVSPropertyOp0
 70
     1
102
RTVSPropertyOp1
 70
     1
102
RTVSPropertyOp2
 70
     1
102
RTVSPropertyOp3
 70
     1
102
RTVSPropertyOp4
 70
     1
102
RTVSPropertyOp5
 70
     1
102
RTVSPropertyOp6
 70
     1
102
RTVSPropertyOp7
 70
     1
102
RTVSPropertyOp8
 70
     1
102
RTVSPropertyOp9
 70
     1
102
RTVSPropertyOp10
 70
     1
102
RTVSPropertyOp11
 70
     1
102
RTVSPropertyOp12
 70
     1
102
RTVSPropertyOp13
 70
     1
102
RTVSPropertyOp14
 70
     1
102
RTVSPropertyOp15
 70
     1
102
RTVSPropertyOp16
 70
     1
102
RTVSPropertyOp17
 70
     1
102
RTVSPropertyOp18
 70
     1
102
RTVSPropertyOp19
 70
     1
102
RTVSPropertyOp20
 70
     1
102
RTVSPropertyOp21
 70
     1
102
RTVSPropertyOp22
 70
     1
102
RTVSPropertyOp23
 70
     1
102
RTVSPropertyOp24
 70
     1
102
RTVSPropertyOp25
 70
     1
102
RTVSPropertyOp26
 70
     1
102
RTVSPropertyOp27
 70
     1
102
RTVSPropertyOp28
 70
     1
102
RTVSPropertyOp29
 70
     1
102
RTVSPropertyOp30
 70
     1
102
RTVSPropertyOp31
 70
     1
102
RTVSPropertyOp32
 70
     1
  0
XRECORD
  5
2FAA6E
102
{ACAD_REACTORS
330
2FAA6D
102
}
330
2FAA6D
100
AcDbXrecord
280
     1
102
RTVSPropertyOp0
 70
     1
102
RTVSPropertyOp1
 70
     1
102
RTVSPropertyOp2
 70
     1
102
RTVSPropertyOp3
 70
     1
102
RTVSPropertyOp4
 70
     1
102
RTVSPropertyOp5
 70
     1
102
RTVSPropertyOp6
 70
     1
102
RTVSPropertyOp7
 70
     1
102
RTVSPropertyOp8
 70
     1
102
RTVSPropertyOp9
 70
     1
102
RTVSPropertyOp10
 70
     1
102
RTVSPropertyOp11
 70
     1
102
RTVSPropertyOp12
 70
     1
102
RTVSPropertyOp13
 70
     1
102
RTVSPropertyOp14
 70
     1
102
RTVSPropertyOp15
 70
     1
102
RTVSPropertyOp16
 70
     1
102
RTVSPropertyOp17
 70
     1
102
RTVSPropertyOp18
 70
     1
102
RTVSPropertyOp19
 70
     1
102
RTVSPropertyOp20
 70
     1
102
RTVSPropertyOp21
 70
     1
102
RTVSPropertyOp22
 70
     1
102
RTVSPropertyOp23
 70
     1
102
RTVSPropertyOp24
 70
     1
102
RTVSPropertyOp25
 70
     1
102
RTVSPropertyOp26
 70
     1
102
RTVSPropertyOp27
 70
     1
102
RTVSPropertyOp28
 70
     1
102
RTVSPropertyOp29
 70
     1
102
RTVSPropertyOp30
 70
     1
102
RTVSPropertyOp31
 70
     1
102
RTVSPropertyOp32
 70
     1
  0
XRECORD
  5
2FAA8A
102
{ACAD_REACTORS
330
2FAA89
102
}
330
2FAA89
100
AcDbXrecord
280
     1
102
RTVSPropertyOp0
 70
     0
102
RTVSPropertyOp1
 70
     0
102
RTVSPropertyOp2
 70
     0
102
RTVSPropertyOp3
 70
     0
102
RTVSPropertyOp4
 70
     0
102
RTVSPropertyOp5
 70
     0
102
RTVSPropertyOp6
 70
     0
102
RTVSPropertyOp7
 70
     0
102
RTVSPropertyOp8
 70
     0
102
RTVSPropertyOp9
 70
     0
102
RTVSPropertyOp10
 70
     0
102
RTVSPropertyOp11
 70
     0
102
RTVSPropertyOp12
 70
     0
102
RTVSPropertyOp13
 70
     0
102
RTVSPropertyOp14
 70
     2
102
RTVSPropertyOp15
 70
     0
102
RTVSPropertyOp16
 70
     0
102
RTVSPropertyOp17
 70
     0
102
RTVSPropertyOp18
 70
     0
102
RTVSPropertyOp19
 70
     0
102
RTVSPropertyOp20
 70
     0
102
RTVSPropertyOp21
 70
     0
102
RTVSPropertyOp22
 70
     0
102
RTVSPropertyOp23
 70
     0
102
RTVSPropertyOp24
 70
     0
102
RTVSPropertyOp25
 70
     0
102
RTVSPropertyOp26
 70
     0
102
RTVSPropertyOp27
 70
     0
102
RTVSPropertyOp28
 70
     1
102
RTVSPropertyOp29
 70
     1
102
RTVSPropertyOp30
 70
     1
102
RTVSPropertyOp31
 70
     1
102
RTVSPropertyOp32
 70
     1
  0
XRECORD
  5
2FAA7A
102
{ACAD_REACTORS
330
2FAA79
102
}
330
2FAA79
100
AcDbXrecord
280
     1
102
RTVSPropertyOp0
 70
     1
102
RTVSPropertyOp1
 70
     1
102
RTVSPropertyOp2
 70
     1
102
RTVSPropertyOp3
 70
     1
102
RTVSPropertyOp4
 70
     1
102
RTVSPropertyOp5
 70
     1
102
RTVSPropertyOp6
 70
     1
102
RTVSPropertyOp7
 70
     1
102
RTVSPropertyOp8
 70
     1
102
RTVSPropertyOp9
 70
     1
102
RTVSPropertyOp10
 70
     1
102
RTVSPropertyOp11
 70
     1
102
RTVSPropertyOp12
 70
     1
102
RTVSPropertyOp13
 70
     1
102
RTVSPropertyOp14
 70
     1
102
RTVSPropertyOp15
 70
     1
102
RTVSPropertyOp16
 70
     1
102
RTVSPropertyOp17
 70
     1
102
RTVSPropertyOp18
 70
     1
102
RTVSPropertyOp19
 70
     1
102
RTVSPropertyOp20
 70
     1
102
RTVSPropertyOp21
 70
     1
102
RTVSPropertyOp22
 70
     1
102
RTVSPropertyOp23
 70
     1
102
RTVSPropertyOp24
 70
     1
102
RTVSPropertyOp25
 70
     1
102
RTVSPropertyOp26
 70
     1
102
RTVSPropertyOp27
 70
     1
102
RTVSPropertyOp28
 70
     1
102
RTVSPropertyOp29
 70
     1
102
RTVSPropertyOp30
 70
     1
102
RTVSPropertyOp31
 70
     1
102
RTVSPropertyOp32
 70
     1
  0
XRECORD
  5
2FAA8C
102
{ACAD_REACTORS
330
2FAA8B
102
}
330
2FAA8B
100
AcDbXrecord
280
     1
102
RTVSPropertyOp0
 70
     0
102
RTVSPropertyOp1
 70
     0
102
RTVSPropertyOp2
 70
     0
102
RTVSPropertyOp3
 70
     0
102
RTVSPropertyOp4
 70
     0
102
RTVSPropertyOp5
 70
     0
102
RTVSPropertyOp6
 70
     0
102
RTVSPropertyOp7
 70
     0
102
RTVSPropertyOp8
 70
     0
102
RTVSPropertyOp9
 70
     0
102
RTVSPropertyOp10
 70
     0
102
RTVSPropertyOp11
 70
     0
102
RTVSPropertyOp12
 70
     0
102
RTVSPropertyOp13
 70
     0
102
RTVSPropertyOp14
 70
     2
102
RTVSPropertyOp15
 70
     0
102
RTVSPropertyOp16
 70
     0
102
RTVSPropertyOp17
 70
     0
102
RTVSPropertyOp18
 70
     0
102
RTVSPropertyOp19
 70
     0
102
RTVSPropertyOp20
 70
     0
102
RTVSPropertyOp21
 70
     0
102
RTVSPropertyOp22
 70
     0
102
RTVSPropertyOp23
 70
     0
102
RTVSPropertyOp24
 70
     0
102
RTVSPropertyOp25
 70
     0
102
RTVSPropertyOp26
 70
     0
102
RTVSPropertyOp27
 70
     0
102
RTVSPropertyOp28
 70
     1
102
RTVSPropertyOp29
 70
     1
102
RTVSPropertyOp30
 70
     1
102
RTVSPropertyOp31
 70
     1
102
RTVSPropertyOp32
 70
     1
  0
XRECORD
  5
2FAA72
102
{ACAD_REACTORS
330
2FAA71
102
}
330
2FAA71
100
AcDbXrecord
280
     1
102
RTVSPropertyOp0
 70
     1
102
RTVSPropertyOp1
 70
     1
102
RTVSPropertyOp2
 70
     1
102
RTVSPropertyOp3
 70
     1
102
RTVSPropertyOp4
 70
     1
102
RTVSPropertyOp5
 70
     1
102
RTVSPropertyOp6
 70
     1
102
RTVSPropertyOp7
 70
     1
102
RTVSPropertyOp8
 70
     1
102
RTVSPropertyOp9
 70
     1
102
RTVSPropertyOp10
 70
     1
102
RTVSPropertyOp11
 70
     1
102
RTVSPropertyOp12
 70
     1
102
RTVSPropertyOp13
 70
     1
102
RTVSPropertyOp14
 70
     1
102
RTVSPropertyOp15
 70
     1
102
RTVSPropertyOp16
 70
     1
102
RTVSPropertyOp17
 70
     1
102
RTVSPropertyOp18
 70
     1
102
RTVSPropertyOp19
 70
     1
102
RTVSPropertyOp20
 70
     1
102
RTVSPropertyOp21
 70
     1
102
RTVSPropertyOp22
 70
     1
102
RTVSPropertyOp23
 70
     1
102
RTVSPropertyOp24
 70
     1
102
RTVSPropertyOp25
 70
     1
102
RTVSPropertyOp26
 70
     1
102
RTVSPropertyOp27
 70
     1
102
RTVSPropertyOp28
 70
     1
102
RTVSPropertyOp29
 70
     1
102
RTVSPropertyOp30
 70
     1
102
RTVSPropertyOp31
 70
     1
102
RTVSPropertyOp32
 70
     1
  0
XRECORD
  5
2FAA88
102
{ACAD_REACTORS
330
2FAA87
102
}
330
2FAA87
100
AcDbXrecord
280
     1
102
RTVSPropertyOp0
 70
     1
102
RTVSPropertyOp1
 70
     1
102
RTVSPropertyOp2
 70
     1
102
RTVSPropertyOp3
 70
     1
102
RTVSPropertyOp4
 70
     1
102
RTVSPropertyOp5
 70
     1
102
RTVSPropertyOp6
 70
     1
102
RTVSPropertyOp7
 70
     1
102
RTVSPropertyOp8
 70
     1
102
RTVSPropertyOp9
 70
     1
102
RTVSPropertyOp10
 70
     1
102
RTVSPropertyOp11
 70
     1
102
RTVSPropertyOp12
 70
     1
102
RTVSPropertyOp13
 70
     1
102
RTVSPropertyOp14
 70
     1
102
RTVSPropertyOp15
 70
     1
102
RTVSPropertyOp16
 70
     1
102
RTVSPropertyOp17
 70
     1
102
RTVSPropertyOp18
 70
     1
102
RTVSPropertyOp19
 70
     1
102
RTVSPropertyOp20
 70
     1
102
RTVSPropertyOp21
 70
     1
102
RTVSPropertyOp22
 70
     1
102
RTVSPropertyOp23
 70
     1
102
RTVSPropertyOp24
 70
     1
102
RTVSPropertyOp25
 70
     1
102
RTVSPropertyOp26
 70
     1
102
RTVSPropertyOp27
 70
     1
102
RTVSPropertyOp28
 70
     1
102
RTVSPropertyOp29
 70
     1
102
RTVSPropertyOp30
 70
     1
102
RTVSPropertyOp31
 70
     1
102
RTVSPropertyOp32
 70
     1
  0
XRECORD
  5
2FAA86
102
{ACAD_REACTORS
330
2FAA85
102
}
330
2FAA85
100
AcDbXrecord
280
     1
102
RTVSPropertyOp0
 70
     1
102
RTVSPropertyOp1
 70
     1
102
RTVSPropertyOp2
 70
     1
102
RTVSPropertyOp3
 70
     1
102
RTVSPropertyOp4
 70
     1
102
RTVSPropertyOp5
 70
     1
102
RTVSPropertyOp6
 70
     1
102
RTVSPropertyOp7
 70
     1
102
RTVSPropertyOp8
 70
     1
102
RTVSPropertyOp9
 70
     1
102
RTVSPropertyOp10
 70
     1
102
RTVSPropertyOp11
 70
     1
102
RTVSPropertyOp12
 70
     1
102
RTVSPropertyOp13
 70
     1
102
RTVSPropertyOp14
 70
     1
102
RTVSPropertyOp15
 70
     1
102
RTVSPropertyOp16
 70
     1
102
RTVSPropertyOp17
 70
     1
102
RTVSPropertyOp18
 70
     1
102
RTVSPropertyOp19
 70
     1
102
RTVSPropertyOp20
 70
     1
102
RTVSPropertyOp21
 70
     1
102
RTVSPropertyOp22
 70
     1
102
RTVSPropertyOp23
 70
     1
102
RTVSPropertyOp24
 70
     1
102
RTVSPropertyOp25
 70
     1
102
RTVSPropertyOp26
 70
     1
102
RTVSPropertyOp27
 70
     1
102
RTVSPropertyOp28
 70
     1
102
RTVSPropertyOp29
 70
     1
102
RTVSPropertyOp30
 70
     1
102
RTVSPropertyOp31
 70
     1
102
RTVSPropertyOp32
 70
     1
  0
XRECORD
  5
2FAA80
102
{ACAD_REACTORS
330
2FAA7F
102
}
330
2FAA7F
100
AcDbXrecord
280
     1
102
RTVSPropertyOp0
 70
     1
102
RTVSPropertyOp1
 70
     1
102
RTVSPropertyOp2
 70
     1
102
RTVSPropertyOp3
 70
     1
102
RTVSPropertyOp4
 70
     1
102
RTVSPropertyOp5
 70
     1
102
RTVSPropertyOp6
 70
     1
102
RTVSPropertyOp7
 70
     1
102
RTVSPropertyOp8
 70
     1
102
RTVSPropertyOp9
 70
     1
102
RTVSPropertyOp10
 70
     1
102
RTVSPropertyOp11
 70
     1
102
RTVSPropertyOp12
 70
     1
102
RTVSPropertyOp13
 70
     1
102
RTVSPropertyOp14
 70
     1
102
RTVSPropertyOp15
 70
     1
102
RTVSPropertyOp16
 70
     1
102
RTVSPropertyOp17
 70
     1
102
RTVSPropertyOp18
 70
     1
102
RTVSPropertyOp19
 70
     1
102
RTVSPropertyOp20
 70
     1
102
RTVSPropertyOp21
 70
     1
102
RTVSPropertyOp22
 70
     1
102
RTVSPropertyOp23
 70
     1
102
RTVSPropertyOp24
 70
     1
102
RTVSPropertyOp25
 70
     1
102
RTVSPropertyOp26
 70
     1
102
RTVSPropertyOp27
 70
     1
102
RTVSPropertyOp28
 70
     1
102
RTVSPropertyOp29
 70
     1
102
RTVSPropertyOp30
 70
     1
102
RTVSPropertyOp31
 70
     1
102
RTVSPropertyOp32
 70
     1
  0
XRECORD
  5
2FAA82
102
{ACAD_REACTORS
330
2FAA81
102
}
330
2FAA81
100
AcDbXrecord
280
     1
102
RTVSPropertyOp0
 70
     1
102
RTVSPropertyOp1
 70
     1
102
RTVSPropertyOp2
 70
     1
102
RTVSPropertyOp3
 70
     1
102
RTVSPropertyOp4
 70
     1
102
RTVSPropertyOp5
 70
     1
102
RTVSPropertyOp6
 70
     1
102
RTVSPropertyOp7
 70
     1
102
RTVSPropertyOp8
 70
     1
102
RTVSPropertyOp9
 70
     1
102
RTVSPropertyOp10
 70
     1
102
RTVSPropertyOp11
 70
     1
102
RTVSPropertyOp12
 70
     1
102
RTVSPropertyOp13
 70
     1
102
RTVSPropertyOp14
 70
     1
102
RTVSPropertyOp15
 70
     1
102
RTVSPropertyOp16
 70
     1
102
RTVSPropertyOp17
 70
     1
102
RTVSPropertyOp18
 70
     1
102
RTVSPropertyOp19
 70
     1
102
RTVSPropertyOp20
 70
     1
102
RTVSPropertyOp21
 70
     1
102
RTVSPropertyOp22
 70
     1
102
RTVSPropertyOp23
 70
     1
102
RTVSPropertyOp24
 70
     1
102
RTVSPropertyOp25
 70
     1
102
RTVSPropertyOp26
 70
     1
102
RTVSPropertyOp27
 70
     1
102
RTVSPropertyOp28
 70
     1
102
RTVSPropertyOp29
 70
     1
102
RTVSPropertyOp30
 70
     1
102
RTVSPropertyOp31
 70
     1
102
RTVSPropertyOp32
 70
     1
  0
XRECORD
  5
2FAA78
102
{ACAD_REACTORS
330
2FAA77
102
}
330
2FAA77
100
AcDbXrecord
280
     1
102
RTVSPropertyOp0
 70
     1
102
RTVSPropertyOp1
 70
     1
102
RTVSPropertyOp2
 70
     1
102
RTVSPropertyOp3
 70
     1
102
RTVSPropertyOp4
 70
     1
102
RTVSPropertyOp5
 70
     1
102
RTVSPropertyOp6
 70
     1
102
RTVSPropertyOp7
 70
     1
102
RTVSPropertyOp8
 70
     1
102
RTVSPropertyOp9
 70
     1
102
RTVSPropertyOp10
 70
     1
102
RTVSPropertyOp11
 70
     1
102
RTVSPropertyOp12
 70
     1
102
RTVSPropertyOp13
 70
     1
102
RTVSPropertyOp14
 70
     1
102
RTVSPropertyOp15
 70
     1
102
RTVSPropertyOp16
 70
     1
102
RTVSPropertyOp17
 70
     1
102
RTVSPropertyOp18
 70
     1
102
RTVSPropertyOp19
 70
     1
102
RTVSPropertyOp20
 70
     1
102
RTVSPropertyOp21
 70
     1
102
RTVSPropertyOp22
 70
     1
102
RTVSPropertyOp23
 70
     1
102
RTVSPropertyOp24
 70
     1
102
RTVSPropertyOp25
 70
     1
102
RTVSPropertyOp26
 70
     1
102
RTVSPropertyOp27
 70
     1
102
RTVSPropertyOp28
 70
     1
102
RTVSPropertyOp29
 70
     1
102
RTVSPropertyOp30
 70
     1
102
RTVSPropertyOp31
 70
     1
102
RTVSPropertyOp32
 70
     1
  0
XRECORD
  5
2FAA6C
102
{ACAD_REACTORS
330
2FAA6B
102
}
330
2FAA6B
100
AcDbXrecord
280
     1
102
RTVSPropertyOp0
 70
     1
102
RTVSPropertyOp1
 70
     1
102
RTVSPropertyOp2
 70
     1
102
RTVSPropertyOp3
 70
     1
102
RTVSPropertyOp4
 70
     1
102
RTVSPropertyOp5
 70
     1
102
RTVSPropertyOp6
 70
     1
102
RTVSPropertyOp7
 70
     1
102
RTVSPropertyOp8
 70
     1
102
RTVSPropertyOp9
 70
     1
102
RTVSPropertyOp10
 70
     1
102
RTVSPropertyOp11
 70
     1
102
RTVSPropertyOp12
 70
     1
102
RTVSPropertyOp13
 70
     1
102
RTVSPropertyOp14
 70
     1
102
RTVSPropertyOp15
 70
     1
102
RTVSPropertyOp16
 70
     1
102
RTVSPropertyOp17
 70
     1
102
RTVSPropertyOp18
 70
     1
102
RTVSPropertyOp19
 70
     1
102
RTVSPropertyOp20
 70
     1
102
RTVSPropertyOp21
 70
     1
102
RTVSPropertyOp22
 70
     1
102
RTVSPropertyOp23
 70
     1
102
RTVSPropertyOp24
 70
     1
102
RTVSPropertyOp25
 70
     1
102
RTVSPropertyOp26
 70
     1
102
RTVSPropertyOp27
 70
     1
102
RTVSPropertyOp28
 70
     1
102
RTVSPropertyOp29
 70
     1
102
RTVSPropertyOp30
 70
     1
102
RTVSPropertyOp31
 70
     1
102
RTVSPropertyOp32
 70
     1
  0
XRECORD
  5
2FAA84
102
{ACAD_REACTORS
330
2FAA83
102
}
330
2FAA83
100
AcDbXrecord
280
     1
102
RTVSPropertyOp0
 70
     1
102
RTVSPropertyOp1
 70
     1
102
RTVSPropertyOp2
 70
     1
102
RTVSPropertyOp3
 70
     1
102
RTVSPropertyOp4
 70
     1
102
RTVSPropertyOp5
 70
     1
102
RTVSPropertyOp6
 70
     1
102
RTVSPropertyOp7
 70
     1
102
RTVSPropertyOp8
 70
     1
102
RTVSPropertyOp9
 70
     1
102
RTVSPropertyOp10
 70
     1
102
RTVSPropertyOp11
 70
     1
102
RTVSPropertyOp12
 70
     1
102
RTVSPropertyOp13
 70
     1
102
RTVSPropertyOp14
 70
     1
102
RTVSPropertyOp15
 70
     1
102
RTVSPropertyOp16
 70
     1
102
RTVSPropertyOp17
 70
     1
102
RTVSPropertyOp18
 70
     1
102
RTVSPropertyOp19
 70
     1
102
RTVSPropertyOp20
 70
     1
102
RTVSPropertyOp21
 70
     1
102
RTVSPropertyOp22
 70
     1
102
RTVSPropertyOp23
 70
     1
102
RTVSPropertyOp24
 70
     1
102
RTVSPropertyOp25
 70
     1
102
RTVSPropertyOp26
 70
     1
102
RTVSPropertyOp27
 70
     1
102
RTVSPropertyOp28
 70
     1
102
RTVSPropertyOp29
 70
     1
102
RTVSPropertyOp30
 70
     1
102
RTVSPropertyOp31
 70
     1
102
RTVSPropertyOp32
 70
     1
  0
ENDSEC
  0
EOF
