  0
SECTION
  2
HEADER
  9
$ACADVER
  1
AC1015
  9
$ACADMAINTVER
 70
    20
  9
$DWGCODEPAGE
  3
ANSI_1250
  9
$INSBASE
 10
0.0
 20
0.0
 30
0.0
  9
$EXTMIN
 10
-12893.89034599063
 20
-3233.040460720478
 30
0.0
  9
$EXTMAX
 10
-7693.890345990758
 20
1966.959539279523
 30
0.0
  9
$LIMMIN
 10
0.0
 20
0.0
  9
$LIMMAX
 10
420.0
 20
297.0
  9
$ORTHOMODE
 70
     1
  9
$REGENMODE
 70
     1
  9
$FILLMODE
 70
     1
  9
$QTEXTMODE
 70
     0
  9
$MIRRTEXT
 70
     0
  9
$LTSCALE
 40
1.0
  9
$ATTMODE
 70
     1
  9
$TEXTSIZE
 40
0.2
  9
$TRACEWID
 40
0.05
  9
$TEXTSTYLE
  7
Standard
  9
$CLAYER
  8
0
  9
$CELTYPE
  6
ByLayer
  9
$CECOLOR
 62
   256
  9
$CELTSCALE
 40
1.0
  9
$DISPSILH
 70
     0
  9
$DIMSCALE
 40
1.0
  9
$DIMASZ
 40
1.799999999999999
  9
$DIMEXO
 40
0.0625
  9
$DIMDLI
 40
0.38
  9
$DIMRND
 40
0.0
  9
$DIMDLE
 40
0.0
  9
$DIMEXE
 40
0.18
  9
$DIMTP
 40
0.0
  9
$DIMTM
 40
0.0
  9
$DIMTXT
 40
0.3499999940395355
  9
$DIMCEN
 40
0.09
  9
$DIMTSZ
 40
0.0
  9
$DIMTOL
 70
     0
  9
$DIMLIM
 70
     0
  9
$DIMTIH
 70
     1
  9
$DIMTOH
 70
     1
  9
$DIMSE1
 70
     0
  9
$DIMSE2
 70
     0
  9
$DIMTAD
 70
     0
  9
$DIMZIN
 70
     0
  9
$DIMBLK
  1

  9
$DIMASO
 70
     1
  9
$DIMSHO
 70
     1
  9
$DIMPOST
  1

  9
$DIMAPOST
  1

  9
$DIMALT
 70
     0
  9
$DIMALTD
 70
     2
  9
$DIMALTF
 40
25.4
  9
$DIMLFAC
 40
1.0
  9
$DIMTOFL
 70
     0
  9
$DIMTVP
 40
0.0
  9
$DIMTIX
 70
     0
  9
$DIMSOXD
 70
     0
  9
$DIMSAH
 70
     0
  9
$DIMBLK1
  1

  9
$DIMBLK2
  1

  9
$DIMSTYLE
  2
Standard
  9
$DIMCLRD
 70
     0
  9
$DIMCLRE
 70
     0
  9
$DIMCLRT
 70
     0
  9
$DIMTFAC
 40
1.0
  9
$DIMGAP
 40
0.09
  9
$DIMJUST
 70
     0
  9
$DIMSD1
 70
     0
  9
$DIMSD2
 70
     0
  9
$DIMTOLJ
 70
     1
  9
$DIMTZIN
 70
     0
  9
$DIMALTZ
 70
     0
  9
$DIMALTTZ
 70
     0
  9
$DIMUPT
 70
     0
  9
$DIMDEC
 70
     4
  9
$DIMTDEC
 70
     4
  9
$DIMALTU
 70
     2
  9
$DIMALTTD
 70
     2
  9
$DIMTXSTY
  7
Standard
  9
$DIMAUNIT
 70
     0
  9
$DIMADEC
 70
     0
  9
$DIMALTRND
 40
0.0
  9
$DIMAZIN
 70
     0
  9
$DIMDSEP
 70
    46
  9
$DIMATFIT
 70
     3
  9
$DIMFRAC
 70
     0
  9
$DIMLDRBLK
  1

  9
$DIMLUNIT
 70
     2
  9
$DIMLWD
 70
    -2
  9
$DIMLWE
 70
    -2
  9
$DIMTMOVE
 70
     0
  9
$LUNITS
 70
     2
  9
$LUPREC
 70
     2
  9
$SKETCHINC
 40
0.1
  9
$FILLETRAD
 40
2000.0
  9
$AUNITS
 70
     0
  9
$AUPREC
 70
     0
  9
$MENU
  1
.
  9
$ELEVATION
 40
0.0
  9
$PELEVATION
 40
0.0
  9
$THICKNESS
 40
0.0
  9
$LIMCHECK
 70
     0
  9
$CHAMFERA
 40
0.0
  9
$CHAMFERB
 40
0.0
  9
$CHAMFERC
 40
0.0
  9
$CHAMFERD
 40
0.0
  9
$SKPOLY
 70
     0
  9
$TDCREATE
 40
2458022.861501852
  9
$TDUCREATE
 40
2458022.778168519
  9
$TDUPDATE
 40
2458667.562676053
  9
$TDUUPDATE
 40
2458667.479342720
  9
$TDINDWG
 40
1.6594343056
  9
$TDUSRTIMER
 40
1.6594341319
  9
$USRTIMER
 70
     1
  9
$ANGBASE
 50
0.0
  9
$ANGDIR
 70
     0
  9
$PDMODE
 70
     0
  9
$PDSIZE
 40
0.0
  9
$PLINEWID
 40
0.0
  9
$SPLFRAME
 70
     0
  9
$SPLINETYPE
 70
     6
  9
$SPLINESEGS
 70
     8
  9
$HANDSEED
  5
2F55DB
  9
$SURFTAB1
 70
     6
  9
$SURFTAB2
 70
     6
  9
$SURFTYPE
 70
     6
  9
$SURFU
 70
     6
  9
$SURFV
 70
     6
  9
$UCSBASE
  2

  9
$UCSNAME
  2

  9
$UCSORG
 10
0.0
 20
0.0
 30
0.0
  9
$UCSXDIR
 10
1.0
 20
0.0
 30
0.0
  9
$UCSYDIR
 10
0.0
 20
1.0
 30
0.0
  9
$UCSORTHOREF
  2

  9
$UCSORTHOVIEW
 70
     0
  9
$UCSORGTOP
 10
0.0
 20
0.0
 30
0.0
  9
$UCSORGBOTTOM
 10
0.0
 20
0.0
 30
0.0
  9
$UCSORGLEFT
 10
0.0
 20
0.0
 30
0.0
  9
$UCSORGRIGHT
 10
0.0
 20
0.0
 30
0.0
  9
$UCSORGFRONT
 10
0.0
 20
0.0
 30
0.0
  9
$UCSORGBACK
 10
0.0
 20
0.0
 30
0.0
  9
$PUCSBASE
  2

  9
$PUCSNAME
  2

  9
$PUCSORG
 10
0.0
 20
0.0
 30
0.0
  9
$PUCSXDIR
 10
1.0
 20
0.0
 30
0.0
  9
$PUCSYDIR
 10
0.0
 20
1.0
 30
0.0
  9
$PUCSORTHOREF
  2

  9
$PUCSORTHOVIEW
 70
     0
  9
$PUCSORGTOP
 10
0.0
 20
0.0
 30
0.0
  9
$PUCSORGBOTTOM
 10
0.0
 20
0.0
 30
0.0
  9
$PUCSORGLEFT
 10
0.0
 20
0.0
 30
0.0
  9
$PUCSORGRIGHT
 10
0.0
 20
0.0
 30
0.0
  9
$PUCSORGFRONT
 10
0.0
 20
0.0
 30
0.0
  9
$PUCSORGBACK
 10
0.0
 20
0.0
 30
0.0
  9
$USERI1
 70
     0
  9
$USERI2
 70
     0
  9
$USERI3
 70
     0
  9
$USERI4
 70
     0
  9
$USERI5
 70
     0
  9
$USERR1
 40
0.0
  9
$USERR2
 40
0.0
  9
$USERR3
 40
0.0
  9
$USERR4
 40
0.0
  9
$USERR5
 40
0.0
  9
$WORLDVIEW
 70
     1
  9
$SHADEDGE
 70
     3
  9
$SHADEDIF
 70
    70
  9
$TILEMODE
 70
     1
  9
$MAXACTVP
 70
    64
  9
$PINSBASE
 10
0.0
 20
0.0
 30
0.0
  9
$PLIMCHECK
 70
     0
  9
$PEXTMIN
 10
0.0
 20
0.0
 30
0.0
  9
$PEXTMAX
 10
420.0
 20
297.0
 30
0.0
  9
$PLIMMIN
 10
0.0
 20
0.0
  9
$PLIMMAX
 10
420.0
 20
297.0
  9
$UNITMODE
 70
     0
  9
$VISRETAIN
 70
     1
  9
$PLINEGEN
 70
     0
  9
$PSLTSCALE
 70
     1
  9
$TREEDEPTH
 70
  3020
  9
$CMLSTYLE
  2
Standard
  9
$CMLJUST
 70
     0
  9
$CMLSCALE
 40
1.0
  9
$PROXYGRAPHICS
 70
     1
  9
$MEASUREMENT
 70
     1
  9
$CELWEIGHT
370
    -1
  9
$ENDCAPS
280
     0
  9
$JOINSTYLE
280
     0
  9
$LWDISPLAY
290
     0
  9
$INSUNITS
 70
     4
  9
$HYPERLINKBASE
  1

  9
$STYLESHEET
  1
MONOCHROME.CTB
  9
$XEDIT
290
     1
  9
$CEPSNTYPE
380
     0
  9
$PSTYLEMODE
290
     1
  9
$FINGERPRINTGUID
  2
{EE324C07-26EA-43F5-BF4C-34F6154CD393}
  9
$VERSIONGUID
  2
{8294EE56-405C-4A2D-B321-815F5194A118}
  9
$EXTNAMES
290
     1
  9
$PSVPSCALE
 40
0.0
  9
$OLESTARTUP
290
     0
  0
ENDSEC
  0
SECTION
  2
CLASSES
  0
CLASS
  1
ACDBDICTIONARYWDFLT
  2
AcDbDictionaryWithDefault
  3
ObjectDBX Classes
 90
        0
280
     0
281
     0
  0
CLASS
  1
MATERIAL
  2
AcDbMaterial
  3
ObjectDBX Classes
 90
     1153
280
     0
281
     0
  0
CLASS
  1
VISUALSTYLE
  2
AcDbVisualStyle
  3
ObjectDBX Classes
 90
     4095
280
     0
281
     0
  0
CLASS
  1
SCALE
  2
AcDbScale
  3
ObjectDBX Classes
 90
     1153
280
     0
281
     0
  0
CLASS
  1
TABLESTYLE
  2
AcDbTableStyle
  3
ObjectDBX Classes
 90
     4095
280
     0
281
     0
  0
CLASS
  1
MLEADERSTYLE
  2
AcDbMLeaderStyle
  3
ACDB_MLEADERSTYLE_CLASS
 90
     4095
280
     0
281
     0
  0
CLASS
  1
DICTIONARYVAR
  2
AcDbDictionaryVar
  3
ObjectDBX Classes
 90
        0
280
     0
281
     0
  0
CLASS
  1
ACME_DOCUMENT
  2
AcMeDbDoc
  3
AcMeServices
 90
     1024
280
     0
281
     0
  0
CLASS
  1
AMGSETTINGSOBJ
  2
AmgSettingsObj
  3
"AcadM|Product Description: AutoCAD Mechanical|Company: Autodesk, Inc."
 90
     1024
280
     0
281
     0
  0
CLASS
  1
ACMESCOPE
  2
AcMeScope
  3
AcMeServices
 90
     1024
280
     0
281
     0
  0
CLASS
  1
ACMECOMMANDHISTORY
  2
AcMeCommandHistory
  3
AcMeServices
 90
     1024
280
     0
281
     0
  0
CLASS
  1
ACIMSYSVARMAN
  2
AcImSysVarManager
  3
AcMeServices
 90
     1024
280
     0
281
     0
  0
CLASS
  1
ACIMINTSYSVAR
  2
AcImIntSysVar
  3
AcMeServices
 90
     1024
280
     0
281
     0
  0
CLASS
  1
ACMESTATEMGR
  2
AcMeStateMgr
  3
AcMeServices
 90
     1024
280
     0
281
     0
  0
CLASS
  1
ACDBENTITYCACHE
  2
AcMeEntityCache
  3
AcMeServices
 90
     1024
280
     0
281
     0
  0
CLASS
  1
ACGREFMASTER
  2
AcGrefMaster
  3
AcAttribServices
 90
     1024
280
     0
281
     0
  0
CLASS
  1
AM_DRAWING_MGR
  2
AcDmDwgMgr
  3
AcMechDwgViewMgmt
 90
     1024
280
     0
281
     0
  0
CLASS
  1
AM_DWG_DOCUMENT
  2
AcDmDwgDocument
  3
AcMechDwgViewMgmt
 90
     1024
280
     0
281
     0
  0
CLASS
  1
AM_DWG_SHEET
  2
AcDmSheet
  3
AcMechDwgViewMgmt
 90
     1024
280
     0
281
     0
  0
CLASS
  1
AM_VIEWDIMPARMAP
  2
AcDmViewDimParMap
  3
AcMechDwgViewMgmt
 90
     1024
280
     0
281
     0
  0
CLASS
  1
AMDTINTERNALREACTOR
  2
AmdtInternalReactor
  3
AcMeServices
 90
     1024
280
     0
281
     0
  0
CLASS
  1
ACIMREALSYSVAR
  2
AcImRealSysVar
  3
AcMeServices
 90
     1024
280
     0
281
     0
  0
CLASS
  1
AM_DWGMGR_NAME
  2
AcDmDwgMgrName
  3
AcMechDwgViewMgmt
 90
     1024
280
     0
281
     0
  0
CLASS
  1
ACME_DATABASE
  2
AcMeDbDatabase
  3
AcMeServices
 90
     1024
280
     0
281
     0
  0
CLASS
  1
ACRFINSADJUSTERMGR
  2
AcRfInsAdjusterMgr
  3
AcMeServices
 90
     1024
280
     0
281
     0
  0
CLASS
  1
ACGREFACADMASTER
  2
AcGrefacadMaster
  3
AcGrefServices
 90
     1024
280
     0
281
     0
  0
CLASS
  1
AMDTMENUSTATEMGR
  2
AmdtMenuStateMgr
  3
McadcomServices
 90
     1024
280
     0
281
     0
  0
CLASS
  1
AMDTMCOMMENUSTATE
  2
AmdtMcomMenuState
  3
McadcomServices
 90
     1024
280
     0
281
     0
  0
CLASS
  1
AMIMASTER
  2
AmiMaster
  3
AmiServices
 90
     1024
280
     0
281
     0
  0
CLASS
  1
MAPIAMMOUDLE
  2
MApiAmModule
  3
MApiAmServices
 90
     1024
280
     0
281
     0
  0
CLASS
  1
ACIMSTRSYSVAR
  2
AcImStrSysVar
  3
AcMeServices
 90
     1024
280
     0
281
     0
  0
CLASS
  1
AMDTDMMENUSTATE
  2
AmdtDmMenuState
  3
AcMechDwgViewMgmt
 90
     1024
280
     0
281
     0
  0
CLASS
  1
AMDTAMMENUSTATE
  2
AmdtAmMenuState
  3
DesignerAssemblies
 90
     1024
280
     0
281
     0
  0
CLASS
  1
ACAMPROJECT
  2
AcAmProject
  3
DesignerAssemblies
 90
     1024
280
     0
281
     0
  0
CLASS
  1
ACAMGRCOMPDEF
  2
AcAmGrCompDef
  3
DesignerAssemblies
 90
     1024
280
     0
281
     0
  0
CLASS
  1
ACAMCOMPDEF
  2
AcAmCompDef
  3
DesignerAssemblies
 90
     1024
280
     0
281
     0
  0
CLASS
  1
ACAMCOMPDEFMGR
  2
AcAmCompDefMgr
  3
DesignerAssemblies
 90
     1024
280
     0
281
     0
  0
CLASS
  1
AMCONTEXTMGR
  2
AcAmContextMgr
  3
DesignerAssemblies
 90
     1024
280
     0
281
     0
  0
CLASS
  1
ACAMCONTEXTMODELER
  2
AcAmContextModeler
  3
DesignerAssemblies
 90
     1024
280
     0
281
     0
  0
CLASS
  1
ACMDATADICTIONARY
  2
AcmDataDictionary
  3
"AcmSymBB|Product Description: AutoCAD Mechanical|Company: Autodesk, Inc."
 90
     1024
280
     0
281
     0
  0
CLASS
  1
ACAMGRCOMPDEFSET
  2
AcAmGrCompDefSet
  3
DesignerAssemblies
 90
     1024
280
     0
281
     0
  0
CLASS
  1
AMDTBROWSERDBTAB
  2
AmdtBrowserDbTab
  3
McadcomServices
 90
     1024
280
     0
281
     0
  0
CLASS
  1
CBROWSERAPPOBJECT
  2
CBrowserAppObject
  3
McadcomServices
 90
     1024
280
     0
281
     0
  0
CLASS
  1
DM_PLACEHOLDER
  2
AcDmSelsetPlaceholder
  3
AcMechDwgViewMgmt
 90
     1024
280
     0
281
     0
  0
CLASS
  1
EXACXREFPANELOBJECT
  2
ExAcXREFPanelObject
  3
EXAC_ESW
 90
     1025
280
     0
281
     0
  0
CLASS
  1
NPOCOLLECTION
  2
AcDbImpNonPersistentObjectsCollection
  3
ObjectDBX Classes
 90
     1153
280
     0
281
     0
  0
CLASS
  1
ACMSTANDARDISO
  2
AcmStandardISO
  3
"Amdt_StdImp|Product Description: AutoCAD Mechanical|Company: Autodesk, Inc."
 90
     1024
280
     0
281
     0
  0
CLASS
  1
AMDTEDGESTANDARDISO13715
  2
AmdtEdgeStdISO13715
  3
"Amdt_StdImp|Product Description: AutoCAD Mechanical|Company: Autodesk, Inc."
 90
     1024
280
     0
281
     0
  0
CLASS
  1
ACMSURFSTANDARDISO2002
  2
AcmSurfTextStdISO2002
  3
"Amdt_StdImp|Product Description: AutoCAD Mechanical|Company: Autodesk, Inc."
 90
     1024
280
     0
281
     0
  0
CLASS
  1
ACMFCFSTANDARDISO
  2
AcmFCFStdISO
  3
"Amdt_StdImp|Product Description: AutoCAD Mechanical|Company: Autodesk, Inc."
 90
     1024
280
     0
281
     0
  0
CLASS
  1
ACMWELDSTANDARDISO
  2
AcmWeldingStdISO
  3
"Amdt_StdImp|Product Description: AutoCAD Mechanical|Company: Autodesk, Inc."
 90
     1024
280
     0
281
     0
  0
CLASS
  1
ACMIDSTANDARDISO
  2
AcmIdStdISO
  3
"Amdt_StdImp|Product Description: AutoCAD Mechanical|Company: Autodesk, Inc."
 90
     1024
280
     0
281
     0
  0
CLASS
  1
ACMDATUMSTANDARDISO
  2
AcmDatumStdISO
  3
"Amdt_StdImp|Product Description: AutoCAD Mechanical|Company: Autodesk, Inc."
 90
     1024
280
     0
281
     0
  0
CLASS
  1
ACMBOMSTANDARDISO
  2
AcmBOMStdISO
  3
"Amdt_StdImp|Product Description: AutoCAD Mechanical|Company: Autodesk, Inc."
 90
     1024
280
     0
281
     0
  0
CLASS
  1
ACMDETAILSTANDARDISO
  2
AmdtDetailSymStdISO
  3
"Amdt_StdImp|Product Description: AutoCAD Mechanical|Company: Autodesk, Inc."
 90
     1024
280
     0
281
     0
  0
CLASS
  1
ACMSECTIONSTANDARDISO2001
  2
AmdtSectionSymStdISO2001
  3
"Amdt_StdImp|Product Description: AutoCAD Mechanical|Company: Autodesk, Inc."
 90
     1024
280
     0
281
     0
  0
CLASS
  1
ACMCENTERLINESTANDARDISO
  2
AmdtCenterLineStdISO
  3
"Amdt_StdImp|Product Description: AutoCAD Mechanical|Company: Autodesk, Inc."
 90
     1024
280
     0
281
     0
  0
CLASS
  1
ACMTHREADLINESTANDARDISO
  2
AmdtThreadLineStdISO
  3
"Amdt_StdImp|Product Description: AutoCAD Mechanical|Company: Autodesk, Inc."
 90
     1024
280
     0
281
     0
  0
CLASS
  1
ACMNOTESTANDARDISO
  2
AmdtNoteStdISO
  3
"Amdt_StdImp|Product Description: AutoCAD Mechanical|Company: Autodesk, Inc."
 90
     1024
280
     0
281
     0
  0
CLASS
  1
ACMTAPERSTANDARDISO
  2
AcmTaperStdISO
  3
"Amdt_StdImp|Product Description: AutoCAD Mechanical|Company: Autodesk, Inc."
 90
     1024
280
     0
281
     0
  0
CLASS
  1
ACMANOOTATIONVIEWSTANDARDISO
  2
AmdtAnViewStdISO
  3
"Amdt_StdImp|Product Description: AutoCAD Mechanical|Company: Autodesk, Inc."
 90
     1024
280
     0
281
     0
  0
CLASS
  1
ACAMGLAYSTD
  2
AcAmgLayStd
  3
"AmgLay|Product Description: AutoCAD Mechanical|Company: Autodesk, Inc."
 90
     1024
280
     0
281
     0
  0
CLASS
  1
ACAMGDIMSTD
  2
AcAmgDimStd
  3
"AmgDim|Product Description: AutoCAD Mechanical|Company: Autodesk, Inc."
 90
     1024
280
     0
281
     0
  0
CLASS
  1
AMGOBJPROPCFG
  2
AmgObjPropCfg
  3
"AmgLay|Product Description: AutoCAD Mechanical|Company: Autodesk, Inc."
 90
     1025
280
     0
281
     0
  0
CLASS
  1
ACAMGHOLECHARTSTDISO
  2
AcAmgHoleChartStdISO
  3
AmgDim|Product Description: AutoCAD Mechanical|Company: Autodesk, Inc.
 90
     1024
280
     0
281
     0
  0
CLASS
  1
ACAMGTITLESTD
  2
AcAmgTitleStd
  3
"AmgTitle|Product Description: AutoCAD Mechanical|Company: Autodesk, Inc."
 90
     4095
280
     0
281
     0
  0
CLASS
  1
AMDTNOTETEMPLATEDB
  2
AmdtNoteTemplateDB
  3
AcmSymBB|Product Description: AutoCAD Mechanical|Company: Autodesk, Inc.
 90
     1024
280
     0
281
     0
  0
CLASS
  1
ACAMGFILTERDAT
  2
AcAmgFilterDat
  3
"AcadM|Product Description: AutoCAD Mechanical|Company: Autodesk, Inc."
 90
    33792
280
     0
281
     0
  0
CLASS
  1
CAMSSTRUCTBTNSTATE
  2
StructBtnState
  3
DesignerAssemblies
 90
     1024
280
     0
281
     0
  0
CLASS
  1
SORTENTSTABLE
  2
AcDbSortentsTable
  3
ObjectDBX Classes
 90
        0
280
     0
281
     0
  0
CLASS
  1
CELLSTYLEMAP
  2
AcDbCellStyleMap
  3
ObjectDBX Classes
 90
     1152
280
     0
281
     0
  0
CLASS
  1
ACDBPLACEHOLDER
  2
AcDbPlaceHolder
  3
ObjectDBX Classes
 90
        0
280
     0
281
     0
  0
CLASS
  1
LAYOUT
  2
AcDbLayout
  3
ObjectDBX Classes
 90
        0
280
     0
281
     0
  0
ENDSEC
  0
SECTION
  2
TABLES
  0
TABLE
  2
VPORT
  5
8
330
0
100
AcDbSymbolTable
 70
     1
  0
VPORT
  5
57
330
8
100
AcDbSymbolTableRecord
100
AcDbViewportTableRecord
  2
*Active
 70
     0
 10
0.0
 20
0.0
 11
1.0
 21
1.0
 12
-9308.04465708992
 22
-312.3075335859885
 13
0.0
 23
0.0
 14
1.0
 24
1.0
 15
0.0
 25
0.0
 16
0.0
 26
0.0
 36
1.0
 17
0.0
 27
0.0
 37
0.0
 40
2162.763317783565
 41
2.837064676616915
 42
50.0
 43
0.0
 44
0.0
 50
0.0
 51
0.0
 71
     0
 72
   100
 73
     1
 74
     1
 75
     0
 76
     0
 77
     0
 78
     0
281
     0
 65
     0
110
0.0
120
0.0
130
0.0
111
1.0
121
0.0
131
0.0
112
0.0
122
1.0
132
0.0
 79
     0
146
0.0
  0
ENDTAB
  0
TABLE
  2
LTYPE
  5
5
330
0
100
AcDbSymbolTable
 70
    14
  0
LTYPE
  5
5B
330
5
100
AcDbSymbolTableRecord
100
AcDbLinetypeTableRecord
  2
ByBlock
 70
     0
  3

 72
    65
 73
     0
 40
0.0
  0
LTYPE
  5
5C
330
5
100
AcDbSymbolTableRecord
100
AcDbLinetypeTableRecord
  2
ByLayer
 70
     0
  3

 72
    65
 73
     0
 40
0.0
  0
LTYPE
  5
5D
330
5
100
AcDbSymbolTableRecord
100
AcDbLinetypeTableRecord
  2
Continuous
 70
     0
  3
Solid line
 72
    65
 73
     0
 40
0.0
  0
LTYPE
  5
86
330
5
100
AcDbSymbolTableRecord
100
AcDbLinetypeTableRecord
  2
CENTER
 70
     0
  3
Center ____ _ ____ _ ____ _ ____ _ ____ _ ____
 72
    65
 73
     4
 40
50.8
 49
31.75
 74
     0
 49
-6.349999999999998
 74
     0
 49
6.349999999999998
 74
     0
 49
-6.349999999999998
 74
     0
  0
LTYPE
  5
93
330
5
100
AcDbSymbolTableRecord
100
AcDbLinetypeTableRecord
  2
HIDDEN
 70
     0
  3
Hidden __ __ __ __ __ __ __ __ __ __ __ __ __ _
 72
    65
 73
     2
 40
9.524999999999996
 49
6.349999999999998
 74
     0
 49
-3.174999999999998
 74
     0
  0
LTYPE
  5
97
330
5
100
AcDbSymbolTableRecord
100
AcDbLinetypeTableRecord
  2
PHANTOM2
 70
     0
  3
Phantom (.5x) ___ _ _ ___ _ _ ___ _ _ ___ _ _
 72
    65
 73
     6
 40
31.75
 49
15.875
 74
     0
 49
-3.174999999999998
 74
     0
 49
3.174999999999998
 74
     0
 49
-3.174999999999998
 74
     0
 49
3.174999999999998
 74
     0
 49
-3.174999999999998
 74
     0
  0
LTYPE
  5
22E32
330
5
100
AcDbSymbolTableRecord
100
AcDbLinetypeTableRecord
  2
AM_ISO02W050
 70
     0
  3
__ __ __ __ __ __ __ __ __ __ __ __ __ __ __
 72
    65
 73
     2
 40
7.5
 49
6.0
 74
     0
 49
-1.5
 74
     0
  0
LTYPE
  5
22E33
330
5
100
AcDbSymbolTableRecord
100
AcDbLinetypeTableRecord
  2
AM_ISO08W050
 70
     0
  3
____ . ____ . ____ . ____ . ____ . ____ . ____
 72
    65
 73
     4
 40
18.0
 49
12.0
 74
     0
 49
-1.5
 74
     0
 49
3.0
 74
     0
 49
-1.5
 74
     0
  0
LTYPE
  5
22E34
330
5
100
AcDbSymbolTableRecord
100
AcDbLinetypeTableRecord
  2
AM_ISO09W050
 70
     0
  3
_____ . . _____ . . _____ . . ____ .. ____
 72
    65
 73
     6
 40
22.5
 49
12.0
 74
     0
 49
-1.5
 74
     0
 49
3.0
 74
     0
 49
-1.5
 74
     0
 49
3.0
 74
     0
 49
-1.5
 74
     0
  0
LTYPE
  5
22E35
330
5
100
AcDbSymbolTableRecord
100
AcDbLinetypeTableRecord
  2
Amconstr
 70
     0
  3
_______________________
 72
    65
 73
     2
 40
9999.0
 49
9999.0
 74
     0
 49
0.0
 74
     0
  0
LTYPE
  5
22E36
330
5
100
AcDbSymbolTableRecord
100
AcDbLinetypeTableRecord
  2
AM_ISO08W050x2
 70
     0
  3
__ . __ . __ . __ . __ . __
 72
    65
 73
     4
 40
9.0
 49
6.0
 74
     0
 49
-0.75
 74
     0
 49
1.5
 74
     0
 49
-0.75
 74
     0
  0
LTYPE
  5
22E37
330
5
100
AcDbSymbolTableRecord
100
AcDbLinetypeTableRecord
  2
AM_ISO02W050x2
 70
     0
  3
 _ _ _ _ _ _ _ _ _ _ _ _
 72
    65
 73
     2
 40
3.75
 49
3.0
 74
     0
 49
-0.75
 74
     0
  0
LTYPE
  5
22E3A
330
5
100
AcDbSymbolTableRecord
100
AcDbLinetypeTableRecord
  2
Amzigzag
 70
     0
  3
/\/-/\/-/\/-/\/-/\/-/\/
 72
    65
 73
     2
 40
11.0001
 49
0.0001
 74
     4
 75
   136
340
22E39
 46
0.04
 50
0.0
 44
0.0
 45
0.0
 49
-11.0
 74
     0
  0
LTYPE
  5
22E49
330
5
100
AcDbSymbolTableRecord
100
AcDbLinetypeTableRecord
  2
ACISOWELD
 70
     0
  3
_ _ _ _ _
 72
    65
 73
     2
 40
2.0
 49
2.0
 74
     0
 49
-1.0
 74
     0
  0
LTYPE
  5
22E4A
330
5
100
AcDbSymbolTableRecord
100
AcDbLinetypeTableRecord
  2
ACISOTGB
 70
     0
  3
__ . . __ . .
 72
    65
 73
     6
 40
9.0
 49
4.0
 74
     0
 49
-1.0
 74
     0
 49
1.0
 74
     0
 49
-1.0
 74
     0
 49
1.0
 74
     0
 49
-1.0
 74
     0
  0
LTYPE
  5
22E4B
330
5
100
AcDbSymbolTableRecord
100
AcDbLinetypeTableRecord
  2
ACISOTGL
 70
     0
  3
_ _ _ _ _
 72
    65
 73
     2
 40
3.0
 49
2.0
 74
     0
 49
-1.0
 74
     0
  0
ENDTAB
  0
TABLE
  2
LAYER
  5
2
102
{ACAD_XDICTIONARY
360
22E5D
102
}
330
0
100
AcDbSymbolTable
 70
     4
  0
LAYER
  5
54
330
2
100
AcDbSymbolTableRecord
100
AcDbLayerTableRecord
  2
0
 70
     0
 62
     7
  6
Continuous
370
    -3
390
F
  0
LAYER
  5
C4
330
2
100
AcDbSymbolTableRecord
100
AcDbLayerTableRecord
  2
Widoczne (ISO)
 70
     0
 62
     7
  6
Continuous
370
    50
390
F
  0
LAYER
  5
22CA6
330
2
100
AcDbSymbolTableRecord
100
AcDbLayerTableRecord
  2
Defpoints
 70
     0
 62
     7
  6
Continuous
290
     0
370
    -3
390
F
  0
LAYER
  5
2F552B
330
2
100
AcDbSymbolTableRecord
100
AcDbLayerTableRecord
  2
AM_5
 70
     0
 62
     3
  6
Continuous
370
    25
390
F
1001
AcAecLayerStandard
1000

1000

  0
ENDTAB
  0
TABLE
  2
STYLE
  5
3
330
0
100
AcDbSymbolTable
 70
     3
  0
STYLE
  5
55
330
3
100
AcDbSymbolTableRecord
100
AcDbTextStyleTableRecord
  2
Standard
 70
     0
 40
0.0
 41
1.0
 50
0.0
 71
     0
 42
0.2
  3
tahoma.ttf
  4

1001
ACAD
1000
Tahoma
1071
      256
  0
STYLE
  5
22E39
330
3
100
AcDbSymbolTableRecord
100
AcDbTextStyleTableRecord
  2

 70
     1
 40
0.0
 41
1.0
 50
0.0
 71
     0
 42
0.2
  3
genltshp.shx
  4

  0
STYLE
  5
22E48
330
3
100
AcDbSymbolTableRecord
100
AcDbTextStyleTableRecord
  2
ACISOGDT
 70
     0
 40
0.0
 41
1.0
 50
0.0
 71
     0
 42
0.2
  3
amgdt.shx
  4

  0
ENDTAB
  0
TABLE
  2
VIEW
  5
6
330
0
100
AcDbSymbolTable
 70
     0
  0
ENDTAB
  0
TABLE
  2
UCS
  5
7
330
0
100
AcDbSymbolTable
 70
     0
  0
ENDTAB
  0
TABLE
  2
APPID
  5
9
330
0
100
AcDbSymbolTable
 70
    31
  0
APPID
  5
56
330
9
100
AcDbSymbolTableRecord
100
AcDbRegAppTableRecord
  2
ACAD
 70
     0
  0
APPID
  5
5E
330
9
100
AcDbSymbolTableRecord
100
AcDbRegAppTableRecord
  2
AcadAnnotative
 70
     0
  0
APPID
  5
15C
330
9
100
AcDbSymbolTableRecord
100
AcDbRegAppTableRecord
  2
AcadAnnoPO
 70
     0
  0
APPID
  5
22DC8
330
9
100
AcDbSymbolTableRecord
100
AcDbRegAppTableRecord
  2
MCAD_NO_VIS
 70
     0
  0
APPID
  5
22DC9
330
9
100
AcDbSymbolTableRecord
100
AcDbRegAppTableRecord
  2
ACAD_TEMP_GRAPHIC
 70
     0
  0
APPID
  5
22DF4
330
9
100
AcDbSymbolTableRecord
100
AcDbRegAppTableRecord
  2
AD_DRAW
 70
     0
  0
APPID
  5
22DF7
330
9
100
AcDbSymbolTableRecord
100
AcDbRegAppTableRecord
  2
ACATTRIBSERVICES
 70
     0
  0
APPID
  5
22E10
330
9
100
AcDbSymbolTableRecord
100
AcDbRegAppTableRecord
  2
DESIGNERASSEMBLIES
 70
     0
  0
APPID
  5
22E15
330
9
100
AcDbSymbolTableRecord
100
AcDbRegAppTableRecord
  2
ACADM_DIM_EDIT
 70
     0
  0
APPID
  5
22E16
330
9
100
AcDbSymbolTableRecord
100
AcDbRegAppTableRecord
  2
AMDT_DM_ADJ
 70
     0
  0
APPID
  5
22E2F
330
9
100
AcDbSymbolTableRecord
100
AcDbRegAppTableRecord
  2
ACAD_DSTYLE_DIMJAG
 70
     0
  0
APPID
  5
22E30
330
9
100
AcDbSymbolTableRecord
100
AcDbRegAppTableRecord
  2
ACAD_DSTYLE_DIMBREAK
 70
     0
  0
APPID
  5
22E7B
330
9
100
AcDbSymbolTableRecord
100
AcDbRegAppTableRecord
  2
AcAecLayerStandard
 70
     0
  0
APPID
  5
22E98
330
9
100
AcDbSymbolTableRecord
100
AcDbRegAppTableRecord
  2
ACAD_DSTYLE_DIMINSPECT
 70
     0
  0
APPID
  5
22EAE
330
9
100
AcDbSymbolTableRecord
100
AcDbRegAppTableRecord
  2
GENIUS_GENDTOL_13
 70
     0
  0
APPID
  5
22EAF
330
9
100
AcDbSymbolTableRecord
100
AcDbRegAppTableRecord
  2
ACAD_EXEMPT_FROM_CAD_STANDARDS
 70
     0
  0
APPID
  5
22EE2
330
9
100
AcDbSymbolTableRecord
100
AcDbRegAppTableRecord
  2
ACAD_PSEXT
 70
     0
  0
APPID
  5
22EE3
330
9
100
AcDbSymbolTableRecord
100
AcDbRegAppTableRecord
  2
ACAD_NAV_VCDISPLAY
 70
     0
  0
APPID
  5
2D66B
330
9
100
AcDbSymbolTableRecord
100
AcDbRegAppTableRecord
  2
GENIUS_GENODEF_13
 70
     0
  0
APPID
  5
2D66C
330
9
100
AcDbSymbolTableRecord
100
AcDbRegAppTableRecord
  2
GENIUS_GENOBJ-N-FIL_13
 70
     0
  0
APPID
  5
7909A
330
9
100
AcDbSymbolTableRecord
100
AcDbRegAppTableRecord
  2
GENIUS_GENOBJ-N-HTC_13
 70
     0
  0
APPID
  5
7909B
330
9
100
AcDbSymbolTableRecord
100
AcDbRegAppTableRecord
  2
GENIUS_GENHATCH_13
 70
     0
  0
APPID
  5
79290
330
9
100
AcDbSymbolTableRecord
100
AcDbRegAppTableRecord
  2
GRADIENTCOLOR1ACI
 70
     0
  0
APPID
  5
79291
330
9
100
AcDbSymbolTableRecord
100
AcDbRegAppTableRecord
  2
GRADIENTCOLOR2ACI
 70
     0
  0
APPID
  5
CEBC3
330
9
100
AcDbSymbolTableRecord
100
AcDbRegAppTableRecord
  2
GENIUS_GENREC_14
 70
     0
  0
APPID
  5
CEBC4
330
9
100
AcDbSymbolTableRecord
100
AcDbRegAppTableRecord
  2
GENIUS_GENOBJ-N-REC_13
 70
     0
  0
APPID
  5
2ECC81
330
9
100
AcDbSymbolTableRecord
100
AcDbRegAppTableRecord
  2
ACAD_MLEADERVER
 70
     0
  0
APPID
  5
2ECC87
330
9
100
AcDbSymbolTableRecord
100
AcDbRegAppTableRecord
  2
ACAD_DSTYLE_DIMARC_LENGTH_SYMBOL
 70
     0
  0
APPID
  5
2ECC88
330
9
100
AcDbSymbolTableRecord
100
AcDbRegAppTableRecord
  2
ACAD_DSTYLE_DIM_LINETYPE
 70
     0
  0
APPID
  5
2ECC89
330
9
100
AcDbSymbolTableRecord
100
AcDbRegAppTableRecord
  2
ACAD_DSTYLE_DIM_EXT1_LINETYPE
 70
     0
  0
APPID
  5
2ECC8A
330
9
100
AcDbSymbolTableRecord
100
AcDbRegAppTableRecord
  2
ACAD_DSTYLE_DIM_EXT2_LINETYPE
 70
     0
  0
ENDTAB
  0
TABLE
  2
DIMSTYLE
  5
A
330
0
100
AcDbSymbolTable
 70
     8
100
AcDbDimStyleTable
 71
     1
340
58
  0
DIMSTYLE
105
58
330
A
100
AcDbSymbolTableRecord
100
AcDbDimStyleTableRecord
  2
Standard
 70
     0
340
55
  0
DIMSTYLE
105
22E2E
102
{ACAD_REACTORS
330
2ECCE3
102
}
330
A
100
AcDbSymbolTableRecord
100
AcDbDimStyleTableRecord
  2
AM_ISO
 70
     0
  4
"
 41
3.5
 42
1.0
 43
10.0
 44
1.0
 47
0.1
 48
0.1
 73
     0
 74
     0
 77
     1
 78
     8
 79
     2
140
3.5
141
0.0
143
0.0393701
146
0.71
147
1.5
172
     1
176
   256
177
   256
178
     2
271
     2
272
     3
274
     4
283
     0
284
     8
340
55
371
    -1
372
    -1
1001
ACAD_DSTYLE_DIMJAG
1070
   388
1040
1.5
1001
ACAD_DSTYLE_DIMBREAK
1070
   391
1040
3.75
1001
ACAD_DSTYLE_DIMARC_LENGTH_SYMBOL
1070
   379
1070
     1
1001
ACAD_DSTYLE_DIM_LINETYPE
1070
   380
1005
5B
1001
ACAD_DSTYLE_DIM_EXT1_LINETYPE
1070
   381
1005
5B
1001
ACAD_DSTYLE_DIM_EXT2_LINETYPE
1070
   382
1005
5B
  0
DIMSTYLE
105
22E3B
330
A
100
AcDbSymbolTableRecord
100
AcDbDimStyleTableRecord
  2
AM_ISO$3
 70
     0
  4
"
 41
3.5
 42
1.0
 43
10.0
 44
1.0
 47
0.1
 48
0.1
 73
     0
 77
     1
 78
     8
 79
     2
140
3.5
141
0.0
143
0.0393701
146
0.71
147
1.5
176
   256
177
   256
178
     2
271
     2
272
     3
274
     4
283
     0
284
     8
288
     1
289
     0
340
55
371
    -1
372
    -1
1001
ACAD_DSTYLE_DIMBREAK
1070
   391
1040
3.75
1001
ACAD_DSTYLE_DIMJAG
1070
   388
1040
1.5
1001
ACAD_DSTYLE_DIMARC_LENGTH_SYMBOL
1070
   379
1070
     1
1001
ACAD_DSTYLE_DIM_LINETYPE
1070
   380
1005
5B
1001
ACAD_DSTYLE_DIM_EXT1_LINETYPE
1070
   381
1005
5B
1001
ACAD_DSTYLE_DIM_EXT2_LINETYPE
1070
   382
1005
5B
  0
DIMSTYLE
105
22E3C
330
A
100
AcDbSymbolTableRecord
100
AcDbDimStyleTableRecord
  2
AM_ISO$4
 70
     0
  4
"
 41
3.5
 42
1.0
 43
10.0
 44
1.0
 47
0.1
 48
0.1
 73
     0
 77
     1
 78
     8
 79
     2
140
3.5
141
0.0
143
0.0393701
146
0.71
147
1.5
176
   256
177
   256
178
     2
271
     2
272
     3
274
     4
283
     0
284
     8
288
     1
289
     0
340
55
371
    -1
372
    -1
1001
ACAD_DSTYLE_DIMBREAK
1070
   391
1040
3.75
1001
ACAD_DSTYLE_DIMJAG
1070
   388
1040
1.5
1001
ACAD_DSTYLE_DIMARC_LENGTH_SYMBOL
1070
   379
1070
     1
1001
ACAD_DSTYLE_DIM_LINETYPE
1070
   380
1005
5B
1001
ACAD_DSTYLE_DIM_EXT1_LINETYPE
1070
   381
1005
5B
1001
ACAD_DSTYLE_DIM_EXT2_LINETYPE
1070
   382
1005
5B
  0
DIMSTYLE
105
22E3D
330
A
100
AcDbSymbolTableRecord
100
AcDbDimStyleTableRecord
  2
AM_ISO$6
 70
     0
  4
"
 41
3.5
 42
1.0
 43
10.0
 44
1.0
 47
0.1
 48
0.1
 73
     0
 74
     0
 78
     8
 79
     2
140
3.5
141
0.0
143
0.0393701
146
0.71
147
1.5
172
     1
176
   256
177
   256
178
     2
271
     2
272
     3
274
     4
283
     0
284
     8
340
55
371
    -1
372
    -1
1001
ACAD_DSTYLE_DIMBREAK
1070
   391
1040
3.75
1001
ACAD_DSTYLE_DIMJAG
1070
   388
1040
1.5
1001
ACAD_DSTYLE_DIMARC_LENGTH_SYMBOL
1070
   379
1070
     1
1001
ACAD_DSTYLE_DIM_LINETYPE
1070
   380
1005
5B
1001
ACAD_DSTYLE_DIM_EXT1_LINETYPE
1070
   381
1005
5B
1001
ACAD_DSTYLE_DIM_EXT2_LINETYPE
1070
   382
1005
5B
  0
DIMSTYLE
105
22E3E
330
A
100
AcDbSymbolTableRecord
100
AcDbDimStyleTableRecord
  2
AM_ISO$7
 70
     0
  4
"
 41
3.5
 42
1.0
 43
10.0
 44
1.0
 47
0.1
 48
0.1
 73
     0
 74
     0
 77
     1
 78
     8
 79
     2
140
3.5
141
0.0
143
0.0393701
146
0.71
147
1.5
172
     1
176
   256
177
   256
178
     2
271
     2
272
     3
274
     4
283
     0
284
     8
340
55
371
    -1
372
    -1
1001
ACAD_DSTYLE_DIMBREAK
1070
   391
1040
3.75
1001
ACAD_DSTYLE_DIMJAG
1070
   388
1040
1.5
1001
ACAD_DSTYLE_DIMARC_LENGTH_SYMBOL
1070
   379
1070
     1
1001
ACAD_DSTYLE_DIM_LINETYPE
1070
   380
1005
5B
1001
ACAD_DSTYLE_DIM_EXT1_LINETYPE
1070
   381
1005
5B
1001
ACAD_DSTYLE_DIM_EXT2_LINETYPE
1070
   382
1005
5B
  0
DIMSTYLE
105
22E3F
330
A
100
AcDbSymbolTableRecord
100
AcDbDimStyleTableRecord
  2
AM_ISO$SF
 70
     0
  4
"
 41
3.5
 42
1.0
 43
10.0
 44
1.0
 47
0.1
 48
0.1
 73
     0
 74
     0
 75
     1
 76
     1
 77
     1
 78
     8
 79
     2
140
3.5
141
0.0
143
0.0393701
146
0.71
147
1.5
172
     1
176
   256
177
   256
178
     2
271
     2
272
     3
274
     4
283
     0
284
     8
340
55
371
    -1
372
    -1
1001
ACAD_DSTYLE_DIMBREAK
1070
   391
1040
3.75
1001
ACAD_DSTYLE_DIMJAG
1070
   388
1040
1.5
1001
ACAD_DSTYLE_DIMARC_LENGTH_SYMBOL
1070
   379
1070
     1
1001
ACAD_DSTYLE_DIM_LINETYPE
1070
   380
1005
5B
1001
ACAD_DSTYLE_DIM_EXT1_LINETYPE
1070
   381
1005
5B
1001
ACAD_DSTYLE_DIM_EXT2_LINETYPE
1070
   382
1005
5B
  0
DIMSTYLE
105
22E44
330
A
100
AcDbSymbolTableRecord
100
AcDbDimStyleTableRecord
  2
AM_ISO$SH
 70
     0
  4
"
 41
3.5
 42
1.0
 43
10.0
 44
1.0
 47
0.1
 48
0.1
 73
     0
 74
     0
 75
     1
 76
     1
 77
     1
 78
     8
 79
     2
140
3.5
141
0.0
143
0.0393701
144
2.0
146
0.71
147
1.5
172
     1
173
     1
176
   256
177
   256
178
     2
271
     2
272
     3
274
     4
283
     0
284
     8
340
55
343
22E40
371
    -1
372
    -1
1001
ACAD_DSTYLE_DIMBREAK
1070
   391
1040
3.75
1001
ACAD_DSTYLE_DIMJAG
1070
   388
1040
1.5
1001
ACAD_DSTYLE_DIMARC_LENGTH_SYMBOL
1070
   379
1070
     1
1001
ACAD_DSTYLE_DIM_LINETYPE
1070
   380
1005
5B
1001
ACAD_DSTYLE_DIM_EXT1_LINETYPE
1070
   381
1005
5B
1001
ACAD_DSTYLE_DIM_EXT2_LINETYPE
1070
   382
1005
5B
  0
ENDTAB
  0
TABLE
  2
BLOCK_RECORD
  5
1
330
0
100
AcDbSymbolTable
 70
     4
  0
BLOCK_RECORD
  5
6C
102
{ACAD_XDICTIONARY
360
2D669
102
}
330
1
100
AcDbSymbolTableRecord
100
AcDbBlockTableRecord
  2
*Model_Space
340
6F
  0
BLOCK_RECORD
  5
68
330
1
100
AcDbSymbolTableRecord
100
AcDbBlockTableRecord
  2
*Paper_Space
340
6B
  0
BLOCK_RECORD
  5
70
330
1
100
AcDbSymbolTableRecord
100
AcDbBlockTableRecord
  2
*Paper_Space0
340
73
  0
BLOCK_RECORD
  5
22E40
330
1
100
AcDbSymbolTableRecord
100
AcDbBlockTableRecord
  2
GENAXEH
340
0
  0
BLOCK_RECORD
  5
2F4560
102
{ACAD_XDICTIONARY
360
2F4561
102
}
330
1
100
AcDbSymbolTableRecord
100
AcDbBlockTableRecord
  2
gggr
340
0
310
2800000020000000200000000100080000000000000400000000000000000000000000000000000000000000000080000080000000808000800000008000800080800000C0C0C000C0DCC000F0CAA6000020400000206000002080000020A0000020C0000020E00000400000004020000040400000406000004080000040A0
310
000040C0000040E00000600000006020000060400000606000006080000060A0000060C0000060E00000800000008020000080400000806000008080000080A0000080C0000080E00000A0000000A0200000A0400000A0600000A0800000A0A00000A0C00000A0E00000C0000000C0200000C0400000C0600000C0800000C0
310
A00000C0C00000C0E00000E0000000E0200000E0400000E0600000E0800000E0A00000E0C00000E0E00040000000400020004000400040006000400080004000A0004000C0004000E00040200000402020004020400040206000402080004020A0004020C0004020E000404000004040200040404000404060004040800040
310
40A0004040C0004040E00040600000406020004060400040606000406080004060A0004060C0004060E00040800000408020004080400040806000408080004080A0004080C0004080E00040A0000040A0200040A0400040A0600040A0800040A0A00040A0C00040A0E00040C0000040C0200040C0400040C0600040C08000
310
40C0A00040C0C00040C0E00040E0000040E0200040E0400040E0600040E0800040E0A00040E0C00040E0E00080000000800020008000400080006000800080008000A0008000C0008000E00080200000802020008020400080206000802080008020A0008020C0008020E00080400000804020008040400080406000804080
310
008040A0008040C0008040E00080600000806020008060400080606000806080008060A0008060C0008060E00080800000808020008080400080806000808080008080A0008080C0008080E00080A0000080A0200080A0400080A0600080A0800080A0A00080A0C00080A0E00080C0000080C0200080C0400080C0600080C0
310
800080C0A00080C0C00080C0E00080E0000080E0200080E0400080E0600080E0800080E0A00080E0C00080E0E000C0000000C0002000C0004000C0006000C0008000C000A000C000C000C000E000C0200000C0202000C0204000C0206000C0208000C020A000C020C000C020E000C0400000C0402000C0404000C0406000C0
310
408000C040A000C040C000C040E000C0600000C0602000C0604000C0606000C0608000C060A000C060C000C060E000C0800000C0802000C0804000C0806000C0808000C080A000C080C000C080E000C0A00000C0A02000C0A04000C0A06000C0A08000C0A0A000C0A0C000C0A0E000C0C00000C0C02000C0C04000C0C06000
310
C0C08000C0C0A000F0FBFF00A4A0A000808080000000FF0000FF000000FFFF00FF000000FF00FF00FFFF0000FFFFFF0049494949494949494949494949494949494949494949494949494949494949494949494949494949494949494949494949494949494949494949494949494949494949494949494949494949494949
310
49494949494949494949494949494949494949494949494949494949494949494949494949494949494949494949494949494949494949494949494949494949494949494949494949494949494949494949494949494949494949494949494949494949494949494949494949494949494949494949494949494949494949
310
49494949494949494949494949494949494949494949494949494949494949494949494949494949494949494949494949494949494949494949494949494949494949494949494949494949494949494949494949494949494949494949494949494949494949494949494949494949494949494949494949494949494949
310
49494949494949494949494949494949494949494949494949494949494949494949494949494949494949494949494949494949FEFEFEFEF9FEFEFEFEFEFEFEFEFEFEFEFEFEFEFEFEFEFEFEFEF9FEFEFEFE4949FE494949F94949494949494949494949494949494949494949F9494949FE4949FE494949F9494949494949
310
4949494949494949494949494949F9494949FE4949FE494949F94949494949494949494949494949494949494949F9494949FE4949FE494949F94949494949494949494949494949494949494949F9494949FE4949FE494949F94949494949494949494949494949494949494949F9494949FE4949FE494949F94949494949
310
494949494949494949494949494949F9494949FE4949FEFEFEFEF9FEFEFEFEFEFEFEFEFEFEFEFEFEFEFEFEFEFEFEFEF9FEFEFEFE494949494949494949494949494949494949494949494949494949494949494949494949494949494949494949494949494949494949494949494949494949494949494949494949494949
310
49494949494949494949494949494949494949494949494949494949494949494949494949494949494949494949494949494949494949494949494949494949494949494949494949494949494949494949494949494949494949494949494949494949494949494949494949494949494949494949494949494949494949
310
49494949494949494949494949494949494949494949494949494949494949494949494949494949494949494949494949494949494949494949494949494949494949494949494949494949494949494949494949494949494949494949494949494949494949494949494949494949494949494949494949494949494949
310
4949494949494949494949494949494949494949494949494949494949494949494949494949494949494949494949494949494949494949
102
{BLKREFS
331
2F533E
331
2F533F
331
2F5340
331
2F5341
331
2F5342
331
2F5343
331
2F5344
331
2F5345
331
2F5346
331
2F5347
331
2F5348
331
2F5349
331
2F534A
331
2F534B
331
2F534C
331
2F534D
331
2F534E
331
2F534F
331
2F5350
331
2F5351
331
2F5352
331
2F5353
331
2F5354
331
2F5355
331
2F5356
331
2F5357
331
2F5358
331
2F5359
331
2F535A
331
2F535B
331
2F535C
331
2F535D
331
2F535E
331
2F535F
331
2F5360
331
2F5361
331
2F5362
331
2F5363
331
2F5364
331
2F5365
331
2F5366
331
2F5367
331
2F5368
331
2F5369
331
2F536A
331
2F536B
331
2F536C
331
2F536D
331
2F536E
331
2F536F
331
2F5370
331
2F5371
331
2F5372
331
2F5373
331
2F5374
331
2F5375
331
2F5376
331
2F5377
331
2F5378
331
2F5379
331
2F537A
331
2F537B
331
2F537C
331
2F537D
331
2F537E
331
2F537F
331
2F5380
331
2F5381
331
2F5382
331
2F5383
331
2F5384
331
2F5385
331
2F5386
331
2F5387
331
2F5388
331
2F5389
331
2F538A
331
2F538B
331
2F538C
331
2F538D
331
2F538E
331
2F538F
331
2F5390
331
2F5391
331
2F5392
331
2F5393
331
2F5394
331
2F5395
331
2F5396
331
2F5397
331
2F5398
331
2F5399
331
2F539A
331
2F539B
331
2F539C
331
2F539D
331
2F539E
331
2F539F
331
2F53A0
331
2F53A1
331
2F53A2
331
2F53A3
331
2F53A4
331
2F53A5
331
2F53A6
331
2F53A7
331
2F53A8
331
2F53A9
331
2F53AA
331
2F53AB
331
2F53AC
331
2F53AD
331
2F53AE
331
2F53AF
331
2F53B0
331
2F53B1
331
2F53B2
331
2F53B3
331
2F53B4
331
2F53B5
331
2F53B6
331
2F53B7
331
2F53B8
331
2F53B9
331
2F53BA
331
2F53BB
331
2F53BC
331
2F53BD
331
2F53BE
331
2F53BF
331
2F53C0
331
2F53C1
331
2F53C2
331
2F53C3
331
2F53C4
331
2F53C5
331
2F53C6
331
2F53C7
331
2F53C8
331
2F53C9
331
2F53CA
331
2F53CB
331
2F53CC
331
2F53CD
331
2F53CE
331
2F53CF
331
2F53D0
331
2F53D1
331
2F53D2
331
2F53D3
331
2F53D4
331
2F53D5
331
2F53D6
331
2F53D7
331
2F53D8
331
2F53D9
331
2F53DA
331
2F53DB
331
2F53DC
331
2F53DD
331
2F53DE
331
2F53DF
331
2F53E0
331
2F53E1
331
2F53E2
331
2F53E3
331
2F53E4
331
2F53E5
331
2F53E6
331
2F53E7
331
2F53E8
331
2F53E9
331
2F53EA
331
2F53EB
331
2F53EC
331
2F53ED
331
2F53EE
331
2F53EF
331
2F53F0
331
2F53F1
331
2F53F2
331
2F53F3
331
2F53F4
331
2F53F5
331
2F53F6
331
2F53F7
331
2F53F8
331
2F53F9
331
2F53FA
331
2F53FB
331
2F53FC
331
2F53FD
331
2F53FE
331
2F53FF
331
2F5400
331
2F5401
331
2F5402
331
2F5403
331
2F5404
331
2F5405
331
2F5406
331
2F5407
331
2F5408
331
2F5409
331
2F540A
331
2F540B
331
2F540C
331
2F540D
331
2F540E
331
2F540F
331
2F5410
331
2F5411
331
2F5412
331
2F5413
331
2F5414
331
2F5415
331
2F5416
331
2F5417
331
2F5418
331
2F5419
331
2F541A
331
2F541B
331
2F541C
331
2F541D
331
2F541E
331
2F541F
331
2F5420
331
2F5421
331
2F5422
331
2F5423
331
2F5424
331
2F5425
331
2F5426
331
2F5427
331
2F5428
331
2F5429
331
2F542A
331
2F542B
331
2F542C
331
2F542D
331
2F542E
331
2F542F
331
2F5430
331
2F5431
331
2F5432
331
2F5433
331
2F5434
331
2F5435
331
2F5436
331
2F5437
331
2F5438
331
2F5439
331
2F543A
331
2F543B
331
2F543C
331
2F543D
331
2F543E
331
2F543F
331
2F5440
331
2F5441
331
2F5442
331
2F5443
331
2F5444
331
2F5445
331
2F5446
331
2F5447
331
2F5448
331
2F5449
331
2F544A
331
2F544B
331
2F544C
331
2F544D
331
2F544E
331
2F544F
331
2F5450
331
2F5451
331
2F5452
331
2F5453
331
2F5454
331
2F5455
331
2F5456
331
2F5457
331
2F5458
331
2F5459
331
2F545A
331
2F545B
331
2F545C
331
2F545D
331
2F545E
331
2F545F
331
2F5460
331
2F5461
331
2F5462
331
2F5463
331
2F5464
331
2F5465
331
2F5466
331
2F5467
331
2F5468
331
2F5469
331
2F546A
331
2F546B
331
2F546C
331
2F546D
331
2F546E
331
2F546F
331
2F5470
331
2F5471
331
2F5472
331
2F5473
331
2F5474
331
2F5475
331
2F5476
331
2F5477
331
2F5478
331
2F5479
331
2F547A
331
2F547B
331
2F547C
331
2F547D
331
2F547E
331
2F547F
331
2F5480
331
2F5481
331
2F5482
331
2F5483
331
2F5484
331
2F5485
331
2F5486
331
2F5487
331
2F5488
331
2F5489
331
2F548A
331
2F548B
331
2F548C
331
2F548D
331
2F548E
331
2F548F
331
2F5490
331
2F5491
331
2F5492
331
2F5493
331
2F5494
331
2F5495
331
2F5496
331
2F5497
331
2F5498
331
2F5499
331
2F549A
331
2F549B
331
2F549C
331
2F549D
331
2F549E
331
2F549F
331
2F54A0
331
2F54A1
331
2F54A2
331
2F54A3
331
2F54A4
331
2F54A5
331
2F54A6
331
2F54A7
331
2F54A8
331
2F54A9
331
2F54AA
331
2F54AB
331
2F54AC
331
2F54AD
331
2F54AE
331
2F54AF
331
2F54B0
331
2F54B1
331
2F54B2
331
2F54B3
331
2F54B4
331
2F54B5
331
2F54B6
331
2F54B7
331
2F54B8
331
2F54B9
331
2F54BA
331
2F54BB
331
2F54BC
331
2F54C1
331
2F54C2
331
2F54C3
331
2F54C4
331
2F54C5
331
2F54C6
331
2F54C7
331
2F54D0
331
2F54D1
331
2F54D2
331
2F54D3
331
2F54D4
331
2F54D5
331
2F54D6
331
2F54D7
331
2F54D8
331
2F54D9
331
2F54DA
331
2F54DB
331
2F54DC
331
2F54DD
331
2F54DE
331
2F54E2
331
2F54E3
331
2F54E4
331
2F54E5
331
2F54E6
331
2F54E7
331
2F54E8
331
2F54E9
331
2F54EA
331
2F54EB
331
2F54EC
331
2F54ED
331
2F54EE
331
2F54EF
331
2F54F0
331
2F54F1
331
2F54F2
331
2F54F3
331
2F54F4
331
2F54F5
331
2F54F6
331
2F54F7
331
2F54F8
331
2F54F9
102
}
1001
ACAD
1000
DesignCenter Data
1002
{
1070
     1
1070
     4
1002
}
  0
ENDTAB
  0
ENDSEC
  0
SECTION
  2
BLOCKS
  0
BLOCK
  5
6D
330
6C
100
AcDbEntity
  8
0
100
AcDbBlockBegin
  2
*Model_Space
 70
     0
 10
0.0
 20
0.0
 30
0.0
  3
*Model_Space
  1

  0
ENDBLK
  5
6E
330
6C
100
AcDbEntity
  8
0
100
AcDbBlockEnd
  0
BLOCK
  5
69
330
68
100
AcDbEntity
 67
     1
  8
0
100
AcDbBlockBegin
  2
*Paper_Space
 70
     0
 10
0.0
 20
0.0
 30
0.0
  3
*Paper_Space
  1

  0
ENDBLK
  5
6A
330
68
100
AcDbEntity
 67
     1
  8
0
100
AcDbBlockEnd
  0
BLOCK
  5
71
330
70
100
AcDbEntity
 67
     1
  8
0
100
AcDbBlockBegin
  2
*Paper_Space0
 70
     0
 10
0.0
 20
0.0
 30
0.0
  3
*Paper_Space0
  1

  0
ENDBLK
  5
72
330
70
100
AcDbEntity
 67
     1
  8
0
100
AcDbBlockEnd
  0
BLOCK
  5
22E42
330
22E40
100
AcDbEntity
  8
0
100
AcDbBlockBegin
  2
GENAXEH
 70
     0
 10
0.0
 20
0.0
 30
0.0
  3
GENAXEH
  1

  0
LINE
  5
22E41
330
22E40
100
AcDbEntity
  8
0
100
AcDbLine
 10
-1.0
 20
0.0
 30
0.0
 11
1.0
 21
0.0
 31
0.0
  0
ENDBLK
  5
22E43
330
22E40
100
AcDbEntity
  8
0
100
AcDbBlockEnd
  0
BLOCK
  5
2F4563
330
2F4560
100
AcDbEntity
  8
0
 62
     4
100
AcDbBlockBegin
  2
gggr
 70
     0
 10
0.0
 20
0.0
 30
0.0
  3
gggr
  1

  0
LINE
  5
2F4564
330
2F4560
100
AcDbEntity
  8
0
 62
     4
100
AcDbLine
 10
17916.25157304843
 20
957.0037572179572
 30
0.0
 11
18007.25157304843
 21
957.0037572179572
 31
0.0
  0
LINE
  5
2F4565
330
2F4560
100
AcDbEntity
  8
0
 62
     4
100
AcDbLine
 10
18007.25157304843
 20
957.0037572179572
 30
0.0
 11
18007.25157304843
 21
932.0037572179572
 31
0.0
  0
LINE
  5
2F4566
330
2F4560
100
AcDbEntity
  8
0
 62
     4
100
AcDbLine
 10
18007.25157304843
 20
932.0037572179572
 30
0.0
 11
17916.25157304843
 21
932.0037572179572
 31
0.0
  0
LINE
  5
2F4567
330
2F4560
100
AcDbEntity
  8
0
 62
     4
100
AcDbLine
 10
17916.25157304843
 20
932.0037572179572
 30
0.0
 11
17916.25157304843
 21
957.0037572179572
 31
0.0
  0
ENDBLK
  5
2F4568
330
2F4560
100
AcDbEntity
  8
0
 62
     4
100
AcDbBlockEnd
  0
ENDSEC
  0
SECTION
  2
ENTITIES
  0
LINE
  5
2EC8EC
330
6C
100
AcDbEntity
  8
0
  6
ACISOTGB
 62
     6
 48
25.0
100
AcDbLine
 10
-12893.89034599063
 20
-33.04046072047777
 30
0.0
 11
-12893.89034599063
 21
-1233.040460720478
 31
0.0
  0
LINE
  5
2EC8EE
330
6C
100
AcDbEntity
  8
0
  6
ACISOTGB
 62
     6
 48
25.0
100
AcDbLine
 10
-10893.89034599063
 20
1966.959539279523
 30
0.0
 11
-9693.890345990759
 21
1966.959539279523
 31
0.0
  0
LINE
  5
2EC8EF
330
6C
100
AcDbEntity
  8
0
  6
ACISOTGB
 62
     6
 48
25.0
100
AcDbLine
 10
-9693.890345990759
 20
-3233.040460720478
 30
0.0
 11
-10893.89034599063
 21
-3233.040460720478
 31
0.0
  0
LINE
  5
2EC8F1
330
6C
100
AcDbEntity
  8
0
  6
ACISOTGB
 62
     6
 48
25.0
100
AcDbLine
 10
-7693.890345990759
 20
-1233.040460720478
 30
0.0
 11
-7693.890345990758
 21
-33.04046072047868
 31
0.0
  0
LINE
  5
2ECCFE
330
6C
100
AcDbEntity
  8
Widoczne (ISO)
 62
     2
100
AcDbLine
 10
-9724.390345990759
 20
257.4595392795231
 30
0.0
 11
-9740.390345990759
 21
257.4595392795231
 31
0.0
  0
LINE
  5
2ECCFF
330
6C
100
AcDbEntity
  8
Widoczne (ISO)
 62
     2
100
AcDbLine
 10
-9740.390345990759
 20
256.9595392795231
 30
0.0
 11
-9740.390345990759
 21
257.4595392795231
 31
0.0
  0
LINE
  5
2ECD00
330
6C
100
AcDbEntity
  8
Widoczne (ISO)
 62
     2
100
AcDbLine
 10
-9724.390345990759
 20
256.9595392795231
 30
0.0
 11
-9724.390345990759
 21
257.4595392795231
 31
0.0
  0
ARC
  5
2ECD01
330
6C
100
AcDbEntity
  8
Widoczne (ISO)
 62
     2
100
AcDbCircle
 10
-9732.390345990758
 20
248.2928726128564
 30
0.0
 40
12.16666666666665
100
AcDbArc
 50
48.88790956099226
 51
131.1120904390077
  0
LINE
  5
2ECD02
330
6C
100
AcDbEntity
  8
Widoczne (ISO)
 62
     2
100
AcDbLine
 10
-9954.390345990759
 20
257.4595392795231
 30
0.0
 11
-9970.390345990757
 21
257.4595392795231
 31
0.0
  0
LINE
  5
2ECD03
330
6C
100
AcDbEntity
  8
Widoczne (ISO)
 62
     2
100
AcDbLine
 10
-9970.390345990757
 20
256.9595392795231
 30
0.0
 11
-9970.390345990757
 21
257.4595392795231
 31
0.0
  0
LINE
  5
2ECD04
330
6C
100
AcDbEntity
  8
Widoczne (ISO)
 62
     2
100
AcDbLine
 10
-9954.390345990759
 20
256.9595392795231
 30
0.0
 11
-9954.390345990759
 21
257.4595392795231
 31
0.0
  0
ARC
  5
2ECD05
330
6C
100
AcDbEntity
  8
Widoczne (ISO)
 62
     2
100
AcDbCircle
 10
-9962.390345990758
 20
248.2928726128564
 30
0.0
 40
12.16666666666665
100
AcDbArc
 50
48.88790956099226
 51
131.1120904390077
  0
LINE
  5
2ECD06
330
6C
100
AcDbEntity
  8
Widoczne (ISO)
 62
     2
100
AcDbLine
 10
-10184.39034599076
 20
257.4595392795231
 30
0.0
 11
-10200.39034599075
 21
257.4595392795231
 31
0.0
  0
LINE
  5
2ECD07
330
6C
100
AcDbEntity
  8
Widoczne (ISO)
 62
     2
100
AcDbLine
 10
-10200.39034599075
 20
256.9595392795231
 30
0.0
 11
-10200.39034599075
 21
257.4595392795231
 31
0.0
  0
LINE
  5
2ECD08
330
6C
100
AcDbEntity
  8
Widoczne (ISO)
 62
     2
100
AcDbLine
 10
-10184.39034599076
 20
256.9595392795231
 30
0.0
 11
-10184.39034599076
 21
257.4595392795231
 31
0.0
  0
ARC
  5
2ECD09
330
6C
100
AcDbEntity
  8
Widoczne (ISO)
 62
     2
100
AcDbCircle
 10
-10192.39034599076
 20
248.2928726128564
 30
0.0
 40
12.16666666666665
100
AcDbArc
 50
48.88790956099226
 51
131.1120904390077
  0
LINE
  5
2ECD0A
330
6C
100
AcDbEntity
  8
Widoczne (ISO)
 62
     2
100
AcDbLine
 10
-10414.39034599076
 20
257.4595392795231
 30
0.0
 11
-10430.39034599076
 21
257.4595392795231
 31
0.0
  0
LINE
  5
2ECD0B
330
6C
100
AcDbEntity
  8
Widoczne (ISO)
 62
     2
100
AcDbLine
 10
-10430.39034599076
 20
256.9595392795231
 30
0.0
 11
-10430.39034599076
 21
257.4595392795231
 31
0.0
  0
LINE
  5
2ECD0C
330
6C
100
AcDbEntity
  8
Widoczne (ISO)
 62
     2
100
AcDbLine
 10
-10414.39034599076
 20
256.9595392795231
 30
0.0
 11
-10414.39034599076
 21
257.4595392795231
 31
0.0
  0
ARC
  5
2ECD0D
330
6C
100
AcDbEntity
  8
Widoczne (ISO)
 62
     2
100
AcDbCircle
 10
-10422.39034599075
 20
248.2928726128564
 30
0.0
 40
12.16666666666665
100
AcDbArc
 50
48.88790956099226
 51
131.1120904390077
  0
LINE
  5
2ECD0E
330
6C
100
AcDbEntity
  8
Widoczne (ISO)
 62
     2
100
AcDbLine
 10
-10644.39034599075
 20
257.4595392795231
 30
0.0
 11
-10660.39034599076
 21
257.4595392795231
 31
0.0
  0
LINE
  5
2ECD0F
330
6C
100
AcDbEntity
  8
Widoczne (ISO)
 62
     2
100
AcDbLine
 10
-10660.39034599076
 20
256.9595392795231
 30
0.0
 11
-10660.39034599076
 21
257.4595392795231
 31
0.0
  0
LINE
  5
2ECD10
330
6C
100
AcDbEntity
  8
Widoczne (ISO)
 62
     2
100
AcDbLine
 10
-10644.39034599075
 20
256.9595392795231
 30
0.0
 11
-10644.39034599075
 21
257.4595392795231
 31
0.0
  0
ARC
  5
2ECD11
330
6C
100
AcDbEntity
  8
Widoczne (ISO)
 62
     2
100
AcDbCircle
 10
-10652.39034599076
 20
248.2928726128564
 30
0.0
 40
12.16666666666665
100
AcDbArc
 50
48.88790956099226
 51
131.1120904390077
  0
LINE
  5
2ECD12
330
6C
100
AcDbEntity
  8
Widoczne (ISO)
 62
     2
100
AcDbLine
 10
-10874.39034599076
 20
257.4595392795231
 30
0.0
 11
-10890.39034599076
 21
257.4595392795231
 31
0.0
  0
LINE
  5
2ECD13
330
6C
100
AcDbEntity
  8
Widoczne (ISO)
 62
     2
100
AcDbLine
 10
-10890.39034599076
 20
256.9595392795231
 30
0.0
 11
-10890.39034599076
 21
257.4595392795231
 31
0.0
  0
LINE
  5
2ECD14
330
6C
100
AcDbEntity
  8
Widoczne (ISO)
 62
     2
100
AcDbLine
 10
-10874.39034599076
 20
256.9595392795231
 30
0.0
 11
-10874.39034599076
 21
257.4595392795231
 31
0.0
  0
ARC
  5
2ECD15
330
6C
100
AcDbEntity
  8
Widoczne (ISO)
 62
     2
100
AcDbCircle
 10
-10882.39034599076
 20
248.2928726128564
 30
0.0
 40
12.16666666666665
100
AcDbArc
 50
48.88790956099226
 51
131.1120904390077
  0
LINE
  5
2ECD16
330
6C
100
AcDbEntity
  8
Widoczne (ISO)
 62
     2
100
AcDbLine
 10
-9839.390345990757
 20
257.4595392795228
 30
0.0
 11
-9855.390345990759
 21
257.4595392795228
 31
0.0
  0
LINE
  5
2ECD17
330
6C
100
AcDbEntity
  8
Widoczne (ISO)
 62
     2
100
AcDbLine
 10
-9855.390345990759
 20
256.9595392795228
 30
0.0
 11
-9855.390345990759
 21
257.4595392795228
 31
0.0
  0
LINE
  5
2ECD18
330
6C
100
AcDbEntity
  8
Widoczne (ISO)
 62
     2
100
AcDbLine
 10
-9839.390345990757
 20
256.9595392795228
 30
0.0
 11
-9839.390345990757
 21
257.4595392795228
 31
0.0
  0
ARC
  5
2ECD19
330
6C
100
AcDbEntity
  8
Widoczne (ISO)
 62
     2
100
AcDbCircle
 10
-9847.390345990758
 20
248.2928726128561
 30
0.0
 40
12.16666666666665
100
AcDbArc
 50
48.88790956099226
 51
131.1120904390077
  0
LINE
  5
2ECD1A
330
6C
100
AcDbEntity
  8
Widoczne (ISO)
 62
     2
100
AcDbLine
 10
-10069.39034599076
 20
257.4595392795228
 30
0.0
 11
-10085.39034599076
 21
257.4595392795228
 31
0.0
  0
LINE
  5
2ECD1B
330
6C
100
AcDbEntity
  8
Widoczne (ISO)
 62
     2
100
AcDbLine
 10
-10085.39034599076
 20
256.9595392795228
 30
0.0
 11
-10085.39034599076
 21
257.4595392795228
 31
0.0
  0
LINE
  5
2ECD1C
330
6C
100
AcDbEntity
  8
Widoczne (ISO)
 62
     2
100
AcDbLine
 10
-10069.39034599076
 20
256.9595392795228
 30
0.0
 11
-10069.39034599076
 21
257.4595392795228
 31
0.0
  0
ARC
  5
2ECD1D
330
6C
100
AcDbEntity
  8
Widoczne (ISO)
 62
     2
100
AcDbCircle
 10
-10077.39034599075
 20
248.2928726128561
 30
0.0
 40
12.16666666666665
100
AcDbArc
 50
48.88790956099226
 51
131.1120904390077
  0
LINE
  5
2ECD1E
330
6C
100
AcDbEntity
  8
Widoczne (ISO)
 62
     2
100
AcDbLine
 10
-10299.39034599075
 20
257.4595392795228
 30
0.0
 11
-10315.39034599076
 21
257.4595392795228
 31
0.0
  0
LINE
  5
2ECD1F
330
6C
100
AcDbEntity
  8
Widoczne (ISO)
 62
     2
100
AcDbLine
 10
-10315.39034599076
 20
256.9595392795228
 30
0.0
 11
-10315.39034599076
 21
257.4595392795228
 31
0.0
  0
LINE
  5
2ECD20
330
6C
100
AcDbEntity
  8
Widoczne (ISO)
 62
     2
100
AcDbLine
 10
-10299.39034599075
 20
256.9595392795228
 30
0.0
 11
-10299.39034599075
 21
257.4595392795228
 31
0.0
  0
ARC
  5
2ECD21
330
6C
100
AcDbEntity
  8
Widoczne (ISO)
 62
     2
100
AcDbCircle
 10
-10307.39034599076
 20
248.2928726128561
 30
0.0
 40
12.16666666666665
100
AcDbArc
 50
48.88790956099226
 51
131.1120904390077
  0
LINE
  5
2ECD22
330
6C
100
AcDbEntity
  8
Widoczne (ISO)
 62
     2
100
AcDbLine
 10
-10529.39034599076
 20
257.4595392795228
 30
0.0
 11
-10545.39034599076
 21
257.4595392795228
 31
0.0
  0
LINE
  5
2ECD23
330
6C
100
AcDbEntity
  8
Widoczne (ISO)
 62
     2
100
AcDbLine
 10
-10545.39034599076
 20
256.9595392795228
 30
0.0
 11
-10545.39034599076
 21
257.4595392795228
 31
0.0
  0
LINE
  5
2ECD24
330
6C
100
AcDbEntity
  8
Widoczne (ISO)
 62
     2
100
AcDbLine
 10
-10529.39034599076
 20
256.9595392795228
 30
0.0
 11
-10529.39034599076
 21
257.4595392795228
 31
0.0
  0
ARC
  5
2ECD25
330
6C
100
AcDbEntity
  8
Widoczne (ISO)
 62
     2
100
AcDbCircle
 10
-10537.39034599076
 20
248.2928726128561
 30
0.0
 40
12.16666666666665
100
AcDbArc
 50
48.88790956099226
 51
131.1120904390077
  0
LINE
  5
2ECD26
330
6C
100
AcDbEntity
  8
Widoczne (ISO)
 62
     2
100
AcDbLine
 10
-10759.39034599076
 20
257.4595392795228
 30
0.0
 11
-10775.39034599076
 21
257.4595392795228
 31
0.0
  0
LINE
  5
2ECD27
330
6C
100
AcDbEntity
  8
Widoczne (ISO)
 62
     2
100
AcDbLine
 10
-10775.39034599076
 20
256.9595392795228
 30
0.0
 11
-10775.39034599076
 21
257.4595392795228
 31
0.0
  0
LINE
  5
2ECD28
330
6C
100
AcDbEntity
  8
Widoczne (ISO)
 62
     2
100
AcDbLine
 10
-10759.39034599076
 20
256.9595392795228
 30
0.0
 11
-10759.39034599076
 21
257.4595392795228
 31
0.0
  0
ARC
  5
2ECD29
330
6C
100
AcDbEntity
  8
Widoczne (ISO)
 62
     2
100
AcDbCircle
 10
-10767.39034599076
 20
248.2928726128561
 30
0.0
 40
12.16666666666665
100
AcDbArc
 50
48.88790956099226
 51
131.1120904390077
  0
LINE
  5
2ECD2A
330
6C
100
AcDbEntity
  8
Widoczne (ISO)
 62
     2
100
AcDbLine
 10
-10004.39034599076
 20
257.4595392795235
 30
0.0
 11
-10020.39034599075
 21
257.4595392795235
 31
0.0
  0
LINE
  5
2ECD2B
330
6C
100
AcDbEntity
  8
Widoczne (ISO)
 62
     2
100
AcDbLine
 10
-10020.39034599075
 20
256.9595392795235
 30
0.0
 11
-10020.39034599075
 21
257.4595392795235
 31
0.0
  0
LINE
  5
2ECD2C
330
6C
100
AcDbEntity
  8
Widoczne (ISO)
 62
     2
100
AcDbLine
 10
-10004.39034599076
 20
256.9595392795235
 30
0.0
 11
-10004.39034599076
 21
257.4595392795235
 31
0.0
  0
ARC
  5
2ECD2D
330
6C
100
AcDbEntity
  8
Widoczne (ISO)
 62
     2
100
AcDbCircle
 10
-10012.39034599076
 20
248.2928726128571
 30
0.0
 40
12.16666666666666
100
AcDbArc
 50
48.88790956099226
 51
131.1120904390077
  0
LINE
  5
2ECD2E
330
6C
100
AcDbEntity
  8
Widoczne (ISO)
 62
     2
100
AcDbLine
 10
-10462.39034599075
 20
257.4595392795235
 30
0.0
 11
-10478.39034599076
 21
257.4595392795235
 31
0.0
  0
LINE
  5
2ECD2F
330
6C
100
AcDbEntity
  8
Widoczne (ISO)
 62
     2
100
AcDbLine
 10
-10478.39034599076
 20
256.9595392795235
 30
0.0
 11
-10478.39034599076
 21
257.4595392795235
 31
0.0
  0
LINE
  5
2ECD30
330
6C
100
AcDbEntity
  8
Widoczne (ISO)
 62
     2
100
AcDbLine
 10
-10462.39034599075
 20
256.9595392795235
 30
0.0
 11
-10462.39034599075
 21
257.4595392795235
 31
0.0
  0
ARC
  5
2ECD31
330
6C
100
AcDbEntity
  8
Widoczne (ISO)
 62
     2
100
AcDbCircle
 10
-10470.39034599076
 20
248.2928726128571
 30
0.0
 40
12.16666666666666
100
AcDbArc
 50
48.88790956099226
 51
131.1120904390077
  0
LINE
  5
2ECD32
330
6C
100
AcDbEntity
  8
Widoczne (ISO)
 62
     2
100
AcDbLine
 10
-11184.39034599074
 20
-63.54046072047527
 30
0.0
 11
-11184.39034599074
 21
-79.5404607204751
 31
0.0
  0
LINE
  5
2ECD33
330
6C
100
AcDbEntity
  8
Widoczne (ISO)
 62
     2
100
AcDbLine
 10
-11183.89034599076
 20
-79.5404607204751
 30
0.0
 11
-11184.39034599074
 21
-79.54046072047527
 31
0.0
  0
LINE
  5
2ECD34
330
6C
100
AcDbEntity
  8
Widoczne (ISO)
 62
     2
100
AcDbLine
 10
-11183.89034599076
 20
-63.54046072047527
 30
0.0
 11
-11184.39034599074
 21
-63.54046072047527
 31
0.0
  0
ARC
  5
2ECD35
330
6C
100
AcDbEntity
  8
Widoczne (ISO)
 62
     2
100
AcDbCircle
 10
-11175.22367932408
 20
-71.54046072047458
 30
0.0
 40
12.16666666666663
100
AcDbArc
 50
138.8879095610562
 51
221.1120904389437
  0
LINE
  5
2ECD36
330
6C
100
AcDbEntity
  8
Widoczne (ISO)
 62
     2
100
AcDbLine
 10
-11184.39034599074
 20
-293.5404607204749
 30
0.0
 11
-11184.39034599074
 21
-309.540460720475
 31
0.0
  0
LINE
  5
2ECD37
330
6C
100
AcDbEntity
  8
Widoczne (ISO)
 62
     2
100
AcDbLine
 10
-11183.89034599074
 20
-309.540460720475
 30
0.0
 11
-11184.39034599074
 21
-309.540460720475
 31
0.0
  0
LINE
  5
2ECD38
330
6C
100
AcDbEntity
  8
Widoczne (ISO)
 62
     2
100
AcDbLine
 10
-11183.89034599074
 20
-293.5404607204749
 30
0.0
 11
-11184.39034599074
 21
-293.5404607204753
 31
0.0
  0
ARC
  5
2ECD39
330
6C
100
AcDbEntity
  8
Widoczne (ISO)
 62
     2
100
AcDbCircle
 10
-11175.22367932408
 20
-301.5404607204745
 30
0.0
 40
12.16666666666663
100
AcDbArc
 50
138.8879095610562
 51
221.1120904389437
  0
LINE
  5
2ECD3A
330
6C
100
AcDbEntity
  8
Widoczne (ISO)
 62
     2
100
AcDbLine
 10
-11184.39034599072
 20
-523.5404607204749
 30
0.0
 11
-11184.39034599072
 21
-539.5404607204749
 31
0.0
  0
LINE
  5
2ECD3B
330
6C
100
AcDbEntity
  8
Widoczne (ISO)
 62
     2
100
AcDbLine
 10
-11183.89034599073
 20
-539.5404607204746
 30
0.0
 11
-11184.39034599072
 21
-539.5404607204749
 31
0.0
  0
LINE
  5
2ECD3C
330
6C
100
AcDbEntity
  8
Widoczne (ISO)
 62
     2
100
AcDbLine
 10
-11183.89034599073
 20
-523.5404607204749
 30
0.0
 11
-11184.39034599072
 21
-523.5404607204749
 31
0.0
  0
ARC
  5
2ECD3D
330
6C
100
AcDbEntity
  8
Widoczne (ISO)
 62
     2
100
AcDbCircle
 10
-11175.22367932405
 20
-531.5404607204738
 30
0.0
 40
12.16666666666663
100
AcDbArc
 50
138.8879095610562
 51
221.1120904389437
  0
LINE
  5
2ECD3E
330
6C
100
AcDbEntity
  8
Widoczne (ISO)
 62
     2
100
AcDbLine
 10
-11184.39034599071
 20
-753.5404607204745
 30
0.0
 11
-11184.39034599071
 21
-769.5404607204745
 31
0.0
  0
LINE
  5
2ECD3F
330
6C
100
AcDbEntity
  8
Widoczne (ISO)
 62
     2
100
AcDbLine
 10
-11183.89034599071
 20
-769.5404607204745
 30
0.0
 11
-11184.39034599071
 21
-769.5404607204745
 31
0.0
  0
LINE
  5
2ECD40
330
6C
100
AcDbEntity
  8
Widoczne (ISO)
 62
     2
100
AcDbLine
 10
-11183.89034599071
 20
-753.5404607204745
 30
0.0
 11
-11184.39034599071
 21
-753.5404607204745
 31
0.0
  0
ARC
  5
2ECD41
330
6C
100
AcDbEntity
  8
Widoczne (ISO)
 62
     2
100
AcDbCircle
 10
-11175.22367932404
 20
-761.5404607204741
 30
0.0
 40
12.16666666666663
100
AcDbArc
 50
138.8879095610562
 51
221.1120904389437
  0
LINE
  5
2ECD42
330
6C
100
AcDbEntity
  8
Widoczne (ISO)
 62
     2
100
AcDbLine
 10
-11184.39034599069
 20
-983.5404607204733
 30
0.0
 11
-11184.39034599069
 21
-999.5404607204731
 31
0.0
  0
LINE
  5
2ECD43
330
6C
100
AcDbEntity
  8
Widoczne (ISO)
 62
     2
100
AcDbLine
 10
-11183.89034599069
 20
-999.5404607204731
 30
0.0
 11
-11184.39034599069
 21
-999.5404607204731
 31
0.0
  0
LINE
  5
2ECD44
330
6C
100
AcDbEntity
  8
Widoczne (ISO)
 62
     2
100
AcDbLine
 10
-11183.89034599069
 20
-983.5404607204733
 30
0.0
 11
-11184.39034599069
 21
-983.5404607204733
 31
0.0
  0
ARC
  5
2ECD45
330
6C
100
AcDbEntity
  8
Widoczne (ISO)
 62
     2
100
AcDbCircle
 10
-11175.22367932403
 20
-991.5404607204733
 30
0.0
 40
12.16666666666663
100
AcDbArc
 50
138.8879095610562
 51
221.1120904389437
  0
LINE
  5
2ECD46
330
6C
100
AcDbEntity
  8
Widoczne (ISO)
 62
     2
100
AcDbLine
 10
-11184.39034599068
 20
-1213.540460720473
 30
0.0
 11
-11184.39034599068
 21
-1229.540460720473
 31
0.0
  0
LINE
  5
2ECD47
330
6C
100
AcDbEntity
  8
Widoczne (ISO)
 62
     2
100
AcDbLine
 10
-11183.89034599068
 20
-1229.540460720473
 30
0.0
 11
-11184.39034599068
 21
-1229.540460720473
 31
0.0
  0
LINE
  5
2ECD48
330
6C
100
AcDbEntity
  8
Widoczne (ISO)
 62
     2
100
AcDbLine
 10
-11183.89034599068
 20
-1213.540460720473
 30
0.0
 11
-11184.39034599068
 21
-1213.540460720473
 31
0.0
  0
ARC
  5
2ECD49
330
6C
100
AcDbEntity
  8
Widoczne (ISO)
 62
     2
100
AcDbCircle
 10
-11175.22367932402
 20
-1221.540460720473
 30
0.0
 40
12.16666666666663
100
AcDbArc
 50
138.8879095610562
 51
221.1120904389437
  0
LINE
  5
2ECD4A
330
6C
100
AcDbEntity
  8
Widoczne (ISO)
 62
     2
100
AcDbLine
 10
-11184.39034599074
 20
-178.5404607204768
 30
0.0
 11
-11184.39034599074
 21
-194.5404607204769
 31
0.0
  0
LINE
  5
2ECD4B
330
6C
100
AcDbEntity
  8
Widoczne (ISO)
 62
     2
100
AcDbLine
 10
-11183.89034599074
 20
-194.5404607204769
 30
0.0
 11
-11184.39034599074
 21
-194.5404607204769
 31
0.0
  0
LINE
  5
2ECD4C
330
6C
100
AcDbEntity
  8
Widoczne (ISO)
 62
     2
100
AcDbLine
 10
-11183.89034599074
 20
-178.5404607204768
 30
0.0
 11
-11184.39034599074
 21
-178.5404607204768
 31
0.0
  0
ARC
  5
2ECD4D
330
6C
100
AcDbEntity
  8
Widoczne (ISO)
 62
     2
100
AcDbCircle
 10
-11175.22367932408
 20
-186.5404607204761
 30
0.0
 40
12.16666666666663
100
AcDbArc
 50
138.8879095610562
 51
221.1120904389437
  0
LINE
  5
2ECD4E
330
6C
100
AcDbEntity
  8
Widoczne (ISO)
 62
     2
100
AcDbLine
 10
-11184.39034599074
 20
-408.5404607204764
 30
0.0
 11
-11184.39034599074
 21
-424.5404607204764
 31
0.0
  0
LINE
  5
2ECD4F
330
6C
100
AcDbEntity
  8
Widoczne (ISO)
 62
     2
100
AcDbLine
 10
-11183.89034599074
 20
-424.5404607204764
 30
0.0
 11
-11184.39034599074
 21
-424.5404607204764
 31
0.0
  0
LINE
  5
2ECD50
330
6C
100
AcDbEntity
  8
Widoczne (ISO)
 62
     2
100
AcDbLine
 10
-11183.89034599074
 20
-408.5404607204764
 30
0.0
 11
-11184.39034599074
 21
-408.5404607204764
 31
0.0
  0
ARC
  5
2ECD51
330
6C
100
AcDbEntity
  8
Widoczne (ISO)
 62
     2
100
AcDbCircle
 10
-11175.22367932406
 20
-416.5404607204758
 30
0.0
 40
12.16666666666663
100
AcDbArc
 50
138.8879095610562
 51
221.1120904389437
  0
LINE
  5
2ECD52
330
6C
100
AcDbEntity
  8
Widoczne (ISO)
 62
     2
100
AcDbLine
 10
-11184.39034599072
 20
-638.540460720476
 30
0.0
 11
-11184.39034599072
 21
-654.540460720476
 31
0.0
  0
LINE
  5
2ECD53
330
6C
100
AcDbEntity
  8
Widoczne (ISO)
 62
     2
100
AcDbLine
 10
-11183.89034599071
 20
-654.540460720476
 30
0.0
 11
-11184.39034599072
 21
-654.540460720476
 31
0.0
  0
LINE
  5
2ECD54
330
6C
100
AcDbEntity
  8
Widoczne (ISO)
 62
     2
100
AcDbLine
 10
-11183.89034599071
 20
-638.540460720476
 30
0.0
 11
-11184.39034599072
 21
-638.540460720476
 31
0.0
  0
ARC
  5
2ECD55
330
6C
100
AcDbEntity
  8
Widoczne (ISO)
 62
     2
100
AcDbCircle
 10
-11175.22367932404
 20
-646.5404607204758
 30
0.0
 40
12.16666666666664
100
AcDbArc
 50
138.8879095610562
 51
221.1120904389437
  0
LINE
  5
2ECD56
330
6C
100
AcDbEntity
  8
Widoczne (ISO)
 62
     2
100
AcDbLine
 10
-11184.39034599071
 20
-868.5404607204761
 30
0.0
 11
-11184.39034599071
 21
-884.5404607204761
 31
0.0
  0
LINE
  5
2ECD57
330
6C
100
AcDbEntity
  8
Widoczne (ISO)
 62
     2
100
AcDbLine
 10
-11183.89034599071
 20
-884.5404607204761
 30
0.0
 11
-11184.39034599071
 21
-884.5404607204761
 31
0.0
  0
LINE
  5
2ECD58
330
6C
100
AcDbEntity
  8
Widoczne (ISO)
 62
     2
100
AcDbLine
 10
-11183.89034599071
 20
-868.5404607204761
 30
0.0
 11
-11184.39034599071
 21
-868.5404607204761
 31
0.0
  0
ARC
  5
2ECD59
330
6C
100
AcDbEntity
  8
Widoczne (ISO)
 62
     2
100
AcDbCircle
 10
-11175.22367932404
 20
-876.5404607204752
 30
0.0
 40
12.16666666666663
100
AcDbArc
 50
138.8879095610562
 51
221.1120904389437
  0
LINE
  5
2ECD5A
330
6C
100
AcDbEntity
  8
Widoczne (ISO)
 62
     2
100
AcDbLine
 10
-11184.39034599069
 20
-1098.540460720475
 30
0.0
 11
-11184.39034599069
 21
-1114.540460720475
 31
0.0
  0
LINE
  5
2ECD5B
330
6C
100
AcDbEntity
  8
Widoczne (ISO)
 62
     2
100
AcDbLine
 10
-11183.89034599069
 20
-1114.540460720475
 30
0.0
 11
-11184.39034599069
 21
-1114.540460720475
 31
0.0
  0
LINE
  5
2ECD5C
330
6C
100
AcDbEntity
  8
Widoczne (ISO)
 62
     2
100
AcDbLine
 10
-11183.89034599069
 20
-1098.540460720475
 30
0.0
 11
-11184.39034599069
 21
-1098.540460720475
 31
0.0
  0
ARC
  5
2ECD5D
330
6C
100
AcDbEntity
  8
Widoczne (ISO)
 62
     2
100
AcDbCircle
 10
-11175.22367932402
 20
-1106.540460720475
 30
0.0
 40
12.16666666666663
100
AcDbArc
 50
138.8879095610562
 51
221.1120904389437
  0
LINE
  5
2ECD5E
330
6C
100
AcDbEntity
  8
Widoczne (ISO)
 62
     2
100
AcDbLine
 10
-11184.39034599074
 20
-343.5404607204767
 30
0.0
 11
-11184.39034599074
 21
-359.5404607204766
 31
0.0
  0
LINE
  5
2ECD5F
330
6C
100
AcDbEntity
  8
Widoczne (ISO)
 62
     2
100
AcDbLine
 10
-11183.89034599074
 20
-359.5404607204766
 30
0.0
 11
-11184.39034599074
 21
-359.5404607204766
 31
0.0
  0
LINE
  5
2ECD60
330
6C
100
AcDbEntity
  8
Widoczne (ISO)
 62
     2
100
AcDbLine
 10
-11183.89034599074
 20
-343.5404607204767
 30
0.0
 11
-11184.39034599074
 21
-343.5404607204767
 31
0.0
  0
ARC
  5
2ECD61
330
6C
100
AcDbEntity
  8
Widoczne (ISO)
 62
     2
100
AcDbCircle
 10
-11175.22367932408
 20
-351.5404607204762
 30
0.0
 40
12.16666666666664
100
AcDbArc
 50
138.8879095610562
 51
221.1120904393947
  0
LINE
  5
2ECD62
330
6C
100
AcDbEntity
  8
Widoczne (ISO)
 62
     2
100
AcDbLine
 10
-11184.39034599071
 20
-801.5404607204759
 30
0.0
 11
-11184.39034599071
 21
-817.5404607204759
 31
0.0
  0
LINE
  5
2ECD63
330
6C
100
AcDbEntity
  8
Widoczne (ISO)
 62
     2
100
AcDbLine
 10
-11183.89034599071
 20
-817.5404607204759
 30
0.0
 11
-11184.39034599071
 21
-817.5404607204759
 31
0.0
  0
LINE
  5
2ECD64
330
6C
100
AcDbEntity
  8
Widoczne (ISO)
 62
     2
100
AcDbLine
 10
-11183.89034599071
 20
-801.5404607204759
 30
0.0
 11
-11184.39034599071
 21
-801.5404607204759
 31
0.0
  0
ARC
  5
2ECD65
330
6C
100
AcDbEntity
  8
Widoczne (ISO)
 62
     2
100
AcDbCircle
 10
-11175.22367932404
 20
-809.5404607204754
 30
0.0
 40
12.16666666666664
100
AcDbArc
 50
138.8879095610562
 51
221.1120904389437
  0
LINE
  5
2ECD66
330
6C
100
AcDbEntity
  8
Widoczne (ISO)
 62
     2
100
AcDbLine
 10
-10863.39034599087
 20
-1523.54046072032
 30
0.0
 11
-10847.39034599087
 21
-1523.540460720322
 31
0.0
  0
LINE
  5
2ECD67
330
6C
100
AcDbEntity
  8
Widoczne (ISO)
 62
     2
100
AcDbLine
 10
-10847.39034599087
 20
-1523.040460720321
 30
0.0
 11
-10847.39034599087
 21
-1523.540460720322
 31
0.0
  0
LINE
  5
2ECD68
330
6C
100
AcDbEntity
  8
Widoczne (ISO)
 62
     2
100
AcDbLine
 10
-10863.39034599087
 20
-1523.04046072032
 30
0.0
 11
-10863.39034599087
 21
-1523.54046072032
 31
0.0
  0
ARC
  5
2ECD69
330
6C
100
AcDbEntity
  8
Widoczne (ISO)
 62
     2
100
AcDbCircle
 10
-10855.39034599087
 20
-1514.373794053654
 30
0.0
 40
12.16666666666663
100
AcDbArc
 50
228.8879095609923
 51
311.1120904390078
  0
LINE
  5
2ECD6A
330
6C
100
AcDbEntity
  8
Widoczne (ISO)
 62
     2
100
AcDbLine
 10
-10633.39034599087
 20
-1523.540460720346
 30
0.0
 11
-10617.39034599087
 21
-1523.540460720348
 31
0.0
  0
LINE
  5
2ECD6B
330
6C
100
AcDbEntity
  8
Widoczne (ISO)
 62
     2
100
AcDbLine
 10
-10617.39034599087
 20
-1523.040460720349
 30
0.0
 11
-10617.39034599087
 21
-1523.540460720349
 31
0.0
  0
LINE
  5
2ECD6C
330
6C
100
AcDbEntity
  8
Widoczne (ISO)
 62
     2
100
AcDbLine
 10
-10633.39034599087
 20
-1523.040460720347
 30
0.0
 11
-10633.39034599087
 21
-1523.540460720347
 31
0.0
  0
ARC
  5
2ECD6D
330
6C
100
AcDbEntity
  8
Widoczne (ISO)
 62
     2
100
AcDbCircle
 10
-10625.39034599087
 20
-1514.373794053681
 30
0.0
 40
12.16666666666663
100
AcDbArc
 50
228.8879095609923
 51
311.1120904390078
  0
LINE
  5
2ECD6E
330
6C
100
AcDbEntity
  8
Widoczne (ISO)
 62
     2
100
AcDbLine
 10
-10403.39034599087
 20
-1523.540460720373
 30
0.0
 11
-10387.39034599087
 21
-1523.540460720376
 31
0.0
  0
LINE
  5
2ECD6F
330
6C
100
AcDbEntity
  8
Widoczne (ISO)
 62
     2
100
AcDbLine
 10
-10387.39034599087
 20
-1523.040460720376
 30
0.0
 11
-10387.39034599087
 21
-1523.540460720376
 31
0.0
  0
LINE
  5
2ECD70
330
6C
100
AcDbEntity
  8
Widoczne (ISO)
 62
     2
100
AcDbLine
 10
-10403.39034599087
 20
-1523.040460720374
 30
0.0
 11
-10403.39034599087
 21
-1523.540460720374
 31
0.0
  0
ARC
  5
2ECD71
330
6C
100
AcDbEntity
  8
Widoczne (ISO)
 62
     2
100
AcDbCircle
 10
-10395.39034599087
 20
-1514.373794053708
 30
0.0
 40
12.16666666666663
100
AcDbArc
 50
228.8879095609923
 51
311.1120904390078
  0
LINE
  5
2ECD72
330
6C
100
AcDbEntity
  8
Widoczne (ISO)
 62
     2
100
AcDbLine
 10
-10173.39034599087
 20
-1523.540460720401
 30
0.0
 11
-10157.39034599087
 21
-1523.540460720403
 31
0.0
  0
LINE
  5
2ECD73
330
6C
100
AcDbEntity
  8
Widoczne (ISO)
 62
     2
100
AcDbLine
 10
-10157.39034599087
 20
-1523.040460720403
 30
0.0
 11
-10157.39034599087
 21
-1523.540460720403
 31
0.0
  0
LINE
  5
2ECD74
330
6C
100
AcDbEntity
  8
Widoczne (ISO)
 62
     2
100
AcDbLine
 10
-10173.39034599087
 20
-1523.040460720401
 30
0.0
 11
-10173.39034599087
 21
-1523.540460720401
 31
0.0
  0
ARC
  5
2ECD75
330
6C
100
AcDbEntity
  8
Widoczne (ISO)
 62
     2
100
AcDbCircle
 10
-10165.39034599087
 20
-1514.373794053735
 30
0.0
 40
12.16666666666663
100
AcDbArc
 50
228.8879095609923
 51
311.1120904390078
  0
LINE
  5
2ECD76
330
6C
100
AcDbEntity
  8
Widoczne (ISO)
 62
     2
100
AcDbLine
 10
-9943.390345990877
 20
-1523.540460720428
 30
0.0
 11
-9927.390345990886
 21
-1523.54046072043
 31
0.0
  0
LINE
  5
2ECD77
330
6C
100
AcDbEntity
  8
Widoczne (ISO)
 62
     2
100
AcDbLine
 10
-9927.390345990886
 20
-1523.04046072043
 30
0.0
 11
-9927.390345990886
 21
-1523.54046072043
 31
0.0
  0
LINE
  5
2ECD78
330
6C
100
AcDbEntity
  8
Widoczne (ISO)
 62
     2
100
AcDbLine
 10
-9943.390345990877
 20
-1523.040460720428
 30
0.0
 11
-9943.390345990877
 21
-1523.540460720428
 31
0.0
  0
ARC
  5
2ECD79
330
6C
100
AcDbEntity
  8
Widoczne (ISO)
 62
     2
100
AcDbCircle
 10
-9935.390345990876
 20
-1514.373794053762
 30
0.0
 40
12.16666666666663
100
AcDbArc
 50
228.8879095609923
 51
311.1120904390078
  0
LINE
  5
2ECD7A
330
6C
100
AcDbEntity
  8
Widoczne (ISO)
 62
     2
100
AcDbLine
 10
-9713.390345990877
 20
-1523.540460720455
 30
0.0
 11
-9697.390345990877
 21
-1523.540460720457
 31
0.0
  0
LINE
  5
2ECD7B
330
6C
100
AcDbEntity
  8
Widoczne (ISO)
 62
     2
100
AcDbLine
 10
-9697.390345990877
 20
-1523.040460720457
 30
0.0
 11
-9697.390345990877
 21
-1523.540460720457
 31
0.0
  0
LINE
  5
2ECD7C
330
6C
100
AcDbEntity
  8
Widoczne (ISO)
 62
     2
100
AcDbLine
 10
-9713.390345990877
 20
-1523.040460720455
 30
0.0
 11
-9713.390345990877
 21
-1523.540460720455
 31
0.0
  0
ARC
  5
2ECD7D
330
6C
100
AcDbEntity
  8
Widoczne (ISO)
 62
     2
100
AcDbCircle
 10
-9705.390345990878
 20
-1514.373794053789
 30
0.0
 40
12.16666666666664
100
AcDbArc
 50
228.8879095609923
 51
311.1120904390078
  0
LINE
  5
2ECD7E
330
6C
100
AcDbEntity
  8
Widoczne (ISO)
 62
     2
100
AcDbLine
 10
-10748.39034599087
 20
-1523.540460720333
 30
0.0
 11
-10732.39034599087
 21
-1523.540460720335
 31
0.0
  0
LINE
  5
2ECD7F
330
6C
100
AcDbEntity
  8
Widoczne (ISO)
 62
     2
100
AcDbLine
 10
-10732.39034599087
 20
-1523.040460720335
 30
0.0
 11
-10732.39034599087
 21
-1523.540460720335
 31
0.0
  0
LINE
  5
2ECD80
330
6C
100
AcDbEntity
  8
Widoczne (ISO)
 62
     2
100
AcDbLine
 10
-10748.39034599087
 20
-1523.040460720333
 30
0.0
 11
-10748.39034599087
 21
-1523.540460720333
 31
0.0
  0
ARC
  5
2ECD81
330
6C
100
AcDbEntity
  8
Widoczne (ISO)
 62
     2
100
AcDbCircle
 10
-10740.39034599087
 20
-1514.373794053667
 30
0.0
 40
12.16666666666664
100
AcDbArc
 50
228.8879095609923
 51
311.1120904390078
  0
LINE
  5
2ECD82
330
6C
100
AcDbEntity
  8
Widoczne (ISO)
 62
     2
100
AcDbLine
 10
-10518.39034599087
 20
-1523.54046072036
 30
0.0
 11
-10502.39034599087
 21
-1523.540460720362
 31
0.0
  0
LINE
  5
2ECD83
330
6C
100
AcDbEntity
  8
Widoczne (ISO)
 62
     2
100
AcDbLine
 10
-10502.39034599087
 20
-1523.040460720363
 30
0.0
 11
-10502.39034599087
 21
-1523.540460720362
 31
0.0
  0
LINE
  5
2ECD84
330
6C
100
AcDbEntity
  8
Widoczne (ISO)
 62
     2
100
AcDbLine
 10
-10518.39034599087
 20
-1523.040460720361
 30
0.0
 11
-10518.39034599087
 21
-1523.54046072036
 31
0.0
  0
ARC
  5
2ECD85
330
6C
100
AcDbEntity
  8
Widoczne (ISO)
 62
     2
100
AcDbCircle
 10
-10510.39034599087
 20
-1514.373794053695
 30
0.0
 40
12.16666666666664
100
AcDbArc
 50
228.8879095609923
 51
311.1120904390078
  0
LINE
  5
2ECD86
330
6C
100
AcDbEntity
  8
Widoczne (ISO)
 62
     2
100
AcDbLine
 10
-10288.39034599087
 20
-1523.540460720387
 30
0.0
 11
-10272.39034599087
 21
-1523.540460720389
 31
0.0
  0
LINE
  5
2ECD87
330
6C
100
AcDbEntity
  8
Widoczne (ISO)
 62
     2
100
AcDbLine
 10
-10272.39034599087
 20
-1523.04046072039
 30
0.0
 11
-10272.39034599087
 21
-1523.540460720389
 31
0.0
  0
LINE
  5
2ECD88
330
6C
100
AcDbEntity
  8
Widoczne (ISO)
 62
     2
100
AcDbLine
 10
-10288.39034599087
 20
-1523.040460720387
 30
0.0
 11
-10288.39034599087
 21
-1523.540460720387
 31
0.0
  0
ARC
  5
2ECD89
330
6C
100
AcDbEntity
  8
Widoczne (ISO)
 62
     2
100
AcDbCircle
 10
-10280.39034599087
 20
-1514.373794053721
 30
0.0
 40
12.16666666666664
100
AcDbArc
 50
228.8879095609923
 51
311.1120904390078
  0
LINE
  5
2ECD8A
330
6C
100
AcDbEntity
  8
Widoczne (ISO)
 62
     2
100
AcDbLine
 10
-10058.39034599087
 20
-1523.540460720414
 30
0.0
 11
-10042.39034599087
 21
-1523.540460720416
 31
0.0
  0
LINE
  5
2ECD8B
330
6C
100
AcDbEntity
  8
Widoczne (ISO)
 62
     2
100
AcDbLine
 10
-10042.39034599087
 20
-1523.040460720416
 30
0.0
 11
-10042.39034599087
 21
-1523.540460720416
 31
0.0
  0
LINE
  5
2ECD8C
330
6C
100
AcDbEntity
  8
Widoczne (ISO)
 62
     2
100
AcDbLine
 10
-10058.39034599087
 20
-1523.040460720415
 30
0.0
 11
-10058.39034599087
 21
-1523.540460720414
 31
0.0
  0
ARC
  5
2ECD8D
330
6C
100
AcDbEntity
  8
Widoczne (ISO)
 62
     2
100
AcDbCircle
 10
-10050.39034599087
 20
-1514.373794053749
 30
0.0
 40
12.16666666666664
100
AcDbArc
 50
228.8879095609923
 51
311.1120904390078
  0
LINE
  5
2ECD8E
330
6C
100
AcDbEntity
  8
Widoczne (ISO)
 62
     2
100
AcDbLine
 10
-9828.390345990875
 20
-1523.540460720441
 30
0.0
 11
-9812.390345990877
 21
-1523.540460720443
 31
0.0
  0
LINE
  5
2ECD8F
330
6C
100
AcDbEntity
  8
Widoczne (ISO)
 62
     2
100
AcDbLine
 10
-9812.390345990877
 20
-1523.040460720444
 30
0.0
 11
-9812.390345990877
 21
-1523.540460720443
 31
0.0
  0
LINE
  5
2ECD90
330
6C
100
AcDbEntity
  8
Widoczne (ISO)
 62
     2
100
AcDbLine
 10
-9828.390345990875
 20
-1523.040460720441
 30
0.0
 11
-9828.390345990875
 21
-1523.540460720441
 31
0.0
  0
ARC
  5
2ECD91
330
6C
100
AcDbEntity
  8
Widoczne (ISO)
 62
     2
100
AcDbCircle
 10
-9820.390345990876
 20
-1514.373794053775
 30
0.0
 40
12.16666666666664
100
AcDbArc
 50
228.8879095609923
 51
311.1120904390078
  0
LINE
  5
2ECD92
330
6C
100
AcDbEntity
  8
Widoczne (ISO)
 62
     2
100
AcDbLine
 10
-10583.39034599087
 20
-1523.540460720353
 30
0.0
 11
-10567.39034599087
 21
-1523.540460720354
 31
0.0
  0
LINE
  5
2ECD93
330
6C
100
AcDbEntity
  8
Widoczne (ISO)
 62
     2
100
AcDbLine
 10
-10567.39034599087
 20
-1523.040460720354
 30
0.0
 11
-10567.39034599087
 21
-1523.540460720355
 31
0.0
  0
LINE
  5
2ECD94
330
6C
100
AcDbEntity
  8
Widoczne (ISO)
 62
     2
100
AcDbLine
 10
-10583.39034599087
 20
-1523.040460720353
 30
0.0
 11
-10583.39034599087
 21
-1523.540460720353
 31
0.0
  0
ARC
  5
2ECD95
330
6C
100
AcDbEntity
  8
Widoczne (ISO)
 62
     2
100
AcDbCircle
 10
-10575.39034599087
 20
-1514.373794053687
 30
0.0
 40
12.16666666666665
100
AcDbArc
 50
228.8879095609923
 51
311.1120904390078
  0
LINE
  5
2ECD96
330
6C
100
AcDbEntity
  8
Widoczne (ISO)
 62
     2
100
AcDbLine
 10
-10125.39034599087
 20
-1523.540460720406
 30
0.0
 11
-10109.39034599087
 21
-1523.540460720408
 31
0.0
  0
LINE
  5
2ECD97
330
6C
100
AcDbEntity
  8
Widoczne (ISO)
 62
     2
100
AcDbLine
 10
-10109.39034599087
 20
-1523.040460720408
 30
0.0
 11
-10109.39034599087
 21
-1523.540460720408
 31
0.0
  0
LINE
  5
2ECD98
330
6C
100
AcDbEntity
  8
Widoczne (ISO)
 62
     2
100
AcDbLine
 10
-10125.39034599087
 20
-1523.040460720406
 30
0.0
 11
-10125.39034599087
 21
-1523.540460720406
 31
0.0
  0
ARC
  5
2ECD99
330
6C
100
AcDbEntity
  8
Widoczne (ISO)
 62
     2
100
AcDbCircle
 10
-10117.39034599087
 20
-1514.37379405374
 30
0.0
 40
12.16666666666665
100
AcDbArc
 50
228.8879095609923
 51
311.1120904390078
  0
LINE
  5
2ECD9A
330
6C
100
AcDbEntity
  8
Widoczne (ISO)
 62
     2
100
AcDbLine
 10
-9403.390345990843
 20
-1202.540460720492
 30
0.0
 11
-9403.390345990843
 21
-1186.540460720492
 31
0.0
  0
LINE
  5
2ECD9B
330
6C
100
AcDbEntity
  8
Widoczne (ISO)
 62
     2
100
AcDbLine
 10
-9403.890345990843
 20
-1186.540460720492
 30
0.0
 11
-9403.390345990843
 21
-1186.540460720492
 31
0.0
  0
LINE
  5
2ECD9C
330
6C
100
AcDbEntity
  8
Widoczne (ISO)
 62
     2
100
AcDbLine
 10
-9403.890345990843
 20
-1202.540460720492
 30
0.0
 11
-9403.390345990843
 21
-1202.540460720492
 31
0.0
  0
ARC
  5
2ECD9D
330
6C
100
AcDbEntity
  8
Widoczne (ISO)
 62
     2
100
AcDbCircle
 10
-9412.557012657506
 20
-1194.540460720492
 30
0.0
 40
12.16666666666664
100
AcDbArc
 50
318.8879095606053
 51
41.11209043894374
  0
LINE
  5
2ECD9E
330
6C
100
AcDbEntity
  8
Widoczne (ISO)
 62
     2
100
AcDbLine
 10
-9403.390345990827
 20
-972.540460720492
 30
0.0
 11
-9403.390345990827
 21
-956.5404607204921
 31
0.0
  0
LINE
  5
2ECD9F
330
6C
100
AcDbEntity
  8
Widoczne (ISO)
 62
     2
100
AcDbLine
 10
-9403.890345990827
 20
-956.5404607204921
 30
0.0
 11
-9403.390345990827
 21
-956.5404607204921
 31
0.0
  0
LINE
  5
2ECDA0
330
6C
100
AcDbEntity
  8
Widoczne (ISO)
 62
     2
100
AcDbLine
 10
-9403.890345990827
 20
-972.540460720492
 30
0.0
 11
-9403.390345990827
 21
-972.540460720492
 31
0.0
  0
ARC
  5
2ECDA1
330
6C
100
AcDbEntity
  8
Widoczne (ISO)
 62
     2
100
AcDbCircle
 10
-9412.557012657496
 20
-964.5404607204911
 30
0.0
 40
12.16666666666664
100
AcDbArc
 50
318.8879095606053
 51
41.11209043894374
  0
LINE
  5
2ECDA2
330
6C
100
AcDbEntity
  8
Widoczne (ISO)
 62
     2
100
AcDbLine
 10
-9403.390345990816
 20
-742.5404607204925
 30
0.0
 11
-9403.390345990816
 21
-726.5404607204925
 31
0.0
  0
LINE
  5
2ECDA3
330
6C
100
AcDbEntity
  8
Widoczne (ISO)
 62
     2
100
AcDbLine
 10
-9403.890345990815
 20
-726.5404607204924
 30
0.0
 11
-9403.390345990816
 21
-726.5404607204924
 31
0.0
  0
LINE
  5
2ECDA4
330
6C
100
AcDbEntity
  8
Widoczne (ISO)
 62
     2
100
AcDbLine
 10
-9403.890345990815
 20
-742.5404607204924
 30
0.0
 11
-9403.390345990816
 21
-742.5404607204924
 31
0.0
  0
ARC
  5
2ECDA5
330
6C
100
AcDbEntity
  8
Widoczne (ISO)
 62
     2
100
AcDbCircle
 10
-9412.557012657478
 20
-734.5404607204917
 30
0.0
 40
12.16666666666664
100
AcDbArc
 50
318.8879095606053
 51
41.11209043894374
  0
LINE
  5
2ECDA6
330
6C
100
AcDbEntity
  8
Widoczne (ISO)
 62
     2
100
AcDbLine
 10
-9403.390345990807
 20
-512.5404607204927
 30
0.0
 11
-9403.390345990807
 21
-496.5404607204927
 31
0.0
  0
LINE
  5
2ECDA7
330
6C
100
AcDbEntity
  8
Widoczne (ISO)
 62
     2
100
AcDbLine
 10
-9403.890345990793
 20
-496.5404607204925
 30
0.0
 11
-9403.390345990807
 21
-496.5404607204925
 31
0.0
  0
LINE
  5
2ECDA8
330
6C
100
AcDbEntity
  8
Widoczne (ISO)
 62
     2
100
AcDbLine
 10
-9403.890345990793
 20
-512.5404607204925
 30
0.0
 11
-9403.390345990807
 21
-512.5404607204925
 31
0.0
  0
ARC
  5
2ECDA9
330
6C
100
AcDbEntity
  8
Widoczne (ISO)
 62
     2
100
AcDbCircle
 10
-9412.557012657478
 20
-504.5404607204918
 30
0.0
 40
12.16666666666664
100
AcDbArc
 50
318.8879095606053
 51
41.11209043894374
  0
LINE
  5
2ECDAA
330
6C
100
AcDbEntity
  8
Widoczne (ISO)
 62
     2
100
AcDbLine
 10
-9403.390345990784
 20
-282.5404607204932
 30
0.0
 11
-9403.390345990784
 21
-266.5404607204932
 31
0.0
  0
LINE
  5
2ECDAB
330
6C
100
AcDbEntity
  8
Widoczne (ISO)
 62
     2
100
AcDbLine
 10
-9403.890345990786
 20
-266.540460720493
 30
0.0
 11
-9403.390345990784
 21
-266.540460720493
 31
0.0
  0
LINE
  5
2ECDAC
330
6C
100
AcDbEntity
  8
Widoczne (ISO)
 62
     2
100
AcDbLine
 10
-9403.890345990786
 20
-282.5404607204928
 30
0.0
 11
-9403.390345990784
 21
-282.5404607204928
 31
0.0
  0
ARC
  5
2ECDAD
330
6C
100
AcDbEntity
  8
Widoczne (ISO)
 62
     2
100
AcDbCircle
 10
-9412.557012657456
 20
-274.5404607204923
 30
0.0
 40
12.16666666666664
100
AcDbArc
 50
318.8879095606053
 51
41.11209043894374
  0
LINE
  5
2ECDAE
330
6C
100
AcDbEntity
  8
Widoczne (ISO)
 62
     2
100
AcDbLine
 10
-9403.390345990777
 20
-52.54046072049328
 30
0.0
 11
-9403.390345990777
 21
-36.54046072049329
 31
0.0
  0
LINE
  5
2ECDAF
330
6C
100
AcDbEntity
  8
Widoczne (ISO)
 62
     2
100
AcDbLine
 10
-9403.890345990776
 20
-36.54046072049329
 30
0.0
 11
-9403.390345990777
 21
-36.54046072049329
 31
0.0
  0
LINE
  5
2ECDB0
330
6C
100
AcDbEntity
  8
Widoczne (ISO)
 62
     2
100
AcDbLine
 10
-9403.890345990776
 20
-52.54046072049328
 30
0.0
 11
-9403.390345990777
 21
-52.54046072049328
 31
0.0
  0
ARC
  5
2ECDB1
330
6C
100
AcDbEntity
  8
Widoczne (ISO)
 62
     2
100
AcDbCircle
 10
-9412.557012657446
 20
-44.5404607204926
 30
0.0
 40
12.16666666666664
100
AcDbArc
 50
318.8879095606053
 51
41.11209043894374
  0
LINE
  5
2ECDB2
330
6C
100
AcDbEntity
  8
Widoczne (ISO)
 62
     2
100
AcDbLine
 10
-9403.390345990835
 20
-1087.540460720491
 30
0.0
 11
-9403.390345990835
 21
-1071.540460720491
 31
0.0
  0
LINE
  5
2ECDB3
330
6C
100
AcDbEntity
  8
Widoczne (ISO)
 62
     2
100
AcDbLine
 10
-9403.890345990836
 20
-1071.540460720491
 30
0.0
 11
-9403.390345990835
 21
-1071.540460720491
 31
0.0
  0
LINE
  5
2ECDB4
330
6C
100
AcDbEntity
  8
Widoczne (ISO)
 62
     2
100
AcDbLine
 10
-9403.890345990836
 20
-1087.540460720491
 30
0.0
 11
-9403.390345990835
 21
-1087.540460720491
 31
0.0
  0
ARC
  5
2ECDB5
330
6C
100
AcDbEntity
  8
Widoczne (ISO)
 62
     2
100
AcDbCircle
 10
-9412.557012657506
 20
-1079.54046072049
 30
0.0
 40
12.16666666666665
100
AcDbArc
 50
318.8879095606053
 51
41.11209043894374
  0
LINE
  5
2ECDB6
330
6C
100
AcDbEntity
  8
Widoczne (ISO)
 62
     2
100
AcDbLine
 10
-9403.390345990827
 20
-857.5404607204912
 30
0.0
 11
-9403.390345990827
 21
-841.5404607204912
 31
0.0
  0
LINE
  5
2ECDB7
330
6C
100
AcDbEntity
  8
Widoczne (ISO)
 62
     2
100
AcDbLine
 10
-9403.890345990827
 20
-841.5404607204912
 30
0.0
 11
-9403.390345990827
 21
-841.5404607204912
 31
0.0
  0
LINE
  5
2ECDB8
330
6C
100
AcDbEntity
  8
Widoczne (ISO)
 62
     2
100
AcDbLine
 10
-9403.890345990827
 20
-857.5404607204912
 30
0.0
 11
-9403.390345990827
 21
-857.5404607204912
 31
0.0
  0
ARC
  5
2ECDB9
330
6C
100
AcDbEntity
  8
Widoczne (ISO)
 62
     2
100
AcDbCircle
 10
-9412.557012657485
 20
-849.5404607204902
 30
0.0
 40
12.16666666666665
100
AcDbArc
 50
318.8879095606053
 51
41.11209043894374
  0
LINE
  5
2ECDBA
330
6C
100
AcDbEntity
  8
Widoczne (ISO)
 62
     2
100
AcDbLine
 10
-9403.390345990807
 20
-627.5404607204912
 30
0.0
 11
-9403.390345990807
 21
-611.5404607204911
 31
0.0
  0
LINE
  5
2ECDBB
330
6C
100
AcDbEntity
  8
Widoczne (ISO)
 62
     2
100
AcDbLine
 10
-9403.890345990808
 20
-611.5404607204911
 30
0.0
 11
-9403.390345990807
 21
-611.5404607204911
 31
0.0
  0
LINE
  5
2ECDBC
330
6C
100
AcDbEntity
  8
Widoczne (ISO)
 62
     2
100
AcDbLine
 10
-9403.890345990808
 20
-627.5404607204911
 30
0.0
 11
-9403.390345990807
 21
-627.5404607204911
 31
0.0
  0
ARC
  5
2ECDBD
330
6C
100
AcDbEntity
  8
Widoczne (ISO)
 62
     2
100
AcDbCircle
 10
-9412.557012657478
 20
-619.5404607204906
 30
0.0
 40
12.16666666666665
100
AcDbArc
 50
318.8879095606053
 51
41.11209043894374
  0
LINE
  5
2ECDBE
330
6C
100
AcDbEntity
  8
Widoczne (ISO)
 62
     2
100
AcDbLine
 10
-9403.390345990795
 20
-397.5404607204911
 30
0.0
 11
-9403.390345990795
 21
-381.5404607204914
 31
0.0
  0
LINE
  5
2ECDBF
330
6C
100
AcDbEntity
  8
Widoczne (ISO)
 62
     2
100
AcDbLine
 10
-9403.890345990793
 20
-381.5404607204914
 30
0.0
 11
-9403.390345990795
 21
-381.5404607204914
 31
0.0
  0
LINE
  5
2ECDC0
330
6C
100
AcDbEntity
  8
Widoczne (ISO)
 62
     2
100
AcDbLine
 10
-9403.890345990793
 20
-397.5404607204911
 30
0.0
 11
-9403.390345990795
 21
-397.5404607204911
 31
0.0
  0
ARC
  5
2ECDC1
330
6C
100
AcDbEntity
  8
Widoczne (ISO)
 62
     2
100
AcDbCircle
 10
-9412.557012657456
 20
-389.5404607204907
 30
0.0
 40
12.16666666666665
100
AcDbArc
 50
318.8879095606053
 51
41.11209043894374
  0
LINE
  5
2ECDC2
330
6C
100
AcDbEntity
  8
Widoczne (ISO)
 62
     2
100
AcDbLine
 10
-9403.390345990777
 20
-167.5404607204915
 30
0.0
 11
-9403.390345990777
 21
-151.5404607204915
 31
0.0
  0
LINE
  5
2ECDC3
330
6C
100
AcDbEntity
  8
Widoczne (ISO)
 62
     2
100
AcDbLine
 10
-9403.890345990776
 20
-151.5404607204915
 30
0.0
 11
-9403.390345990777
 21
-151.5404607204915
 31
0.0
  0
LINE
  5
2ECDC4
330
6C
100
AcDbEntity
  8
Widoczne (ISO)
 62
     2
100
AcDbLine
 10
-9403.890345990776
 20
-167.5404607204915
 30
0.0
 11
-9403.390345990777
 21
-167.5404607204915
 31
0.0
  0
ARC
  5
2ECDC5
330
6C
100
AcDbEntity
  8
Widoczne (ISO)
 62
     2
100
AcDbCircle
 10
-9412.557012657456
 20
-159.540460720491
 30
0.0
 40
12.16666666666665
100
AcDbArc
 50
318.8879095606053
 51
41.11209043894374
  0
LINE
  5
2ECDC6
330
6C
100
AcDbEntity
  8
Widoczne (ISO)
 62
     2
100
AcDbLine
 10
-9403.390345990827
 20
-922.5404607204911
 30
0.0
 11
-9403.390345990827
 21
-906.5404607204911
 31
0.0
  0
LINE
  5
2ECDC7
330
6C
100
AcDbEntity
  8
Widoczne (ISO)
 62
     2
100
AcDbLine
 10
-9403.890345990827
 20
-906.5404607204911
 30
0.0
 11
-9403.390345990827
 21
-906.5404607204911
 31
0.0
  0
LINE
  5
2ECDC8
330
6C
100
AcDbEntity
  8
Widoczne (ISO)
 62
     2
100
AcDbLine
 10
-9403.890345990827
 20
-922.5404607204911
 30
0.0
 11
-9403.390345990827
 21
-922.5404607204911
 31
0.0
  0
ARC
  5
2ECDC9
330
6C
100
AcDbEntity
  8
Widoczne (ISO)
 62
     2
100
AcDbCircle
 10
-9412.557012657496
 20
-914.54046072049
 30
0.0
 40
12.16666666666665
100
AcDbArc
 50
318.8879095606053
 51
41.11209043894374
  0
LINE
  5
2ECDCA
330
6C
100
AcDbEntity
  8
Widoczne (ISO)
 62
     2
100
AcDbLine
 10
-9403.390345990807
 20
-464.5404607204916
 30
0.0
 11
-9403.390345990807
 21
-448.5404607204915
 31
0.0
  0
LINE
  5
2ECDCB
330
6C
100
AcDbEntity
  8
Widoczne (ISO)
 62
     2
100
AcDbLine
 10
-9403.890345990793
 20
-448.5404607204915
 30
0.0
 11
-9403.390345990807
 21
-448.5404607204915
 31
0.0
  0
LINE
  5
2ECDCC
330
6C
100
AcDbEntity
  8
Widoczne (ISO)
 62
     2
100
AcDbLine
 10
-9403.890345990793
 20
-464.5404607204913
 30
0.0
 11
-9403.390345990807
 21
-464.5404607204913
 31
0.0
  0
ARC
  5
2ECDCD
330
6C
100
AcDbEntity
  8
Widoczne (ISO)
 62
     2
100
AcDbCircle
 10
-9412.557012657467
 20
-456.5404607204908
 30
0.0
 40
12.16666666666665
100
AcDbArc
 50
318.8879095606053
 51
41.11209043894374
  0
LINE
  5
2ECDCE
330
6C
100
AcDbEntity
  8
Widoczne (ISO)
 62
     2
100
AcDbLine
 10
-11158.89034599076
 20
257.4595392795231
 30
0.0
 11
-11174.89034599076
 21
257.4595392795231
 31
0.0
  0
LINE
  5
2ECDCF
330
6C
100
AcDbEntity
  8
Widoczne (ISO)
 62
     2
100
AcDbLine
 10
-11174.89034599076
 20
256.9595392795231
 30
0.0
 11
-11174.89034599076
 21
257.4595392795231
 31
0.0
  0
LINE
  5
2ECDD0
330
6C
100
AcDbEntity
  8
Widoczne (ISO)
 62
     2
100
AcDbLine
 10
-11158.89034599076
 20
256.9595392795231
 30
0.0
 11
-11158.89034599076
 21
257.4595392795231
 31
0.0
  0
ARC
  5
2ECDD1
330
6C
100
AcDbEntity
  8
Widoczne (ISO)
 62
     2
100
AcDbCircle
 10
-11166.89034599076
 20
248.2928726128561
 30
0.0
 40
12.16666666666668
100
AcDbArc
 50
48.88790956099226
 51
131.1120904390077
  0
LINE
  5
2ECDD2
330
6C
100
AcDbEntity
  8
Widoczne (ISO)
 62
     2
100
AcDbLine
 10
-9403.390345990757
 20
231.9595392795079
 30
0.0
 11
-9403.390345990757
 21
247.9595392795076
 31
0.0
  0
LINE
  5
2ECDD3
330
6C
100
AcDbEntity
  8
Widoczne (ISO)
 62
     2
100
AcDbLine
 10
-9403.890345990758
 20
247.9595392795076
 30
0.0
 11
-9403.390345990757
 21
247.9595392795076
 31
0.0
  0
LINE
  5
2ECDD4
330
6C
100
AcDbEntity
  8
Widoczne (ISO)
 62
     2
100
AcDbLine
 10
-9403.890345990758
 20
231.9595392795079
 30
0.0
 11
-9403.390345990757
 21
231.9595392795079
 31
0.0
  0
ARC
  5
2ECDD5
330
6C
100
AcDbEntity
  8
Widoczne (ISO)
 62
     2
100
AcDbCircle
 10
-9412.557012657426
 20
239.9595392795083
 30
0.0
 40
12.16666666666666
100
AcDbArc
 50
318.8879095606053
 51
41.11209043894374
  0
LINE
  5
2ECDD6
330
6C
100
AcDbEntity
  8
Widoczne (ISO)
 62
     2
100
AcDbLine
 10
-9428.890345990877
 20
-1523.540460720489
 30
0.0
 11
-9412.890345990886
 21
-1523.540460720491
 31
0.0
  0
LINE
  5
2ECDD7
330
6C
100
AcDbEntity
  8
Widoczne (ISO)
 62
     2
100
AcDbLine
 10
-9412.890345990886
 20
-1523.040460720491
 30
0.0
 11
-9412.890345990886
 21
-1523.540460720491
 31
0.0
  0
LINE
  5
2ECDD8
330
6C
100
AcDbEntity
  8
Widoczne (ISO)
 62
     2
100
AcDbLine
 10
-9428.890345990877
 20
-1523.040460720489
 30
0.0
 11
-9428.890345990877
 21
-1523.540460720489
 31
0.0
  0
ARC
  5
2ECDD9
330
6C
100
AcDbEntity
  8
Widoczne (ISO)
 62
     2
100
AcDbCircle
 10
-9420.890345990876
 20
-1514.373794053823
 30
0.0
 40
12.16666666666666
100
AcDbArc
 50
228.8879095609923
 51
311.1120904390078
  0
LINE
  5
2ECDDA
330
6C
100
AcDbEntity
  8
Widoczne (ISO)
 62
     2
100
AcDbLine
 10
-11184.39034599066
 20
-1498.040460720474
 30
0.0
 11
-11184.39034599066
 21
-1514.040460720474
 31
0.0
  0
LINE
  5
2ECDDB
330
6C
100
AcDbEntity
  8
Widoczne (ISO)
 62
     2
100
AcDbLine
 10
-11183.89034599066
 20
-1514.040460720474
 30
0.0
 11
-11184.39034599066
 21
-1514.040460720474
 31
0.0
  0
LINE
  5
2ECDDC
330
6C
100
AcDbEntity
  8
Widoczne (ISO)
 62
     2
100
AcDbLine
 10
-11183.89034599066
 20
-1498.040460720474
 30
0.0
 11
-11184.39034599066
 21
-1498.040460720474
 31
0.0
  0
ARC
  5
2ECDDD
330
6C
100
AcDbEntity
  8
Widoczne (ISO)
 62
     2
100
AcDbCircle
 10
-11175.223679324
 20
-1506.040460720473
 30
0.0
 40
12.16666666666666
100
AcDbArc
 50
138.8879095610562
 51
221.1120904393947
  0
LINE
  5
2F4506
330
6C
100
AcDbEntity
  8
Widoczne (ISO)
 62
     2
100
AcDbLine
 10
-9403.890345990758
 20
256.9595392795217
 30
0.0
 11
-9403.890345990758
 21
-433.0404607204814
 31
0.0
  0
LINE
  5
2F4507
330
6C
100
AcDbEntity
  8
Widoczne (ISO)
 62
     2
100
AcDbLine
 10
-9403.890345990758
 20
256.9595392795217
 30
0.0
 11
-10493.89034599076
 21
256.9595392795291
 31
0.0
  0
LINE
  5
2F450D
330
6C
100
AcDbEntity
  8
Widoczne (ISO)
 62
     2
100
AcDbLine
 10
-9403.890345990864
 20
-1523.040460720492
 30
0.0
 11
-10093.89034599086
 21
-1523.040460720449
 31
0.0
  0
LINE
  5
2F450E
330
6C
100
AcDbEntity
  8
Widoczne (ISO)
 62
     2
100
AcDbLine
 10
-9403.890345990864
 20
-1523.040460720492
 30
0.0
 11
-9403.890345990793
 21
-433.0404607204932
 31
0.0
  0
LINE
  5
2F4514
330
6C
100
AcDbEntity
  8
Widoczne (ISO)
 62
     2
100
AcDbLine
 10
-11183.89034599077
 20
256.9595392795222
 30
0.0
 11
-10493.89034599077
 21
256.9595392795613
 31
0.0
  0
LINE
  5
2F4515
330
6C
100
AcDbEntity
  8
Widoczne (ISO)
 62
     2
100
AcDbLine
 10
-11183.89034599077
 20
256.9595392795222
 30
0.0
 11
-11183.89034599071
 21
-833.0404607204775
 31
0.0
  0
LINE
  5
2F451B
330
6C
100
AcDbEntity
  8
Widoczne (ISO)
 62
     2
100
AcDbLine
 10
-11183.89034599066
 20
-1523.040460720279
 30
0.0
 11
-11183.89034599058
 21
-833.0404607202824
 31
0.0
  0
LINE
  5
2F451C
330
6C
100
AcDbEntity
  8
Widoczne (ISO)
 62
     2
100
AcDbLine
 10
-11183.89034599066
 20
-1523.040460720279
 30
0.0
 11
-10093.89034599066
 21
-1523.040460720414
 31
0.0
  0
LINE
  5
2F4B90
330
6C
100
AcDbEntity
  8
Widoczne (ISO)
 62
     2
100
AcDbLine
 10
-10893.89034599063
 20
-1233.040460720317
 30
0.0
 11
-9693.890345990759
 21
-1233.040460720317
 31
0.0
  0
LINE
  5
2F4B91
330
6C
100
AcDbEntity
  8
Widoczne (ISO)
 62
     2
100
AcDbLine
 10
-9693.890345990759
 20
-33.04046072047757
 30
0.0
 11
-9693.890345990759
 21
-1233.040460720317
 31
0.0
  0
LINE
  5
2F4B92
330
6C
100
AcDbEntity
  8
Widoczne (ISO)
 62
     2
100
AcDbLine
 10
-9693.890345990759
 20
-33.04046072047757
 30
0.0
 11
-10893.89034599063
 21
-33.04046072047758
 31
0.0
  0
LINE
  5
2F4B93
330
6C
100
AcDbEntity
  8
Widoczne (ISO)
 62
     2
100
AcDbLine
 10
-10893.89034599063
 20
-1233.040460720317
 30
0.0
 11
-10893.89034599063
 21
-33.04046072047757
 31
0.0
  0
ARC
  5
2F533A
330
6C
100
AcDbEntity
  8
0
  6
ACISOTGB
 62
     6
 48
25.0
100
AcDbCircle
 10
-9693.890345990759
 20
-33.04046072047777
 30
0.0
 40
2000.0
100
AcDbArc
 50
0.0
 51
90.0
1001
GENIUS_GENOBJ-N-FIL_13
1002
{
1000
OWNER
1000
GEN
1002
}
1001
GENIUS_GENODEF_13
1002
{
1000
HIER
1070
     0
1002
}
1002
{
1000
MANEDIT
1070
     0
1002
}
1002
{
1000
NOSEL
1070
     0
1002
}
1002
{
1000
BEHIND
1070
     0
1002
}
1002
{
1000
OTHER
1070
     0
1002
}
1002
{
1000
REACTOR
1002
}
  0
ARC
  5
2F533B
330
6C
100
AcDbEntity
  8
0
  6
ACISOTGB
 62
     6
 48
25.0
100
AcDbCircle
 10
-10893.89034599063
 20
-33.04046072047709
 30
0.0
 40
2000.0
100
AcDbArc
 50
90.0
 51
180.0
1001
GENIUS_GENODEF_13
1002
{
1000
HIER
1070
     0
1002
}
1002
{
1000
MANEDIT
1070
     0
1002
}
1002
{
1000
NOSEL
1070
     0
1002
}
1002
{
1000
BEHIND
1070
     0
1002
}
1002
{
1000
OTHER
1070
     0
1002
}
1002
{
1000
REACTOR
1002
}
1001
GENIUS_GENOBJ-N-FIL_13
1002
{
1000
OWNER
1000
GEN
1002
}
  0
ARC
  5
2F533C
330
6C
100
AcDbEntity
  8
0
  6
ACISOTGB
 62
     6
 48
25.0
100
AcDbCircle
 10
-9693.890345990759
 20
-1233.040460720477
 30
0.0
 40
2000.0
100
AcDbArc
 50
270.0
 51
0.0
1001
GENIUS_GENODEF_13
1002
{
1000
HIER
1070
     0
1002
}
1002
{
1000
MANEDIT
1070
     0
1002
}
1002
{
1000
NOSEL
1070
     0
1002
}
1002
{
1000
BEHIND
1070
     0
1002
}
1002
{
1000
OTHER
1070
     0
1002
}
1002
{
1000
REACTOR
1002
}
1001
GENIUS_GENOBJ-N-FIL_13
1002
{
1000
OWNER
1000
GEN
1002
}
  0
ARC
  5
2F533D
330
6C
100
AcDbEntity
  8
0
  6
ACISOTGB
 62
     6
 48
25.0
100
AcDbCircle
 10
-10893.89034599063
 20
-1233.040460720477
 30
0.0
 40
2000.0
100
AcDbArc
 50
180.0
 51
270.0
1001
GENIUS_GENODEF_13
1002
{
1000
HIER
1070
     0
1002
}
1002
{
1000
MANEDIT
1070
     0
1002
}
1002
{
1000
NOSEL
1070
     0
1002
}
1002
{
1000
BEHIND
1070
     0
1002
}
1002
{
1000
OTHER
1070
     0
1002
}
1002
{
1000
REACTOR
1002
}
1001
GENIUS_GENOBJ-N-FIL_13
1002
{
1000
OWNER
1000
GEN
1002
}
  0
INSERT
  5
2F533E
330
6C
100
AcDbEntity
  8
0
 62
     7
100
AcDbBlockReference
  2
gggr
 10
-28745.14191903907
 20
-1165.044217938435
 30
0.0
  0
INSERT
  5
2F533F
330
6C
100
AcDbEntity
  8
0
 62
     7
100
AcDbBlockReference
  2
gggr
 10
-28680.14191903908
 20
-1190.044217938434
 30
0.0
  0
INSERT
  5
2F5340
330
6C
100
AcDbEntity
  8
0
 62
     7
100
AcDbBlockReference
  2
gggr
 10
-28745.14191903907
 20
-1215.044217938435
 30
0.0
  0
INSERT
  5
2F5341
330
6C
100
AcDbEntity
  8
0
 62
     7
100
AcDbBlockReference
  2
gggr
 10
-28680.14191903908
 20
-1240.044217938435
 30
0.0
  0
INSERT
  5
2F5342
330
6C
100
AcDbEntity
  8
0
 62
     7
100
AcDbBlockReference
  2
gggr
 10
-28745.14191903907
 20
-1265.044217938435
 30
0.0
  0
INSERT
  5
2F5343
330
6C
100
AcDbEntity
  8
0
 62
     7
100
AcDbBlockReference
  2
gggr
 10
-28680.14191903908
 20
-1290.044217938435
 30
0.0
  0
INSERT
  5
2F5344
330
6C
100
AcDbEntity
  8
0
 62
     7
100
AcDbBlockReference
  2
gggr
 10
-28745.14191903907
 20
-1315.044217938434
 30
0.0
  0
INSERT
  5
2F5345
330
6C
100
AcDbEntity
  8
0
 62
     7
100
AcDbBlockReference
  2
gggr
 10
-28680.14191903908
 20
-1340.044217938435
 30
0.0
  0
INSERT
  5
2F5346
330
6C
100
AcDbEntity
  8
0
 62
     7
100
AcDbBlockReference
  2
gggr
 10
-28745.14191903907
 20
-1365.044217938435
 30
0.0
  0
INSERT
  5
2F5347
330
6C
100
AcDbEntity
  8
0
 62
     7
100
AcDbBlockReference
  2
gggr
 10
-28680.14191903908
 20
-1390.044217938435
 30
0.0
  0
INSERT
  5
2F5348
330
6C
100
AcDbEntity
  8
0
 62
     7
100
AcDbBlockReference
  2
gggr
 10
-28745.14191903907
 20
-1415.044217938435
 30
0.0
  0
INSERT
  5
2F5349
330
6C
100
AcDbEntity
  8
0
 62
     7
100
AcDbBlockReference
  2
gggr
 10
-28680.14191903908
 20
-1440.044217938434
 30
0.0
  0
INSERT
  5
2F534A
330
6C
100
AcDbEntity
  8
0
 62
     7
100
AcDbBlockReference
  2
gggr
 10
-28745.14191903907
 20
-1465.044217938435
 30
0.0
  0
INSERT
  5
2F534B
330
6C
100
AcDbEntity
  8
0
 62
     7
100
AcDbBlockReference
  2
gggr
 10
-28680.14191903908
 20
-1490.044217938435
 30
0.0
  0
INSERT
  5
2F534C
330
6C
100
AcDbEntity
  8
0
 62
     7
100
AcDbBlockReference
  2
gggr
 10
-28745.14191903907
 20
-1515.044217938435
 30
0.0
  0
INSERT
  5
2F534D
330
6C
100
AcDbEntity
  8
0
 62
     7
100
AcDbBlockReference
  2
gggr
 10
-28680.14191903908
 20
-1540.044217938435
 30
0.0
  0
INSERT
  5
2F534E
330
6C
100
AcDbEntity
  8
0
 62
     7
100
AcDbBlockReference
  2
gggr
 10
-28745.14191903907
 20
-1565.044217938434
 30
0.0
  0
INSERT
  5
2F534F
330
6C
100
AcDbEntity
  8
0
 62
     7
100
AcDbBlockReference
  2
gggr
 10
-28680.14191903908
 20
-1590.044217938435
 30
0.0
  0
INSERT
  5
2F5350
330
6C
100
AcDbEntity
  8
0
 62
     7
100
AcDbBlockReference
  2
gggr
 10
-28745.14191903907
 20
-1615.044217938435
 30
0.0
  0
INSERT
  5
2F5351
330
6C
100
AcDbEntity
  8
0
 62
     7
100
AcDbBlockReference
  2
gggr
 10
-28680.14191903908
 20
-1640.044217938435
 30
0.0
  0
INSERT
  5
2F5352
330
6C
100
AcDbEntity
  8
0
 62
     7
100
AcDbBlockReference
  2
gggr
 10
-28745.14191903907
 20
-1665.044217938435
 30
0.0
  0
INSERT
  5
2F5353
330
6C
100
AcDbEntity
  8
0
 62
     7
100
AcDbBlockReference
  2
gggr
 10
-28680.14191903908
 20
-1690.044217938435
 30
0.0
  0
INSERT
  5
2F5354
330
6C
100
AcDbEntity
  8
0
 62
     7
100
AcDbBlockReference
  2
gggr
 10
-28745.14191903907
 20
-1715.044217938435
 30
0.0
  0
INSERT
  5
2F5355
330
6C
100
AcDbEntity
  8
0
 62
     7
100
AcDbBlockReference
  2
gggr
 10
-28680.14191903908
 20
-1740.044217938435
 30
0.0
  0
INSERT
  5
2F5356
330
6C
100
AcDbEntity
  8
0
 62
     7
100
AcDbBlockReference
  2
gggr
 10
-28745.14191903907
 20
-1765.044217938435
 30
0.0
  0
INSERT
  5
2F5357
330
6C
100
AcDbEntity
  8
0
 62
     7
100
AcDbBlockReference
  2
gggr
 10
-28680.14191903908
 20
-1790.044217938435
 30
0.0
  0
INSERT
  5
2F5358
330
6C
100
AcDbEntity
  8
0
 62
     7
100
AcDbBlockReference
  2
gggr
 10
-28745.14191903907
 20
-1815.044217938435
 30
0.0
  0
INSERT
  5
2F5359
330
6C
100
AcDbEntity
  8
0
 62
     7
100
AcDbBlockReference
  2
gggr
 10
-28680.14191903908
 20
-1840.044217938435
 30
0.0
  0
INSERT
  5
2F535A
330
6C
100
AcDbEntity
  8
0
 62
     7
100
AcDbBlockReference
  2
gggr
 10
-28615.14191903907
 20
-1165.044217938435
 30
0.0
  0
INSERT
  5
2F535B
330
6C
100
AcDbEntity
  8
0
 62
     7
100
AcDbBlockReference
  2
gggr
 10
-28550.14191903908
 20
-1190.044217938434
 30
0.0
  0
INSERT
  5
2F535C
330
6C
100
AcDbEntity
  8
0
 62
     7
100
AcDbBlockReference
  2
gggr
 10
-28615.14191903907
 20
-1215.044217938435
 30
0.0
  0
INSERT
  5
2F535D
330
6C
100
AcDbEntity
  8
0
 62
     7
100
AcDbBlockReference
  2
gggr
 10
-28550.14191903908
 20
-1240.044217938435
 30
0.0
  0
INSERT
  5
2F535E
330
6C
100
AcDbEntity
  8
0
 62
     7
100
AcDbBlockReference
  2
gggr
 10
-28615.14191903907
 20
-1265.044217938435
 30
0.0
  0
INSERT
  5
2F535F
330
6C
100
AcDbEntity
  8
0
 62
     7
100
AcDbBlockReference
  2
gggr
 10
-28550.14191903908
 20
-1290.044217938435
 30
0.0
  0
INSERT
  5
2F5360
330
6C
100
AcDbEntity
  8
0
 62
     7
100
AcDbBlockReference
  2
gggr
 10
-28615.14191903907
 20
-1315.044217938434
 30
0.0
  0
INSERT
  5
2F5361
330
6C
100
AcDbEntity
  8
0
 62
     7
100
AcDbBlockReference
  2
gggr
 10
-28550.14191903908
 20
-1340.044217938435
 30
0.0
  0
INSERT
  5
2F5362
330
6C
100
AcDbEntity
  8
0
 62
     7
100
AcDbBlockReference
  2
gggr
 10
-28615.14191903907
 20
-1365.044217938435
 30
0.0
  0
INSERT
  5
2F5363
330
6C
100
AcDbEntity
  8
0
 62
     7
100
AcDbBlockReference
  2
gggr
 10
-28550.14191903908
 20
-1390.044217938435
 30
0.0
  0
INSERT
  5
2F5364
330
6C
100
AcDbEntity
  8
0
 62
     7
100
AcDbBlockReference
  2
gggr
 10
-28615.14191903907
 20
-1415.044217938435
 30
0.0
  0
INSERT
  5
2F5365
330
6C
100
AcDbEntity
  8
0
 62
     7
100
AcDbBlockReference
  2
gggr
 10
-28550.14191903908
 20
-1440.044217938434
 30
0.0
  0
INSERT
  5
2F5366
330
6C
100
AcDbEntity
  8
0
 62
     7
100
AcDbBlockReference
  2
gggr
 10
-28615.14191903907
 20
-1465.044217938435
 30
0.0
  0
INSERT
  5
2F5367
330
6C
100
AcDbEntity
  8
0
 62
     7
100
AcDbBlockReference
  2
gggr
 10
-28550.14191903908
 20
-1490.044217938435
 30
0.0
  0
INSERT
  5
2F5368
330
6C
100
AcDbEntity
  8
0
 62
     7
100
AcDbBlockReference
  2
gggr
 10
-28615.14191903907
 20
-1515.044217938435
 30
0.0
  0
INSERT
  5
2F5369
330
6C
100
AcDbEntity
  8
0
 62
     7
100
AcDbBlockReference
  2
gggr
 10
-28550.14191903908
 20
-1540.044217938435
 30
0.0
  0
INSERT
  5
2F536A
330
6C
100
AcDbEntity
  8
0
 62
     7
100
AcDbBlockReference
  2
gggr
 10
-28615.14191903907
 20
-1565.044217938434
 30
0.0
  0
INSERT
  5
2F536B
330
6C
100
AcDbEntity
  8
0
 62
     7
100
AcDbBlockReference
  2
gggr
 10
-28550.14191903908
 20
-1590.044217938435
 30
0.0
  0
INSERT
  5
2F536C
330
6C
100
AcDbEntity
  8
0
 62
     7
100
AcDbBlockReference
  2
gggr
 10
-28615.14191903907
 20
-1615.044217938435
 30
0.0
  0
INSERT
  5
2F536D
330
6C
100
AcDbEntity
  8
0
 62
     7
100
AcDbBlockReference
  2
gggr
 10
-28550.14191903908
 20
-1640.044217938435
 30
0.0
  0
INSERT
  5
2F536E
330
6C
100
AcDbEntity
  8
0
 62
     7
100
AcDbBlockReference
  2
gggr
 10
-28615.14191903907
 20
-1665.044217938435
 30
0.0
  0
INSERT
  5
2F536F
330
6C
100
AcDbEntity
  8
0
 62
     7
100
AcDbBlockReference
  2
gggr
 10
-28550.14191903908
 20
-1690.044217938435
 30
0.0
  0
INSERT
  5
2F5370
330
6C
100
AcDbEntity
  8
0
 62
     7
100
AcDbBlockReference
  2
gggr
 10
-28615.14191903907
 20
-1715.044217938435
 30
0.0
  0
INSERT
  5
2F5371
330
6C
100
AcDbEntity
  8
0
 62
     7
100
AcDbBlockReference
  2
gggr
 10
-28550.14191903908
 20
-1740.044217938435
 30
0.0
  0
INSERT
  5
2F5372
330
6C
100
AcDbEntity
  8
0
 62
     7
100
AcDbBlockReference
  2
gggr
 10
-28615.14191903907
 20
-1765.044217938435
 30
0.0
  0
INSERT
  5
2F5373
330
6C
100
AcDbEntity
  8
0
 62
     7
100
AcDbBlockReference
  2
gggr
 10
-28550.14191903908
 20
-1790.044217938435
 30
0.0
  0
INSERT
  5
2F5374
330
6C
100
AcDbEntity
  8
0
 62
     7
100
AcDbBlockReference
  2
gggr
 10
-28615.14191903907
 20
-1815.044217938435
 30
0.0
  0
INSERT
  5
2F5375
330
6C
100
AcDbEntity
  8
0
 62
     7
100
AcDbBlockReference
  2
gggr
 10
-28550.14191903908
 20
-1840.044217938435
 30
0.0
  0
INSERT
  5
2F5376
330
6C
100
AcDbEntity
  8
0
 62
     7
100
AcDbBlockReference
  2
gggr
 10
-28485.14191903907
 20
-1165.044217938435
 30
0.0
  0
INSERT
  5
2F5377
330
6C
100
AcDbEntity
  8
0
 62
     7
100
AcDbBlockReference
  2
gggr
 10
-28420.14191903908
 20
-1190.044217938434
 30
0.0
  0
INSERT
  5
2F5378
330
6C
100
AcDbEntity
  8
0
 62
     7
100
AcDbBlockReference
  2
gggr
 10
-28485.14191903907
 20
-1215.044217938435
 30
0.0
  0
INSERT
  5
2F5379
330
6C
100
AcDbEntity
  8
0
 62
     7
100
AcDbBlockReference
  2
gggr
 10
-28420.14191903908
 20
-1240.044217938435
 30
0.0
  0
INSERT
  5
2F537A
330
6C
100
AcDbEntity
  8
0
 62
     7
100
AcDbBlockReference
  2
gggr
 10
-28485.14191903907
 20
-1265.044217938435
 30
0.0
  0
INSERT
  5
2F537B
330
6C
100
AcDbEntity
  8
0
 62
     7
100
AcDbBlockReference
  2
gggr
 10
-28420.14191903908
 20
-1290.044217938435
 30
0.0
  0
INSERT
  5
2F537C
330
6C
100
AcDbEntity
  8
0
 62
     7
100
AcDbBlockReference
  2
gggr
 10
-28485.14191903907
 20
-1315.044217938434
 30
0.0
  0
INSERT
  5
2F537D
330
6C
100
AcDbEntity
  8
0
 62
     7
100
AcDbBlockReference
  2
gggr
 10
-28420.14191903908
 20
-1340.044217938435
 30
0.0
  0
INSERT
  5
2F537E
330
6C
100
AcDbEntity
  8
0
 62
     7
100
AcDbBlockReference
  2
gggr
 10
-28485.14191903907
 20
-1365.044217938435
 30
0.0
  0
INSERT
  5
2F537F
330
6C
100
AcDbEntity
  8
0
 62
     7
100
AcDbBlockReference
  2
gggr
 10
-28420.14191903908
 20
-1390.044217938435
 30
0.0
  0
INSERT
  5
2F5380
330
6C
100
AcDbEntity
  8
0
 62
     7
100
AcDbBlockReference
  2
gggr
 10
-28485.14191903907
 20
-1415.044217938435
 30
0.0
  0
INSERT
  5
2F5381
330
6C
100
AcDbEntity
  8
0
 62
     7
100
AcDbBlockReference
  2
gggr
 10
-28420.14191903908
 20
-1440.044217938434
 30
0.0
  0
INSERT
  5
2F5382
330
6C
100
AcDbEntity
  8
0
 62
     7
100
AcDbBlockReference
  2
gggr
 10
-28485.14191903907
 20
-1465.044217938435
 30
0.0
  0
INSERT
  5
2F5383
330
6C
100
AcDbEntity
  8
0
 62
     7
100
AcDbBlockReference
  2
gggr
 10
-28420.14191903908
 20
-1490.044217938435
 30
0.0
  0
INSERT
  5
2F5384
330
6C
100
AcDbEntity
  8
0
 62
     7
100
AcDbBlockReference
  2
gggr
 10
-28485.14191903907
 20
-1515.044217938435
 30
0.0
  0
INSERT
  5
2F5385
330
6C
100
AcDbEntity
  8
0
 62
     7
100
AcDbBlockReference
  2
gggr
 10
-28420.14191903908
 20
-1540.044217938435
 30
0.0
  0
INSERT
  5
2F5386
330
6C
100
AcDbEntity
  8
0
 62
     7
100
AcDbBlockReference
  2
gggr
 10
-28485.14191903907
 20
-1565.044217938434
 30
0.0
  0
INSERT
  5
2F5387
330
6C
100
AcDbEntity
  8
0
 62
     7
100
AcDbBlockReference
  2
gggr
 10
-28420.14191903908
 20
-1590.044217938435
 30
0.0
  0
INSERT
  5
2F5388
330
6C
100
AcDbEntity
  8
0
 62
     7
100
AcDbBlockReference
  2
gggr
 10
-28485.14191903907
 20
-1615.044217938435
 30
0.0
  0
INSERT
  5
2F5389
330
6C
100
AcDbEntity
  8
0
 62
     7
100
AcDbBlockReference
  2
gggr
 10
-28420.14191903908
 20
-1640.044217938435
 30
0.0
  0
INSERT
  5
2F538A
330
6C
100
AcDbEntity
  8
0
 62
     7
100
AcDbBlockReference
  2
gggr
 10
-28485.14191903907
 20
-1665.044217938435
 30
0.0
  0
INSERT
  5
2F538B
330
6C
100
AcDbEntity
  8
0
 62
     7
100
AcDbBlockReference
  2
gggr
 10
-28420.14191903908
 20
-1690.044217938435
 30
0.0
  0
INSERT
  5
2F538C
330
6C
100
AcDbEntity
  8
0
 62
     7
100
AcDbBlockReference
  2
gggr
 10
-28485.14191903907
 20
-1715.044217938435
 30
0.0
  0
INSERT
  5
2F538D
330
6C
100
AcDbEntity
  8
0
 62
     7
100
AcDbBlockReference
  2
gggr
 10
-28420.14191903908
 20
-1740.044217938435
 30
0.0
  0
INSERT
  5
2F538E
330
6C
100
AcDbEntity
  8
0
 62
     7
100
AcDbBlockReference
  2
gggr
 10
-28485.14191903907
 20
-1765.044217938435
 30
0.0
  0
INSERT
  5
2F538F
330
6C
100
AcDbEntity
  8
0
 62
     7
100
AcDbBlockReference
  2
gggr
 10
-28420.14191903908
 20
-1790.044217938435
 30
0.0
  0
INSERT
  5
2F5390
330
6C
100
AcDbEntity
  8
0
 62
     7
100
AcDbBlockReference
  2
gggr
 10
-28485.14191903907
 20
-1815.044217938435
 30
0.0
  0
INSERT
  5
2F5391
330
6C
100
AcDbEntity
  8
0
 62
     7
100
AcDbBlockReference
  2
gggr
 10
-28420.14191903908
 20
-1840.044217938435
 30
0.0
  0
INSERT
  5
2F5392
330
6C
100
AcDbEntity
  8
0
 62
     7
100
AcDbBlockReference
  2
gggr
 10
-28355.14191903907
 20
-1165.044217938435
 30
0.0
  0
INSERT
  5
2F5393
330
6C
100
AcDbEntity
  8
0
 62
     7
100
AcDbBlockReference
  2
gggr
 10
-28290.14191903907
 20
-1190.044217938434
 30
0.0
  0
INSERT
  5
2F5394
330
6C
100
AcDbEntity
  8
0
 62
     7
100
AcDbBlockReference
  2
gggr
 10
-28355.14191903907
 20
-1215.044217938435
 30
0.0
  0
INSERT
  5
2F5395
330
6C
100
AcDbEntity
  8
0
 62
     7
100
AcDbBlockReference
  2
gggr
 10
-28290.14191903907
 20
-1240.044217938435
 30
0.0
  0
INSERT
  5
2F5396
330
6C
100
AcDbEntity
  8
0
 62
     7
100
AcDbBlockReference
  2
gggr
 10
-28355.14191903907
 20
-1265.044217938435
 30
0.0
  0
INSERT
  5
2F5397
330
6C
100
AcDbEntity
  8
0
 62
     7
100
AcDbBlockReference
  2
gggr
 10
-28290.14191903907
 20
-1290.044217938435
 30
0.0
  0
INSERT
  5
2F5398
330
6C
100
AcDbEntity
  8
0
 62
     7
100
AcDbBlockReference
  2
gggr
 10
-28355.14191903907
 20
-1315.044217938434
 30
0.0
  0
INSERT
  5
2F5399
330
6C
100
AcDbEntity
  8
0
 62
     7
100
AcDbBlockReference
  2
gggr
 10
-28290.14191903907
 20
-1340.044217938435
 30
0.0
  0
INSERT
  5
2F539A
330
6C
100
AcDbEntity
  8
0
 62
     7
100
AcDbBlockReference
  2
gggr
 10
-28355.14191903907
 20
-1365.044217938435
 30
0.0
  0
INSERT
  5
2F539B
330
6C
100
AcDbEntity
  8
0
 62
     7
100
AcDbBlockReference
  2
gggr
 10
-28290.14191903907
 20
-1390.044217938435
 30
0.0
  0
INSERT
  5
2F539C
330
6C
100
AcDbEntity
  8
0
 62
     7
100
AcDbBlockReference
  2
gggr
 10
-28355.14191903907
 20
-1415.044217938435
 30
0.0
  0
INSERT
  5
2F539D
330
6C
100
AcDbEntity
  8
0
 62
     7
100
AcDbBlockReference
  2
gggr
 10
-28290.14191903907
 20
-1440.044217938434
 30
0.0
  0
INSERT
  5
2F539E
330
6C
100
AcDbEntity
  8
0
 62
     7
100
AcDbBlockReference
  2
gggr
 10
-28355.14191903907
 20
-1465.044217938435
 30
0.0
  0
INSERT
  5
2F539F
330
6C
100
AcDbEntity
  8
0
 62
     7
100
AcDbBlockReference
  2
gggr
 10
-28290.14191903907
 20
-1490.044217938435
 30
0.0
  0
INSERT
  5
2F53A0
330
6C
100
AcDbEntity
  8
0
 62
     7
100
AcDbBlockReference
  2
gggr
 10
-28355.14191903907
 20
-1515.044217938435
 30
0.0
  0
INSERT
  5
2F53A1
330
6C
100
AcDbEntity
  8
0
 62
     7
100
AcDbBlockReference
  2
gggr
 10
-28290.14191903907
 20
-1540.044217938435
 30
0.0
  0
INSERT
  5
2F53A2
330
6C
100
AcDbEntity
  8
0
 62
     7
100
AcDbBlockReference
  2
gggr
 10
-28355.14191903907
 20
-1565.044217938434
 30
0.0
  0
INSERT
  5
2F53A3
330
6C
100
AcDbEntity
  8
0
 62
     7
100
AcDbBlockReference
  2
gggr
 10
-28290.14191903907
 20
-1590.044217938435
 30
0.0
  0
INSERT
  5
2F53A4
330
6C
100
AcDbEntity
  8
0
 62
     7
100
AcDbBlockReference
  2
gggr
 10
-28355.14191903907
 20
-1615.044217938435
 30
0.0
  0
INSERT
  5
2F53A5
330
6C
100
AcDbEntity
  8
0
 62
     7
100
AcDbBlockReference
  2
gggr
 10
-28290.14191903907
 20
-1640.044217938435
 30
0.0
  0
INSERT
  5
2F53A6
330
6C
100
AcDbEntity
  8
0
 62
     7
100
AcDbBlockReference
  2
gggr
 10
-28355.14191903907
 20
-1665.044217938435
 30
0.0
  0
INSERT
  5
2F53A7
330
6C
100
AcDbEntity
  8
0
 62
     7
100
AcDbBlockReference
  2
gggr
 10
-28290.14191903907
 20
-1690.044217938435
 30
0.0
  0
INSERT
  5
2F53A8
330
6C
100
AcDbEntity
  8
0
 62
     7
100
AcDbBlockReference
  2
gggr
 10
-28355.14191903907
 20
-1715.044217938435
 30
0.0
  0
INSERT
  5
2F53A9
330
6C
100
AcDbEntity
  8
0
 62
     7
100
AcDbBlockReference
  2
gggr
 10
-28290.14191903907
 20
-1740.044217938435
 30
0.0
  0
INSERT
  5
2F53AA
330
6C
100
AcDbEntity
  8
0
 62
     7
100
AcDbBlockReference
  2
gggr
 10
-28355.14191903907
 20
-1765.044217938435
 30
0.0
  0
INSERT
  5
2F53AB
330
6C
100
AcDbEntity
  8
0
 62
     7
100
AcDbBlockReference
  2
gggr
 10
-28290.14191903907
 20
-1790.044217938435
 30
0.0
  0
INSERT
  5
2F53AC
330
6C
100
AcDbEntity
  8
0
 62
     7
100
AcDbBlockReference
  2
gggr
 10
-28355.14191903907
 20
-1815.044217938435
 30
0.0
  0
INSERT
  5
2F53AD
330
6C
100
AcDbEntity
  8
0
 62
     7
100
AcDbBlockReference
  2
gggr
 10
-28290.14191903907
 20
-1840.044217938435
 30
0.0
  0
INSERT
  5
2F53AE
330
6C
100
AcDbEntity
  8
0
 62
     7
100
AcDbBlockReference
  2
gggr
 10
-28225.14191903907
 20
-1165.044217938435
 30
0.0
  0
INSERT
  5
2F53AF
330
6C
100
AcDbEntity
  8
0
 62
     7
100
AcDbBlockReference
  2
gggr
 10
-28160.14191903907
 20
-1190.044217938434
 30
0.0
  0
INSERT
  5
2F53B0
330
6C
100
AcDbEntity
  8
0
 62
     7
100
AcDbBlockReference
  2
gggr
 10
-28225.14191903907
 20
-1215.044217938435
 30
0.0
  0
INSERT
  5
2F53B1
330
6C
100
AcDbEntity
  8
0
 62
     7
100
AcDbBlockReference
  2
gggr
 10
-28160.14191903907
 20
-1240.044217938435
 30
0.0
  0
INSERT
  5
2F53B2
330
6C
100
AcDbEntity
  8
0
 62
     7
100
AcDbBlockReference
  2
gggr
 10
-28225.14191903907
 20
-1265.044217938435
 30
0.0
  0
INSERT
  5
2F53B3
330
6C
100
AcDbEntity
  8
0
 62
     7
100
AcDbBlockReference
  2
gggr
 10
-28160.14191903907
 20
-1290.044217938435
 30
0.0
  0
INSERT
  5
2F53B4
330
6C
100
AcDbEntity
  8
0
 62
     7
100
AcDbBlockReference
  2
gggr
 10
-28225.14191903907
 20
-1315.044217938434
 30
0.0
  0
INSERT
  5
2F53B5
330
6C
100
AcDbEntity
  8
0
 62
     7
100
AcDbBlockReference
  2
gggr
 10
-28160.14191903907
 20
-1340.044217938435
 30
0.0
  0
INSERT
  5
2F53B6
330
6C
100
AcDbEntity
  8
0
 62
     7
100
AcDbBlockReference
  2
gggr
 10
-28225.14191903907
 20
-1365.044217938435
 30
0.0
  0
INSERT
  5
2F53B7
330
6C
100
AcDbEntity
  8
0
 62
     7
100
AcDbBlockReference
  2
gggr
 10
-28160.14191903907
 20
-1390.044217938435
 30
0.0
  0
INSERT
  5
2F53B8
330
6C
100
AcDbEntity
  8
0
 62
     7
100
AcDbBlockReference
  2
gggr
 10
-28225.14191903907
 20
-1415.044217938435
 30
0.0
  0
INSERT
  5
2F53B9
330
6C
100
AcDbEntity
  8
0
 62
     7
100
AcDbBlockReference
  2
gggr
 10
-28160.14191903907
 20
-1440.044217938434
 30
0.0
  0
INSERT
  5
2F53BA
330
6C
100
AcDbEntity
  8
0
 62
     7
100
AcDbBlockReference
  2
gggr
 10
-28225.14191903907
 20
-1465.044217938435
 30
0.0
  0
INSERT
  5
2F53BB
330
6C
100
AcDbEntity
  8
0
 62
     7
100
AcDbBlockReference
  2
gggr
 10
-28160.14191903907
 20
-1490.044217938435
 30
0.0
  0
INSERT
  5
2F53BC
330
6C
100
AcDbEntity
  8
0
 62
     7
100
AcDbBlockReference
  2
gggr
 10
-28225.14191903907
 20
-1515.044217938435
 30
0.0
  0
INSERT
  5
2F53BD
330
6C
100
AcDbEntity
  8
0
 62
     7
100
AcDbBlockReference
  2
gggr
 10
-28160.14191903907
 20
-1540.044217938435
 30
0.0
  0
INSERT
  5
2F53BE
330
6C
100
AcDbEntity
  8
0
 62
     7
100
AcDbBlockReference
  2
gggr
 10
-28225.14191903907
 20
-1565.044217938434
 30
0.0
  0
INSERT
  5
2F53BF
330
6C
100
AcDbEntity
  8
0
 62
     7
100
AcDbBlockReference
  2
gggr
 10
-28160.14191903907
 20
-1590.044217938435
 30
0.0
  0
INSERT
  5
2F53C0
330
6C
100
AcDbEntity
  8
0
 62
     7
100
AcDbBlockReference
  2
gggr
 10
-28225.14191903907
 20
-1615.044217938435
 30
0.0
  0
INSERT
  5
2F53C1
330
6C
100
AcDbEntity
  8
0
 62
     7
100
AcDbBlockReference
  2
gggr
 10
-28160.14191903907
 20
-1640.044217938435
 30
0.0
  0
INSERT
  5
2F53C2
330
6C
100
AcDbEntity
  8
0
 62
     7
100
AcDbBlockReference
  2
gggr
 10
-28225.14191903907
 20
-1665.044217938435
 30
0.0
  0
INSERT
  5
2F53C3
330
6C
100
AcDbEntity
  8
0
 62
     7
100
AcDbBlockReference
  2
gggr
 10
-28160.14191903907
 20
-1690.044217938435
 30
0.0
  0
INSERT
  5
2F53C4
330
6C
100
AcDbEntity
  8
0
 62
     7
100
AcDbBlockReference
  2
gggr
 10
-28225.14191903907
 20
-1715.044217938435
 30
0.0
  0
INSERT
  5
2F53C5
330
6C
100
AcDbEntity
  8
0
 62
     7
100
AcDbBlockReference
  2
gggr
 10
-28160.14191903907
 20
-1740.044217938435
 30
0.0
  0
INSERT
  5
2F53C6
330
6C
100
AcDbEntity
  8
0
 62
     7
100
AcDbBlockReference
  2
gggr
 10
-28225.14191903907
 20
-1765.044217938435
 30
0.0
  0
INSERT
  5
2F53C7
330
6C
100
AcDbEntity
  8
0
 62
     7
100
AcDbBlockReference
  2
gggr
 10
-28160.14191903907
 20
-1790.044217938435
 30
0.0
  0
INSERT
  5
2F53C8
330
6C
100
AcDbEntity
  8
0
 62
     7
100
AcDbBlockReference
  2
gggr
 10
-28225.14191903907
 20
-1815.044217938435
 30
0.0
  0
INSERT
  5
2F53C9
330
6C
100
AcDbEntity
  8
0
 62
     7
100
AcDbBlockReference
  2
gggr
 10
-28160.14191903907
 20
-1840.044217938435
 30
0.0
  0
INSERT
  5
2F53CA
330
6C
100
AcDbEntity
  8
0
 62
     7
100
AcDbBlockReference
  2
gggr
 10
-28095.14191903907
 20
-1165.044217938435
 30
0.0
  0
INSERT
  5
2F53CB
330
6C
100
AcDbEntity
  8
0
 62
     7
100
AcDbBlockReference
  2
gggr
 10
-28030.14191903907
 20
-1190.044217938434
 30
0.0
  0
INSERT
  5
2F53CC
330
6C
100
AcDbEntity
  8
0
 62
     7
100
AcDbBlockReference
  2
gggr
 10
-28095.14191903907
 20
-1215.044217938435
 30
0.0
  0
INSERT
  5
2F53CD
330
6C
100
AcDbEntity
  8
0
 62
     7
100
AcDbBlockReference
  2
gggr
 10
-28030.14191903907
 20
-1240.044217938435
 30
0.0
  0
INSERT
  5
2F53CE
330
6C
100
AcDbEntity
  8
0
 62
     7
100
AcDbBlockReference
  2
gggr
 10
-28095.14191903907
 20
-1265.044217938435
 30
0.0
  0
INSERT
  5
2F53CF
330
6C
100
AcDbEntity
  8
0
 62
     7
100
AcDbBlockReference
  2
gggr
 10
-28030.14191903907
 20
-1290.044217938435
 30
0.0
  0
INSERT
  5
2F53D0
330
6C
100
AcDbEntity
  8
0
 62
     7
100
AcDbBlockReference
  2
gggr
 10
-28095.14191903907
 20
-1315.044217938434
 30
0.0
  0
INSERT
  5
2F53D1
330
6C
100
AcDbEntity
  8
0
 62
     7
100
AcDbBlockReference
  2
gggr
 10
-28030.14191903907
 20
-1340.044217938435
 30
0.0
  0
INSERT
  5
2F53D2
330
6C
100
AcDbEntity
  8
0
 62
     7
100
AcDbBlockReference
  2
gggr
 10
-28095.14191903907
 20
-1365.044217938435
 30
0.0
  0
INSERT
  5
2F53D3
330
6C
100
AcDbEntity
  8
0
 62
     7
100
AcDbBlockReference
  2
gggr
 10
-28030.14191903907
 20
-1390.044217938435
 30
0.0
  0
INSERT
  5
2F53D4
330
6C
100
AcDbEntity
  8
0
 62
     7
100
AcDbBlockReference
  2
gggr
 10
-28095.14191903907
 20
-1415.044217938435
 30
0.0
  0
INSERT
  5
2F53D5
330
6C
100
AcDbEntity
  8
0
 62
     7
100
AcDbBlockReference
  2
gggr
 10
-28030.14191903907
 20
-1440.044217938434
 30
0.0
  0
INSERT
  5
2F53D6
330
6C
100
AcDbEntity
  8
0
 62
     7
100
AcDbBlockReference
  2
gggr
 10
-28095.14191903907
 20
-1465.044217938435
 30
0.0
  0
INSERT
  5
2F53D7
330
6C
100
AcDbEntity
  8
0
 62
     7
100
AcDbBlockReference
  2
gggr
 10
-28030.14191903907
 20
-1490.044217938435
 30
0.0
  0
INSERT
  5
2F53D8
330
6C
100
AcDbEntity
  8
0
 62
     7
100
AcDbBlockReference
  2
gggr
 10
-28095.14191903907
 20
-1515.044217938435
 30
0.0
  0
INSERT
  5
2F53D9
330
6C
100
AcDbEntity
  8
0
 62
     7
100
AcDbBlockReference
  2
gggr
 10
-28030.14191903907
 20
-1540.044217938435
 30
0.0
  0
INSERT
  5
2F53DA
330
6C
100
AcDbEntity
  8
0
 62
     7
100
AcDbBlockReference
  2
gggr
 10
-28095.14191903907
 20
-1565.044217938434
 30
0.0
  0
INSERT
  5
2F53DB
330
6C
100
AcDbEntity
  8
0
 62
     7
100
AcDbBlockReference
  2
gggr
 10
-28030.14191903907
 20
-1590.044217938435
 30
0.0
  0
INSERT
  5
2F53DC
330
6C
100
AcDbEntity
  8
0
 62
     7
100
AcDbBlockReference
  2
gggr
 10
-28095.14191903907
 20
-1615.044217938435
 30
0.0
  0
INSERT
  5
2F53DD
330
6C
100
AcDbEntity
  8
0
 62
     7
100
AcDbBlockReference
  2
gggr
 10
-28030.14191903907
 20
-1640.044217938435
 30
0.0
  0
INSERT
  5
2F53DE
330
6C
100
AcDbEntity
  8
0
 62
     7
100
AcDbBlockReference
  2
gggr
 10
-28095.14191903907
 20
-1665.044217938435
 30
0.0
  0
INSERT
  5
2F53DF
330
6C
100
AcDbEntity
  8
0
 62
     7
100
AcDbBlockReference
  2
gggr
 10
-28030.14191903907
 20
-1690.044217938435
 30
0.0
  0
INSERT
  5
2F53E0
330
6C
100
AcDbEntity
  8
0
 62
     7
100
AcDbBlockReference
  2
gggr
 10
-28095.14191903907
 20
-1715.044217938435
 30
0.0
  0
INSERT
  5
2F53E1
330
6C
100
AcDbEntity
  8
0
 62
     7
100
AcDbBlockReference
  2
gggr
 10
-28030.14191903907
 20
-1740.044217938435
 30
0.0
  0
INSERT
  5
2F53E2
330
6C
100
AcDbEntity
  8
0
 62
     7
100
AcDbBlockReference
  2
gggr
 10
-28095.14191903907
 20
-1765.044217938435
 30
0.0
  0
INSERT
  5
2F53E3
330
6C
100
AcDbEntity
  8
0
 62
     7
100
AcDbBlockReference
  2
gggr
 10
-28030.14191903907
 20
-1790.044217938435
 30
0.0
  0
INSERT
  5
2F53E4
330
6C
100
AcDbEntity
  8
0
 62
     7
100
AcDbBlockReference
  2
gggr
 10
-28095.14191903907
 20
-1815.044217938435
 30
0.0
  0
INSERT
  5
2F53E5
330
6C
100
AcDbEntity
  8
0
 62
     7
100
AcDbBlockReference
  2
gggr
 10
-28030.14191903907
 20
-1840.044217938435
 30
0.0
  0
INSERT
  5
2F53E6
330
6C
100
AcDbEntity
  8
0
 62
     7
100
AcDbBlockReference
  2
gggr
 10
-27965.14191903908
 20
-1165.044217938435
 30
0.0
  0
INSERT
  5
2F53E7
330
6C
100
AcDbEntity
  8
0
 62
     7
100
AcDbBlockReference
  2
gggr
 10
-27965.14191903908
 20
-1215.044217938435
 30
0.0
  0
INSERT
  5
2F53E8
330
6C
100
AcDbEntity
  8
0
 62
     7
100
AcDbBlockReference
  2
gggr
 10
-27965.14191903908
 20
-1265.044217938435
 30
0.0
  0
INSERT
  5
2F53E9
330
6C
100
AcDbEntity
  8
0
 62
     7
100
AcDbBlockReference
  2
gggr
 10
-27965.14191903908
 20
-1315.044217938434
 30
0.0
  0
INSERT
  5
2F53EA
330
6C
100
AcDbEntity
  8
0
 62
     7
100
AcDbBlockReference
  2
gggr
 10
-27965.14191903908
 20
-1365.044217938435
 30
0.0
  0
INSERT
  5
2F53EB
330
6C
100
AcDbEntity
  8
0
 62
     7
100
AcDbBlockReference
  2
gggr
 10
-27965.14191903908
 20
-1415.044217938435
 30
0.0
  0
INSERT
  5
2F53EC
330
6C
100
AcDbEntity
  8
0
 62
     7
100
AcDbBlockReference
  2
gggr
 10
-27965.14191903908
 20
-1465.044217938435
 30
0.0
  0
INSERT
  5
2F53ED
330
6C
100
AcDbEntity
  8
0
 62
     7
100
AcDbBlockReference
  2
gggr
 10
-27965.14191903908
 20
-1515.044217938435
 30
0.0
  0
INSERT
  5
2F53EE
330
6C
100
AcDbEntity
  8
0
 62
     7
100
AcDbBlockReference
  2
gggr
 10
-27965.14191903908
 20
-1565.044217938434
 30
0.0
  0
INSERT
  5
2F53EF
330
6C
100
AcDbEntity
  8
0
 62
     7
100
AcDbBlockReference
  2
gggr
 10
-27965.14191903908
 20
-1615.044217938435
 30
0.0
  0
INSERT
  5
2F53F0
330
6C
100
AcDbEntity
  8
0
 62
     7
100
AcDbBlockReference
  2
gggr
 10
-27965.14191903908
 20
-1665.044217938435
 30
0.0
  0
INSERT
  5
2F53F1
330
6C
100
AcDbEntity
  8
0
 62
     7
100
AcDbBlockReference
  2
gggr
 10
-27965.14191903908
 20
-1715.044217938435
 30
0.0
  0
INSERT
  5
2F53F2
330
6C
100
AcDbEntity
  8
0
 62
     7
100
AcDbBlockReference
  2
gggr
 10
-27965.14191903908
 20
-1765.044217938435
 30
0.0
  0
INSERT
  5
2F53F3
330
6C
100
AcDbEntity
  8
0
 62
     7
100
AcDbBlockReference
  2
gggr
 10
-27965.14191903908
 20
-1815.044217938435
 30
0.0
  0
INSERT
  5
2F53F4
330
6C
100
AcDbEntity
  8
0
 62
     7
100
AcDbBlockReference
  2
gggr
 10
-28745.14191903907
 20
-1865.044217938435
 30
0.0
  0
INSERT
  5
2F53F5
330
6C
100
AcDbEntity
  8
0
 62
     7
100
AcDbBlockReference
  2
gggr
 10
-28615.14191903907
 20
-1865.044217938435
 30
0.0
  0
INSERT
  5
2F53F6
330
6C
100
AcDbEntity
  8
0
 62
     7
100
AcDbBlockReference
  2
gggr
 10
-28485.14191903907
 20
-1865.044217938435
 30
0.0
  0
INSERT
  5
2F53F7
330
6C
100
AcDbEntity
  8
0
 62
     7
100
AcDbBlockReference
  2
gggr
 10
-28355.14191903907
 20
-1865.044217938435
 30
0.0
  0
INSERT
  5
2F53F8
330
6C
100
AcDbEntity
  8
0
 62
     7
100
AcDbBlockReference
  2
gggr
 10
-28225.14191903907
 20
-1865.044217938435
 30
0.0
  0
INSERT
  5
2F53F9
330
6C
100
AcDbEntity
  8
0
 62
     7
100
AcDbBlockReference
  2
gggr
 10
-28095.14191903907
 20
-1865.044217938435
 30
0.0
  0
INSERT
  5
2F53FA
330
6C
100
AcDbEntity
  8
0
 62
     7
100
AcDbBlockReference
  2
gggr
 10
-27965.14191903908
 20
-1865.044217938435
 30
0.0
  0
INSERT
  5
2F53FB
330
6C
100
AcDbEntity
  8
0
 62
     7
100
AcDbBlockReference
  2
gggr
 10
-28680.14191903908
 20
-1890.044217938435
 30
0.0
  0
INSERT
  5
2F53FC
330
6C
100
AcDbEntity
  8
0
 62
     7
100
AcDbBlockReference
  2
gggr
 10
-28550.14191903908
 20
-1890.044217938435
 30
0.0
  0
INSERT
  5
2F53FD
330
6C
100
AcDbEntity
  8
0
 62
     7
100
AcDbBlockReference
  2
gggr
 10
-28420.14191903908
 20
-1890.044217938435
 30
0.0
  0
INSERT
  5
2F53FE
330
6C
100
AcDbEntity
  8
0
 62
     7
100
AcDbBlockReference
  2
gggr
 10
-28290.14191903907
 20
-1890.044217938435
 30
0.0
  0
INSERT
  5
2F53FF
330
6C
100
AcDbEntity
  8
0
 62
     7
100
AcDbBlockReference
  2
gggr
 10
-28160.14191903907
 20
-1890.044217938435
 30
0.0
  0
INSERT
  5
2F5400
330
6C
100
AcDbEntity
  8
0
 62
     7
100
AcDbBlockReference
  2
gggr
 10
-28030.14191903907
 20
-1890.044217938435
 30
0.0
  0
INSERT
  5
2F5401
330
6C
100
AcDbEntity
  8
0
 62
     7
100
AcDbBlockReference
  2
gggr
 10
-28745.14191903907
 20
-1915.044217938435
 30
0.0
  0
INSERT
  5
2F5402
330
6C
100
AcDbEntity
  8
0
 62
     7
100
AcDbBlockReference
  2
gggr
 10
-28615.14191903907
 20
-1915.044217938435
 30
0.0
  0
INSERT
  5
2F5403
330
6C
100
AcDbEntity
  8
0
 62
     7
100
AcDbBlockReference
  2
gggr
 10
-28485.14191903907
 20
-1915.044217938435
 30
0.0
  0
INSERT
  5
2F5404
330
6C
100
AcDbEntity
  8
0
 62
     7
100
AcDbBlockReference
  2
gggr
 10
-28355.14191903907
 20
-1915.044217938435
 30
0.0
  0
INSERT
  5
2F5405
330
6C
100
AcDbEntity
  8
0
 62
     7
100
AcDbBlockReference
  2
gggr
 10
-28225.14191903907
 20
-1915.044217938435
 30
0.0
  0
INSERT
  5
2F5406
330
6C
100
AcDbEntity
  8
0
 62
     7
100
AcDbBlockReference
  2
gggr
 10
-28095.14191903907
 20
-1915.044217938435
 30
0.0
  0
INSERT
  5
2F5407
330
6C
100
AcDbEntity
  8
0
 62
     7
100
AcDbBlockReference
  2
gggr
 10
-27965.14191903908
 20
-1915.044217938435
 30
0.0
  0
INSERT
  5
2F5408
330
6C
100
AcDbEntity
  8
0
 62
     7
100
AcDbBlockReference
  2
gggr
 10
-28680.14191903908
 20
-1940.044217938435
 30
0.0
  0
INSERT
  5
2F5409
330
6C
100
AcDbEntity
  8
0
 62
     7
100
AcDbBlockReference
  2
gggr
 10
-28550.14191903908
 20
-1940.044217938435
 30
0.0
  0
INSERT
  5
2F540A
330
6C
100
AcDbEntity
  8
0
 62
     7
100
AcDbBlockReference
  2
gggr
 10
-28420.14191903908
 20
-1940.044217938435
 30
0.0
  0
INSERT
  5
2F540B
330
6C
100
AcDbEntity
  8
0
 62
     7
100
AcDbBlockReference
  2
gggr
 10
-28290.14191903907
 20
-1940.044217938435
 30
0.0
  0
INSERT
  5
2F540C
330
6C
100
AcDbEntity
  8
0
 62
     7
100
AcDbBlockReference
  2
gggr
 10
-28160.14191903907
 20
-1940.044217938435
 30
0.0
  0
INSERT
  5
2F540D
330
6C
100
AcDbEntity
  8
0
 62
     7
100
AcDbBlockReference
  2
gggr
 10
-28030.14191903907
 20
-1940.044217938435
 30
0.0
  0
INSERT
  5
2F540E
330
6C
100
AcDbEntity
  8
0
 62
     7
100
AcDbBlockReference
  2
gggr
 10
-28745.14191903907
 20
-1965.044217938435
 30
0.0
  0
INSERT
  5
2F540F
330
6C
100
AcDbEntity
  8
0
 62
     7
100
AcDbBlockReference
  2
gggr
 10
-28615.14191903907
 20
-1965.044217938435
 30
0.0
  0
INSERT
  5
2F5410
330
6C
100
AcDbEntity
  8
0
 62
     7
100
AcDbBlockReference
  2
gggr
 10
-28485.14191903907
 20
-1965.044217938435
 30
0.0
  0
INSERT
  5
2F5411
330
6C
100
AcDbEntity
  8
0
 62
     7
100
AcDbBlockReference
  2
gggr
 10
-28355.14191903907
 20
-1965.044217938435
 30
0.0
  0
INSERT
  5
2F5412
330
6C
100
AcDbEntity
  8
0
 62
     7
100
AcDbBlockReference
  2
gggr
 10
-28225.14191903907
 20
-1965.044217938435
 30
0.0
  0
INSERT
  5
2F5413
330
6C
100
AcDbEntity
  8
0
 62
     7
100
AcDbBlockReference
  2
gggr
 10
-28095.14191903907
 20
-1965.044217938435
 30
0.0
  0
INSERT
  5
2F5414
330
6C
100
AcDbEntity
  8
0
 62
     7
100
AcDbBlockReference
  2
gggr
 10
-27965.14191903908
 20
-1965.044217938435
 30
0.0
  0
INSERT
  5
2F5415
330
6C
100
AcDbEntity
  8
0
 62
     7
100
AcDbBlockReference
  2
gggr
 10
-28680.14191903908
 20
-1990.044217938435
 30
0.0
  0
INSERT
  5
2F5416
330
6C
100
AcDbEntity
  8
0
 62
     7
100
AcDbBlockReference
  2
gggr
 10
-28550.14191903908
 20
-1990.044217938435
 30
0.0
  0
INSERT
  5
2F5417
330
6C
100
AcDbEntity
  8
0
 62
     7
100
AcDbBlockReference
  2
gggr
 10
-28420.14191903908
 20
-1990.044217938435
 30
0.0
  0
INSERT
  5
2F5418
330
6C
100
AcDbEntity
  8
0
 62
     7
100
AcDbBlockReference
  2
gggr
 10
-28290.14191903907
 20
-1990.044217938435
 30
0.0
  0
INSERT
  5
2F5419
330
6C
100
AcDbEntity
  8
0
 62
     7
100
AcDbBlockReference
  2
gggr
 10
-28160.14191903907
 20
-1990.044217938435
 30
0.0
  0
INSERT
  5
2F541A
330
6C
100
AcDbEntity
  8
0
 62
     7
100
AcDbBlockReference
  2
gggr
 10
-28030.14191903907
 20
-1990.044217938435
 30
0.0
  0
INSERT
  5
2F541B
330
6C
100
AcDbEntity
  8
0
 62
     7
100
AcDbBlockReference
  2
gggr
 10
-28745.14191903907
 20
-2015.044217938435
 30
0.0
  0
INSERT
  5
2F541C
330
6C
100
AcDbEntity
  8
0
 62
     7
100
AcDbBlockReference
  2
gggr
 10
-28615.14191903907
 20
-2015.044217938435
 30
0.0
  0
INSERT
  5
2F541D
330
6C
100
AcDbEntity
  8
0
 62
     7
100
AcDbBlockReference
  2
gggr
 10
-28485.14191903907
 20
-2015.044217938435
 30
0.0
  0
INSERT
  5
2F541E
330
6C
100
AcDbEntity
  8
0
 62
     7
100
AcDbBlockReference
  2
gggr
 10
-28355.14191903907
 20
-2015.044217938435
 30
0.0
  0
INSERT
  5
2F541F
330
6C
100
AcDbEntity
  8
0
 62
     7
100
AcDbBlockReference
  2
gggr
 10
-28225.14191903907
 20
-2015.044217938435
 30
0.0
  0
INSERT
  5
2F5420
330
6C
100
AcDbEntity
  8
0
 62
     7
100
AcDbBlockReference
  2
gggr
 10
-28095.14191903907
 20
-2015.044217938435
 30
0.0
  0
INSERT
  5
2F5421
330
6C
100
AcDbEntity
  8
0
 62
     7
100
AcDbBlockReference
  2
gggr
 10
-27965.14191903908
 20
-2015.044217938435
 30
0.0
  0
INSERT
  5
2F5422
330
6C
100
AcDbEntity
  8
0
 62
     7
100
AcDbBlockReference
  2
gggr
 10
-27900.14191903908
 20
-1190.044217938434
 30
0.0
  0
INSERT
  5
2F5423
330
6C
100
AcDbEntity
  8
0
 62
     7
100
AcDbBlockReference
  2
gggr
 10
-27900.14191903908
 20
-1240.044217938435
 30
0.0
  0
INSERT
  5
2F5424
330
6C
100
AcDbEntity
  8
0
 62
     7
100
AcDbBlockReference
  2
gggr
 10
-27900.14191903908
 20
-1290.044217938435
 30
0.0
  0
INSERT
  5
2F5425
330
6C
100
AcDbEntity
  8
0
 62
     7
100
AcDbBlockReference
  2
gggr
 10
-27900.14191903908
 20
-1340.044217938435
 30
0.0
  0
INSERT
  5
2F5426
330
6C
100
AcDbEntity
  8
0
 62
     7
100
AcDbBlockReference
  2
gggr
 10
-27900.14191903908
 20
-1390.044217938435
 30
0.0
  0
INSERT
  5
2F5427
330
6C
100
AcDbEntity
  8
0
 62
     7
100
AcDbBlockReference
  2
gggr
 10
-27900.14191903908
 20
-1440.044217938434
 30
0.0
  0
INSERT
  5
2F5428
330
6C
100
AcDbEntity
  8
0
 62
     7
100
AcDbBlockReference
  2
gggr
 10
-27900.14191903908
 20
-1490.044217938435
 30
0.0
  0
INSERT
  5
2F5429
330
6C
100
AcDbEntity
  8
0
 62
     7
100
AcDbBlockReference
  2
gggr
 10
-27900.14191903908
 20
-1540.044217938435
 30
0.0
  0
INSERT
  5
2F542A
330
6C
100
AcDbEntity
  8
0
 62
     7
100
AcDbBlockReference
  2
gggr
 10
-27900.14191903908
 20
-1590.044217938435
 30
0.0
  0
INSERT
  5
2F542B
330
6C
100
AcDbEntity
  8
0
 62
     7
100
AcDbBlockReference
  2
gggr
 10
-27900.14191903908
 20
-1640.044217938435
 30
0.0
  0
INSERT
  5
2F542C
330
6C
100
AcDbEntity
  8
0
 62
     7
100
AcDbBlockReference
  2
gggr
 10
-27900.14191903908
 20
-1690.044217938435
 30
0.0
  0
INSERT
  5
2F542D
330
6C
100
AcDbEntity
  8
0
 62
     7
100
AcDbBlockReference
  2
gggr
 10
-27900.14191903908
 20
-1740.044217938435
 30
0.0
  0
INSERT
  5
2F542E
330
6C
100
AcDbEntity
  8
0
 62
     7
100
AcDbBlockReference
  2
gggr
 10
-27900.14191903908
 20
-1790.044217938435
 30
0.0
  0
INSERT
  5
2F542F
330
6C
100
AcDbEntity
  8
0
 62
     7
100
AcDbBlockReference
  2
gggr
 10
-27900.14191903908
 20
-1840.044217938435
 30
0.0
  0
INSERT
  5
2F5430
330
6C
100
AcDbEntity
  8
0
 62
     7
100
AcDbBlockReference
  2
gggr
 10
-27900.14191903908
 20
-1890.044217938435
 30
0.0
  0
INSERT
  5
2F5431
330
6C
100
AcDbEntity
  8
0
 62
     7
100
AcDbBlockReference
  2
gggr
 10
-27900.14191903908
 20
-1940.044217938435
 30
0.0
  0
INSERT
  5
2F5432
330
6C
100
AcDbEntity
  8
0
 62
     7
100
AcDbBlockReference
  2
gggr
 10
-27900.14191903908
 20
-1990.044217938435
 30
0.0
  0
INSERT
  5
2F5433
330
6C
100
AcDbEntity
  8
0
 62
     7
100
AcDbBlockReference
  2
gggr
 10
-27835.14191903907
 20
-1165.044217938435
 30
0.0
  0
INSERT
  5
2F5434
330
6C
100
AcDbEntity
  8
0
 62
     7
100
AcDbBlockReference
  2
gggr
 10
-27835.14191903907
 20
-1215.044217938435
 30
0.0
  0
INSERT
  5
2F5435
330
6C
100
AcDbEntity
  8
0
 62
     7
100
AcDbBlockReference
  2
gggr
 10
-27835.14191903907
 20
-1265.044217938435
 30
0.0
  0
INSERT
  5
2F5436
330
6C
100
AcDbEntity
  8
0
 62
     7
100
AcDbBlockReference
  2
gggr
 10
-27835.14191903907
 20
-1315.044217938434
 30
0.0
  0
INSERT
  5
2F5437
330
6C
100
AcDbEntity
  8
0
 62
     7
100
AcDbBlockReference
  2
gggr
 10
-27835.14191903907
 20
-1365.044217938435
 30
0.0
  0
INSERT
  5
2F5438
330
6C
100
AcDbEntity
  8
0
 62
     7
100
AcDbBlockReference
  2
gggr
 10
-27835.14191903907
 20
-1415.044217938435
 30
0.0
  0
INSERT
  5
2F5439
330
6C
100
AcDbEntity
  8
0
 62
     7
100
AcDbBlockReference
  2
gggr
 10
-27835.14191903907
 20
-1465.044217938435
 30
0.0
  0
INSERT
  5
2F543A
330
6C
100
AcDbEntity
  8
0
 62
     7
100
AcDbBlockReference
  2
gggr
 10
-27835.14191903907
 20
-1515.044217938435
 30
0.0
  0
INSERT
  5
2F543B
330
6C
100
AcDbEntity
  8
0
 62
     7
100
AcDbBlockReference
  2
gggr
 10
-27835.14191903907
 20
-1565.044217938434
 30
0.0
  0
INSERT
  5
2F543C
330
6C
100
AcDbEntity
  8
0
 62
     7
100
AcDbBlockReference
  2
gggr
 10
-27835.14191903907
 20
-1615.044217938435
 30
0.0
  0
INSERT
  5
2F543D
330
6C
100
AcDbEntity
  8
0
 62
     7
100
AcDbBlockReference
  2
gggr
 10
-27835.14191903907
 20
-1665.044217938435
 30
0.0
  0
INSERT
  5
2F543E
330
6C
100
AcDbEntity
  8
0
 62
     7
100
AcDbBlockReference
  2
gggr
 10
-27835.14191903907
 20
-1715.044217938435
 30
0.0
  0
INSERT
  5
2F543F
330
6C
100
AcDbEntity
  8
0
 62
     7
100
AcDbBlockReference
  2
gggr
 10
-27835.14191903907
 20
-1765.044217938435
 30
0.0
  0
INSERT
  5
2F5440
330
6C
100
AcDbEntity
  8
0
 62
     7
100
AcDbBlockReference
  2
gggr
 10
-27835.14191903907
 20
-1815.044217938435
 30
0.0
  0
INSERT
  5
2F5441
330
6C
100
AcDbEntity
  8
0
 62
     7
100
AcDbBlockReference
  2
gggr
 10
-27835.14191903907
 20
-1865.044217938435
 30
0.0
  0
INSERT
  5
2F5442
330
6C
100
AcDbEntity
  8
0
 62
     7
100
AcDbBlockReference
  2
gggr
 10
-27835.14191903907
 20
-1915.044217938435
 30
0.0
  0
INSERT
  5
2F5443
330
6C
100
AcDbEntity
  8
0
 62
     7
100
AcDbBlockReference
  2
gggr
 10
-27835.14191903907
 20
-1965.044217938435
 30
0.0
  0
INSERT
  5
2F5444
330
6C
100
AcDbEntity
  8
0
 62
     7
100
AcDbBlockReference
  2
gggr
 10
-27835.14191903907
 20
-2015.044217938435
 30
0.0
  0
INSERT
  5
2F5445
330
6C
100
AcDbEntity
  8
0
 62
     7
100
AcDbBlockReference
  2
gggr
 10
-27770.14191903907
 20
-1190.044217938434
 30
0.0
  0
INSERT
  5
2F5446
330
6C
100
AcDbEntity
  8
0
 62
     7
100
AcDbBlockReference
  2
gggr
 10
-27770.14191903907
 20
-1240.044217938435
 30
0.0
  0
INSERT
  5
2F5447
330
6C
100
AcDbEntity
  8
0
 62
     7
100
AcDbBlockReference
  2
gggr
 10
-27770.14191903907
 20
-1290.044217938435
 30
0.0
  0
INSERT
  5
2F5448
330
6C
100
AcDbEntity
  8
0
 62
     7
100
AcDbBlockReference
  2
gggr
 10
-27770.14191903907
 20
-1340.044217938435
 30
0.0
  0
INSERT
  5
2F5449
330
6C
100
AcDbEntity
  8
0
 62
     7
100
AcDbBlockReference
  2
gggr
 10
-27770.14191903907
 20
-1390.044217938435
 30
0.0
  0
INSERT
  5
2F544A
330
6C
100
AcDbEntity
  8
0
 62
     7
100
AcDbBlockReference
  2
gggr
 10
-27770.14191903907
 20
-1440.044217938434
 30
0.0
  0
INSERT
  5
2F544B
330
6C
100
AcDbEntity
  8
0
 62
     7
100
AcDbBlockReference
  2
gggr
 10
-27770.14191903907
 20
-1490.044217938435
 30
0.0
  0
INSERT
  5
2F544C
330
6C
100
AcDbEntity
  8
0
 62
     7
100
AcDbBlockReference
  2
gggr
 10
-27770.14191903907
 20
-1540.044217938435
 30
0.0
  0
INSERT
  5
2F544D
330
6C
100
AcDbEntity
  8
0
 62
     7
100
AcDbBlockReference
  2
gggr
 10
-27770.14191903907
 20
-1590.044217938435
 30
0.0
  0
INSERT
  5
2F544E
330
6C
100
AcDbEntity
  8
0
 62
     7
100
AcDbBlockReference
  2
gggr
 10
-27770.14191903907
 20
-1640.044217938435
 30
0.0
  0
INSERT
  5
2F544F
330
6C
100
AcDbEntity
  8
0
 62
     7
100
AcDbBlockReference
  2
gggr
 10
-27770.14191903907
 20
-1690.044217938435
 30
0.0
  0
INSERT
  5
2F5450
330
6C
100
AcDbEntity
  8
0
 62
     7
100
AcDbBlockReference
  2
gggr
 10
-27770.14191903907
 20
-1740.044217938435
 30
0.0
  0
INSERT
  5
2F5451
330
6C
100
AcDbEntity
  8
0
 62
     7
100
AcDbBlockReference
  2
gggr
 10
-27770.14191903907
 20
-1790.044217938435
 30
0.0
  0
INSERT
  5
2F5452
330
6C
100
AcDbEntity
  8
0
 62
     7
100
AcDbBlockReference
  2
gggr
 10
-27770.14191903907
 20
-1840.044217938435
 30
0.0
  0
INSERT
  5
2F5453
330
6C
100
AcDbEntity
  8
0
 62
     7
100
AcDbBlockReference
  2
gggr
 10
-27770.14191903907
 20
-1890.044217938435
 30
0.0
  0
INSERT
  5
2F5454
330
6C
100
AcDbEntity
  8
0
 62
     7
100
AcDbBlockReference
  2
gggr
 10
-27770.14191903907
 20
-1940.044217938435
 30
0.0
  0
INSERT
  5
2F5455
330
6C
100
AcDbEntity
  8
0
 62
     7
100
AcDbBlockReference
  2
gggr
 10
-27770.14191903907
 20
-1990.044217938435
 30
0.0
  0
INSERT
  5
2F5456
330
6C
100
AcDbEntity
  8
0
 62
     7
100
AcDbBlockReference
  2
gggr
 10
-27705.14191903907
 20
-1165.044217938435
 30
0.0
  0
INSERT
  5
2F5457
330
6C
100
AcDbEntity
  8
0
 62
     7
100
AcDbBlockReference
  2
gggr
 10
-27705.14191903907
 20
-1215.044217938435
 30
0.0
  0
INSERT
  5
2F5458
330
6C
100
AcDbEntity
  8
0
 62
     7
100
AcDbBlockReference
  2
gggr
 10
-27705.14191903907
 20
-1265.044217938435
 30
0.0
  0
INSERT
  5
2F5459
330
6C
100
AcDbEntity
  8
0
 62
     7
100
AcDbBlockReference
  2
gggr
 10
-27705.14191903907
 20
-1315.044217938434
 30
0.0
  0
INSERT
  5
2F545A
330
6C
100
AcDbEntity
  8
0
 62
     7
100
AcDbBlockReference
  2
gggr
 10
-27705.14191903907
 20
-1365.044217938435
 30
0.0
  0
INSERT
  5
2F545B
330
6C
100
AcDbEntity
  8
0
 62
     7
100
AcDbBlockReference
  2
gggr
 10
-27705.14191903907
 20
-1415.044217938435
 30
0.0
  0
INSERT
  5
2F545C
330
6C
100
AcDbEntity
  8
0
 62
     7
100
AcDbBlockReference
  2
gggr
 10
-27705.14191903907
 20
-1465.044217938435
 30
0.0
  0
INSERT
  5
2F545D
330
6C
100
AcDbEntity
  8
0
 62
     7
100
AcDbBlockReference
  2
gggr
 10
-27705.14191903907
 20
-1515.044217938435
 30
0.0
  0
INSERT
  5
2F545E
330
6C
100
AcDbEntity
  8
0
 62
     7
100
AcDbBlockReference
  2
gggr
 10
-27705.14191903907
 20
-1565.044217938434
 30
0.0
  0
INSERT
  5
2F545F
330
6C
100
AcDbEntity
  8
0
 62
     7
100
AcDbBlockReference
  2
gggr
 10
-27705.14191903907
 20
-1615.044217938435
 30
0.0
  0
INSERT
  5
2F5460
330
6C
100
AcDbEntity
  8
0
 62
     7
100
AcDbBlockReference
  2
gggr
 10
-27705.14191903907
 20
-1665.044217938435
 30
0.0
  0
INSERT
  5
2F5461
330
6C
100
AcDbEntity
  8
0
 62
     7
100
AcDbBlockReference
  2
gggr
 10
-27705.14191903907
 20
-1715.044217938435
 30
0.0
  0
INSERT
  5
2F5462
330
6C
100
AcDbEntity
  8
0
 62
     7
100
AcDbBlockReference
  2
gggr
 10
-27705.14191903907
 20
-1765.044217938435
 30
0.0
  0
INSERT
  5
2F5463
330
6C
100
AcDbEntity
  8
0
 62
     7
100
AcDbBlockReference
  2
gggr
 10
-27705.14191903907
 20
-1815.044217938435
 30
0.0
  0
INSERT
  5
2F5464
330
6C
100
AcDbEntity
  8
0
 62
     7
100
AcDbBlockReference
  2
gggr
 10
-27705.14191903907
 20
-1865.044217938435
 30
0.0
  0
INSERT
  5
2F5465
330
6C
100
AcDbEntity
  8
0
 62
     7
100
AcDbBlockReference
  2
gggr
 10
-27705.14191903907
 20
-1915.044217938435
 30
0.0
  0
INSERT
  5
2F5466
330
6C
100
AcDbEntity
  8
0
 62
     7
100
AcDbBlockReference
  2
gggr
 10
-27705.14191903907
 20
-1965.044217938435
 30
0.0
  0
INSERT
  5
2F5467
330
6C
100
AcDbEntity
  8
0
 62
     7
100
AcDbBlockReference
  2
gggr
 10
-27705.14191903907
 20
-2015.044217938435
 30
0.0
  0
INSERT
  5
2F5468
330
6C
100
AcDbEntity
  8
0
 62
     7
100
AcDbBlockReference
  2
gggr
 10
-28680.14191903908
 20
-2040.044217938435
 30
0.0
  0
INSERT
  5
2F5469
330
6C
100
AcDbEntity
  8
0
 62
     7
100
AcDbBlockReference
  2
gggr
 10
-28550.14191903908
 20
-2040.044217938435
 30
0.0
  0
INSERT
  5
2F546A
330
6C
100
AcDbEntity
  8
0
 62
     7
100
AcDbBlockReference
  2
gggr
 10
-28420.14191903908
 20
-2040.044217938435
 30
0.0
  0
INSERT
  5
2F546B
330
6C
100
AcDbEntity
  8
0
 62
     7
100
AcDbBlockReference
  2
gggr
 10
-28290.14191903907
 20
-2040.044217938435
 30
0.0
  0
INSERT
  5
2F546C
330
6C
100
AcDbEntity
  8
0
 62
     7
100
AcDbBlockReference
  2
gggr
 10
-28160.14191903907
 20
-2040.044217938435
 30
0.0
  0
INSERT
  5
2F546D
330
6C
100
AcDbEntity
  8
0
 62
     7
100
AcDbBlockReference
  2
gggr
 10
-28030.14191903907
 20
-2040.044217938435
 30
0.0
  0
INSERT
  5
2F546E
330
6C
100
AcDbEntity
  8
0
 62
     7
100
AcDbBlockReference
  2
gggr
 10
-28745.14191903907
 20
-2065.044217938435
 30
0.0
  0
INSERT
  5
2F546F
330
6C
100
AcDbEntity
  8
0
 62
     7
100
AcDbBlockReference
  2
gggr
 10
-28615.14191903907
 20
-2065.044217938435
 30
0.0
  0
INSERT
  5
2F5470
330
6C
100
AcDbEntity
  8
0
 62
     7
100
AcDbBlockReference
  2
gggr
 10
-28485.14191903907
 20
-2065.044217938435
 30
0.0
  0
INSERT
  5
2F5471
330
6C
100
AcDbEntity
  8
0
 62
     7
100
AcDbBlockReference
  2
gggr
 10
-28355.14191903907
 20
-2065.044217938435
 30
0.0
  0
INSERT
  5
2F5472
330
6C
100
AcDbEntity
  8
0
 62
     7
100
AcDbBlockReference
  2
gggr
 10
-28225.14191903907
 20
-2065.044217938435
 30
0.0
  0
INSERT
  5
2F5473
330
6C
100
AcDbEntity
  8
0
 62
     7
100
AcDbBlockReference
  2
gggr
 10
-28095.14191903907
 20
-2065.044217938435
 30
0.0
  0
INSERT
  5
2F5474
330
6C
100
AcDbEntity
  8
0
 62
     7
100
AcDbBlockReference
  2
gggr
 10
-27965.14191903908
 20
-2065.044217938435
 30
0.0
  0
INSERT
  5
2F5475
330
6C
100
AcDbEntity
  8
0
 62
     7
100
AcDbBlockReference
  2
gggr
 10
-28680.14191903908
 20
-2090.044217938435
 30
0.0
  0
INSERT
  5
2F5476
330
6C
100
AcDbEntity
  8
0
 62
     7
100
AcDbBlockReference
  2
gggr
 10
-28550.14191903908
 20
-2090.044217938435
 30
0.0
  0
INSERT
  5
2F5477
330
6C
100
AcDbEntity
  8
0
 62
     7
100
AcDbBlockReference
  2
gggr
 10
-28420.14191903908
 20
-2090.044217938435
 30
0.0
  0
INSERT
  5
2F5478
330
6C
100
AcDbEntity
  8
0
 62
     7
100
AcDbBlockReference
  2
gggr
 10
-28290.14191903907
 20
-2090.044217938435
 30
0.0
  0
INSERT
  5
2F5479
330
6C
100
AcDbEntity
  8
0
 62
     7
100
AcDbBlockReference
  2
gggr
 10
-28160.14191903907
 20
-2090.044217938435
 30
0.0
  0
INSERT
  5
2F547A
330
6C
100
AcDbEntity
  8
0
 62
     7
100
AcDbBlockReference
  2
gggr
 10
-28030.14191903907
 20
-2090.044217938435
 30
0.0
  0
INSERT
  5
2F547B
330
6C
100
AcDbEntity
  8
0
 62
     7
100
AcDbBlockReference
  2
gggr
 10
-28745.14191903907
 20
-2115.044217938435
 30
0.0
  0
INSERT
  5
2F547C
330
6C
100
AcDbEntity
  8
0
 62
     7
100
AcDbBlockReference
  2
gggr
 10
-28615.14191903907
 20
-2115.044217938435
 30
0.0
  0
INSERT
  5
2F547D
330
6C
100
AcDbEntity
  8
0
 62
     7
100
AcDbBlockReference
  2
gggr
 10
-28485.14191903907
 20
-2115.044217938435
 30
0.0
  0
INSERT
  5
2F547E
330
6C
100
AcDbEntity
  8
0
 62
     7
100
AcDbBlockReference
  2
gggr
 10
-28355.14191903907
 20
-2115.044217938435
 30
0.0
  0
INSERT
  5
2F547F
330
6C
100
AcDbEntity
  8
0
 62
     7
100
AcDbBlockReference
  2
gggr
 10
-28225.14191903907
 20
-2115.044217938435
 30
0.0
  0
INSERT
  5
2F5480
330
6C
100
AcDbEntity
  8
0
 62
     7
100
AcDbBlockReference
  2
gggr
 10
-28095.14191903907
 20
-2115.044217938435
 30
0.0
  0
INSERT
  5
2F5481
330
6C
100
AcDbEntity
  8
0
 62
     7
100
AcDbBlockReference
  2
gggr
 10
-27965.14191903908
 20
-2115.044217938435
 30
0.0
  0
INSERT
  5
2F5482
330
6C
100
AcDbEntity
  8
0
 62
     7
100
AcDbBlockReference
  2
gggr
 10
-27900.14191903908
 20
-2040.044217938435
 30
0.0
  0
INSERT
  5
2F5483
330
6C
100
AcDbEntity
  8
0
 62
     7
100
AcDbBlockReference
  2
gggr
 10
-27900.14191903908
 20
-2090.044217938435
 30
0.0
  0
INSERT
  5
2F5484
330
6C
100
AcDbEntity
  8
0
 62
     7
100
AcDbBlockReference
  2
gggr
 10
-27835.14191903907
 20
-2065.044217938435
 30
0.0
  0
INSERT
  5
2F5485
330
6C
100
AcDbEntity
  8
0
 62
     7
100
AcDbBlockReference
  2
gggr
 10
-27835.14191903907
 20
-2115.044217938435
 30
0.0
  0
INSERT
  5
2F5486
330
6C
100
AcDbEntity
  8
0
 62
     7
100
AcDbBlockReference
  2
gggr
 10
-27770.14191903907
 20
-2040.044217938435
 30
0.0
  0
INSERT
  5
2F5487
330
6C
100
AcDbEntity
  8
0
 62
     7
100
AcDbBlockReference
  2
gggr
 10
-27770.14191903907
 20
-2090.044217938435
 30
0.0
  0
INSERT
  5
2F5488
330
6C
100
AcDbEntity
  8
0
 62
     7
100
AcDbBlockReference
  2
gggr
 10
-27705.14191903907
 20
-2065.044217938435
 30
0.0
  0
INSERT
  5
2F5489
330
6C
100
AcDbEntity
  8
0
 62
     7
100
AcDbBlockReference
  2
gggr
 10
-27705.14191903907
 20
-2115.044217938435
 30
0.0
  0
INSERT
  5
2F548A
330
6C
100
AcDbEntity
  8
0
 62
     7
100
AcDbBlockReference
  2
gggr
 10
-28680.14191903908
 20
-2140.044217938435
 30
0.0
  0
INSERT
  5
2F548B
330
6C
100
AcDbEntity
  8
0
 62
     7
100
AcDbBlockReference
  2
gggr
 10
-28550.14191903908
 20
-2140.044217938435
 30
0.0
  0
INSERT
  5
2F548C
330
6C
100
AcDbEntity
  8
0
 62
     7
100
AcDbBlockReference
  2
gggr
 10
-28420.14191903908
 20
-2140.044217938435
 30
0.0
  0
INSERT
  5
2F548D
330
6C
100
AcDbEntity
  8
0
 62
     7
100
AcDbBlockReference
  2
gggr
 10
-28290.14191903907
 20
-2140.044217938435
 30
0.0
  0
INSERT
  5
2F548E
330
6C
100
AcDbEntity
  8
0
 62
     7
100
AcDbBlockReference
  2
gggr
 10
-28160.14191903907
 20
-2140.044217938435
 30
0.0
  0
INSERT
  5
2F548F
330
6C
100
AcDbEntity
  8
0
 62
     7
100
AcDbBlockReference
  2
gggr
 10
-28030.14191903907
 20
-2140.044217938435
 30
0.0
  0
INSERT
  5
2F5490
330
6C
100
AcDbEntity
  8
0
 62
     7
100
AcDbBlockReference
  2
gggr
 10
-28745.14191903907
 20
-2165.044217938435
 30
0.0
  0
INSERT
  5
2F5491
330
6C
100
AcDbEntity
  8
0
 62
     7
100
AcDbBlockReference
  2
gggr
 10
-28615.14191903907
 20
-2165.044217938435
 30
0.0
  0
INSERT
  5
2F5492
330
6C
100
AcDbEntity
  8
0
 62
     7
100
AcDbBlockReference
  2
gggr
 10
-28485.14191903907
 20
-2165.044217938435
 30
0.0
  0
INSERT
  5
2F5493
330
6C
100
AcDbEntity
  8
0
 62
     7
100
AcDbBlockReference
  2
gggr
 10
-28355.14191903907
 20
-2165.044217938435
 30
0.0
  0
INSERT
  5
2F5494
330
6C
100
AcDbEntity
  8
0
 62
     7
100
AcDbBlockReference
  2
gggr
 10
-28225.14191903907
 20
-2165.044217938435
 30
0.0
  0
INSERT
  5
2F5495
330
6C
100
AcDbEntity
  8
0
 62
     7
100
AcDbBlockReference
  2
gggr
 10
-28095.14191903907
 20
-2165.044217938435
 30
0.0
  0
INSERT
  5
2F5496
330
6C
100
AcDbEntity
  8
0
 62
     7
100
AcDbBlockReference
  2
gggr
 10
-27965.14191903908
 20
-2165.044217938435
 30
0.0
  0
INSERT
  5
2F5497
330
6C
100
AcDbEntity
  8
0
 62
     7
100
AcDbBlockReference
  2
gggr
 10
-27900.14191903908
 20
-2140.044217938435
 30
0.0
  0
INSERT
  5
2F5498
330
6C
100
AcDbEntity
  8
0
 62
     7
100
AcDbBlockReference
  2
gggr
 10
-27835.14191903907
 20
-2165.044217938435
 30
0.0
  0
INSERT
  5
2F5499
330
6C
100
AcDbEntity
  8
0
 62
     7
100
AcDbBlockReference
  2
gggr
 10
-27770.14191903907
 20
-2140.044217938435
 30
0.0
  0
INSERT
  5
2F549A
330
6C
100
AcDbEntity
  8
0
 62
     7
100
AcDbBlockReference
  2
gggr
 10
-27705.14191903907
 20
-2165.044217938435
 30
0.0
  0
INSERT
  5
2F549B
330
6C
100
AcDbEntity
  8
0
 62
     7
100
AcDbBlockReference
  2
gggr
 10
-28680.14191903908
 20
-1140.044217938434
 30
0.0
  0
INSERT
  5
2F549C
330
6C
100
AcDbEntity
  8
0
 62
     7
100
AcDbBlockReference
  2
gggr
 10
-28550.14191903908
 20
-1140.044217938434
 30
0.0
  0
INSERT
  5
2F549D
330
6C
100
AcDbEntity
  8
0
 62
     7
100
AcDbBlockReference
  2
gggr
 10
-28420.14191903908
 20
-1140.044217938434
 30
0.0
  0
INSERT
  5
2F549E
330
6C
100
AcDbEntity
  8
0
 62
     7
100
AcDbBlockReference
  2
gggr
 10
-28290.14191903907
 20
-1140.044217938434
 30
0.0
  0
INSERT
  5
2F549F
330
6C
100
AcDbEntity
  8
0
 62
     7
100
AcDbBlockReference
  2
gggr
 10
-28160.14191903907
 20
-1140.044217938434
 30
0.0
  0
INSERT
  5
2F54A0
330
6C
100
AcDbEntity
  8
0
 62
     7
100
AcDbBlockReference
  2
gggr
 10
-28030.14191903907
 20
-1140.044217938434
 30
0.0
  0
INSERT
  5
2F54A1
330
6C
100
AcDbEntity
  8
0
 62
     7
100
AcDbBlockReference
  2
gggr
 10
-27900.14191903908
 20
-1140.044217938434
 30
0.0
  0
INSERT
  5
2F54A2
330
6C
100
AcDbEntity
  8
0
 62
     7
100
AcDbBlockReference
  2
gggr
 10
-27770.14191903907
 20
-1140.044217938434
 30
0.0
  0
INSERT
  5
2F54A3
330
6C
100
AcDbEntity
  8
0
 62
     7
100
AcDbBlockReference
  2
gggr
 10
-28745.14191903907
 20
-1115.044217938435
 30
0.0
  0
INSERT
  5
2F54A4
330
6C
100
AcDbEntity
  8
0
 62
     7
100
AcDbBlockReference
  2
gggr
 10
-28615.14191903907
 20
-1115.044217938435
 30
0.0
  0
INSERT
  5
2F54A5
330
6C
100
AcDbEntity
  8
0
 62
     7
100
AcDbBlockReference
  2
gggr
 10
-28485.14191903907
 20
-1115.044217938435
 30
0.0
  0
INSERT
  5
2F54A6
330
6C
100
AcDbEntity
  8
0
 62
     7
100
AcDbBlockReference
  2
gggr
 10
-28355.14191903907
 20
-1115.044217938435
 30
0.0
  0
INSERT
  5
2F54A7
330
6C
100
AcDbEntity
  8
0
 62
     7
100
AcDbBlockReference
  2
gggr
 10
-28225.14191903907
 20
-1115.044217938435
 30
0.0
  0
INSERT
  5
2F54A8
330
6C
100
AcDbEntity
  8
0
 62
     7
100
AcDbBlockReference
  2
gggr
 10
-28095.14191903907
 20
-1115.044217938435
 30
0.0
  0
INSERT
  5
2F54A9
330
6C
100
AcDbEntity
  8
0
 62
     7
100
AcDbBlockReference
  2
gggr
 10
-27965.14191903908
 20
-1115.044217938435
 30
0.0
  0
INSERT
  5
2F54AA
330
6C
100
AcDbEntity
  8
0
 62
     7
100
AcDbBlockReference
  2
gggr
 10
-27835.14191903907
 20
-1115.044217938435
 30
0.0
  0
INSERT
  5
2F54AB
330
6C
100
AcDbEntity
  8
0
 62
     7
100
AcDbBlockReference
  2
gggr
 10
-27705.14191903907
 20
-1115.044217938435
 30
0.0
  0
INSERT
  5
2F54AC
330
6C
100
AcDbEntity
  8
0
 62
     7
100
AcDbBlockReference
  2
gggr
 10
-28680.14191903908
 20
-1090.044217938435
 30
0.0
  0
INSERT
  5
2F54AD
330
6C
100
AcDbEntity
  8
0
 62
     7
100
AcDbBlockReference
  2
gggr
 10
-28550.14191903908
 20
-1090.044217938435
 30
0.0
  0
INSERT
  5
2F54AE
330
6C
100
AcDbEntity
  8
0
 62
     7
100
AcDbBlockReference
  2
gggr
 10
-28420.14191903908
 20
-1090.044217938435
 30
0.0
  0
INSERT
  5
2F54AF
330
6C
100
AcDbEntity
  8
0
 62
     7
100
AcDbBlockReference
  2
gggr
 10
-28290.14191903907
 20
-1090.044217938435
 30
0.0
  0
INSERT
  5
2F54B0
330
6C
100
AcDbEntity
  8
0
 62
     7
100
AcDbBlockReference
  2
gggr
 10
-28160.14191903907
 20
-1090.044217938435
 30
0.0
  0
INSERT
  5
2F54B1
330
6C
100
AcDbEntity
  8
0
 62
     7
100
AcDbBlockReference
  2
gggr
 10
-28030.14191903907
 20
-1090.044217938435
 30
0.0
  0
INSERT
  5
2F54B2
330
6C
100
AcDbEntity
  8
0
 62
     7
100
AcDbBlockReference
  2
gggr
 10
-27900.14191903908
 20
-1090.044217938435
 30
0.0
  0
INSERT
  5
2F54B3
330
6C
100
AcDbEntity
  8
0
 62
     7
100
AcDbBlockReference
  2
gggr
 10
-27770.14191903907
 20
-1090.044217938435
 30
0.0
  0
INSERT
  5
2F54B4
330
6C
100
AcDbEntity
  8
0
 62
     7
100
AcDbBlockReference
  2
gggr
 10
-28745.14191903907
 20
-1065.044217938434
 30
0.0
  0
INSERT
  5
2F54B5
330
6C
100
AcDbEntity
  8
0
 62
     7
100
AcDbBlockReference
  2
gggr
 10
-28615.14191903907
 20
-1065.044217938434
 30
0.0
  0
INSERT
  5
2F54B6
330
6C
100
AcDbEntity
  8
0
 62
     7
100
AcDbBlockReference
  2
gggr
 10
-28485.14191903907
 20
-1065.044217938434
 30
0.0
  0
INSERT
  5
2F54B7
330
6C
100
AcDbEntity
  8
0
 62
     7
100
AcDbBlockReference
  2
gggr
 10
-28355.14191903907
 20
-1065.044217938434
 30
0.0
  0
INSERT
  5
2F54B8
330
6C
100
AcDbEntity
  8
0
 62
     7
100
AcDbBlockReference
  2
gggr
 10
-28225.14191903907
 20
-1065.044217938434
 30
0.0
  0
INSERT
  5
2F54B9
330
6C
100
AcDbEntity
  8
0
 62
     7
100
AcDbBlockReference
  2
gggr
 10
-28095.14191903907
 20
-1065.044217938434
 30
0.0
  0
INSERT
  5
2F54BA
330
6C
100
AcDbEntity
  8
0
 62
     7
100
AcDbBlockReference
  2
gggr
 10
-27965.14191903908
 20
-1065.044217938434
 30
0.0
  0
INSERT
  5
2F54BB
330
6C
100
AcDbEntity
  8
0
 62
     7
100
AcDbBlockReference
  2
gggr
 10
-27835.14191903907
 20
-1065.044217938434
 30
0.0
  0
INSERT
  5
2F54BC
330
6C
100
AcDbEntity
  8
0
 62
     7
100
AcDbBlockReference
  2
gggr
 10
-27705.14191903907
 20
-1065.044217938434
 30
0.0
  0
LINE
  5
2F54BD
330
6C
100
AcDbEntity
  8
0
 62
     4
100
AcDbLine
 10
-10763.89034599064
 20
-83.04046072047757
 30
0.0
 11
-10672.89034599063
 21
-83.04046072047757
 31
0.0
  0
LINE
  5
2F54BE
330
6C
100
AcDbEntity
  8
0
 62
     4
100
AcDbLine
 10
-10672.89034599063
 20
-83.04046072047757
 30
0.0
 11
-10672.89034599063
 21
-108.0404607204775
 31
0.0
  0
LINE
  5
2F54BF
330
6C
100
AcDbEntity
  8
0
 62
     4
100
AcDbLine
 10
-10672.89034599063
 20
-108.0404607204775
 30
0.0
 11
-10763.89034599064
 21
-108.0404607204775
 31
0.0
  0
LINE
  5
2F54C0
330
6C
100
AcDbEntity
  8
0
 62
     4
100
AcDbLine
 10
-10763.89034599064
 20
-108.0404607204775
 30
0.0
 11
-10763.89034599064
 21
-83.04046072047757
 31
0.0
  0
INSERT
  5
2F54C1
330
6C
100
AcDbEntity
  8
0
 62
     7
100
AcDbBlockReference
  2
gggr
 10
-28550.14191903907
 20
-1040.044217938435
 30
0.0
  0
INSERT
  5
2F54C2
330
6C
100
AcDbEntity
  8
0
 62
     7
100
AcDbBlockReference
  2
gggr
 10
-28420.14191903907
 20
-1040.044217938435
 30
0.0
  0
INSERT
  5
2F54C3
330
6C
100
AcDbEntity
  8
0
 62
     7
100
AcDbBlockReference
  2
gggr
 10
-28290.14191903907
 20
-1040.044217938435
 30
0.0
  0
INSERT
  5
2F54C4
330
6C
100
AcDbEntity
  8
0
 62
     7
100
AcDbBlockReference
  2
gggr
 10
-28160.14191903907
 20
-1040.044217938435
 30
0.0
  0
INSERT
  5
2F54C5
330
6C
100
AcDbEntity
  8
0
 62
     7
100
AcDbBlockReference
  2
gggr
 10
-28030.14191903907
 20
-1040.044217938435
 30
0.0
  0
INSERT
  5
2F54C6
330
6C
100
AcDbEntity
  8
0
 62
     7
100
AcDbBlockReference
  2
gggr
 10
-27900.14191903907
 20
-1040.044217938435
 30
0.0
  0
INSERT
  5
2F54C7
330
6C
100
AcDbEntity
  8
0
 62
     7
100
AcDbBlockReference
  2
gggr
 10
-27770.14191903907
 20
-1040.044217938435
 30
0.0
  0
LINE
  5
2F54C8
330
6C
100
AcDbEntity
  8
0
 62
     4
100
AcDbLine
 10
-10828.89034599064
 20
-58.04046072047757
 30
0.0
 11
-10737.89034599064
 21
-58.04046072047757
 31
0.0
  0
LINE
  5
2F54C9
330
6C
100
AcDbEntity
  8
0
 62
     4
100
AcDbLine
 10
-10737.89034599064
 20
-58.04046072047757
 30
0.0
 11
-10737.89034599064
 21
-83.04046072047757
 31
0.0
  0
LINE
  5
2F54CA
330
6C
100
AcDbEntity
  8
0
 62
     4
100
AcDbLine
 10
-10737.89034599064
 20
-83.04046072047757
 30
0.0
 11
-10828.89034599064
 21
-83.04046072047757
 31
0.0
  0
LINE
  5
2F54CB
330
6C
100
AcDbEntity
  8
0
 62
     4
100
AcDbLine
 10
-10828.89034599064
 20
-83.04046072047757
 30
0.0
 11
-10828.89034599064
 21
-58.04046072047757
 31
0.0
  0
LINE
  5
2F54CC
330
6C
100
AcDbEntity
  8
0
 62
     4
100
AcDbLine
 10
-10698.89034599064
 20
-58.04046072047757
 30
0.0
 11
-10607.89034599064
 21
-58.04046072047757
 31
0.0
  0
LINE
  5
2F54CD
330
6C
100
AcDbEntity
  8
0
 62
     4
100
AcDbLine
 10
-10607.89034599064
 20
-58.04046072047757
 30
0.0
 11
-10607.89034599064
 21
-83.04046072047757
 31
0.0
  0
LINE
  5
2F54CE
330
6C
100
AcDbEntity
  8
0
 62
     4
100
AcDbLine
 10
-10607.89034599064
 20
-83.04046072047757
 30
0.0
 11
-10698.89034599064
 21
-83.04046072047757
 31
0.0
  0
LINE
  5
2F54CF
330
6C
100
AcDbEntity
  8
0
 62
     4
100
AcDbLine
 10
-10698.89034599064
 20
-83.04046072047757
 30
0.0
 11
-10698.89034599064
 21
-58.04046072047757
 31
0.0
  0
INSERT
  5
2F54D0
330
6C
100
AcDbEntity
  8
0
 62
     7
100
AcDbBlockReference
  2
gggr
 10
-28485.14191903907
 20
-1015.044217938434
 30
0.0
  0
INSERT
  5
2F54D1
330
6C
100
AcDbEntity
  8
0
 62
     7
100
AcDbBlockReference
  2
gggr
 10
-28355.14191903907
 20
-1015.044217938434
 30
0.0
  0
INSERT
  5
2F54D2
330
6C
100
AcDbEntity
  8
0
 62
     7
100
AcDbBlockReference
  2
gggr
 10
-28225.14191903907
 20
-1015.044217938434
 30
0.0
  0
INSERT
  5
2F54D3
330
6C
100
AcDbEntity
  8
0
 62
     7
100
AcDbBlockReference
  2
gggr
 10
-28095.14191903907
 20
-1015.044217938434
 30
0.0
  0
INSERT
  5
2F54D4
330
6C
100
AcDbEntity
  8
0
 62
     7
100
AcDbBlockReference
  2
gggr
 10
-27965.14191903907
 20
-1015.044217938434
 30
0.0
  0
INSERT
  5
2F54D5
330
6C
100
AcDbEntity
  8
0
 62
     7
100
AcDbBlockReference
  2
gggr
 10
-27835.14191903907
 20
-1015.044217938434
 30
0.0
  0
INSERT
  5
2F54D6
330
6C
100
AcDbEntity
  8
0
 62
     7
100
AcDbBlockReference
  2
gggr
 10
-27705.14191903907
 20
-1015.044217938434
 30
0.0
  0
INSERT
  5
2F54D7
330
6C
100
AcDbEntity
  8
0
 62
     7
100
AcDbBlockReference
  2
gggr
 10
-28680.14191903906
 20
-990.0442179384347
 30
0.0
  0
INSERT
  5
2F54D8
330
6C
100
AcDbEntity
  8
0
 62
     7
100
AcDbBlockReference
  2
gggr
 10
-28550.14191903907
 20
-990.0442179384347
 30
0.0
  0
INSERT
  5
2F54D9
330
6C
100
AcDbEntity
  8
0
 62
     7
100
AcDbBlockReference
  2
gggr
 10
-28420.14191903907
 20
-990.0442179384347
 30
0.0
  0
INSERT
  5
2F54DA
330
6C
100
AcDbEntity
  8
0
 62
     7
100
AcDbBlockReference
  2
gggr
 10
-28290.14191903907
 20
-990.0442179384347
 30
0.0
  0
INSERT
  5
2F54DB
330
6C
100
AcDbEntity
  8
0
 62
     7
100
AcDbBlockReference
  2
gggr
 10
-28160.14191903907
 20
-990.0442179384347
 30
0.0
  0
INSERT
  5
2F54DC
330
6C
100
AcDbEntity
  8
0
 62
     7
100
AcDbBlockReference
  2
gggr
 10
-28030.14191903907
 20
-990.0442179384347
 30
0.0
  0
INSERT
  5
2F54DD
330
6C
100
AcDbEntity
  8
0
 62
     7
100
AcDbBlockReference
  2
gggr
 10
-27900.14191903907
 20
-990.0442179384347
 30
0.0
  0
INSERT
  5
2F54DE
330
6C
100
AcDbEntity
  8
0
 62
     7
100
AcDbBlockReference
  2
gggr
 10
-27770.14191903907
 20
-990.0442179384347
 30
0.0
  0
LINE
  5
2F54DF
330
6C
100
AcDbEntity
  8
0
 62
     4
100
AcDbLine
 10
-9723.890345990639
 20
-33.04046072047757
 30
0.0
 11
-9693.890345990759
 21
-33.04046072047757
 31
0.0
  0
LINE
  5
2F54E0
330
6C
100
AcDbEntity
  8
0
 62
     4
100
AcDbLine
 10
-9693.890345990759
 20
-58.04046072047754
 30
0.0
 11
-9723.890345990639
 21
-58.04046072047757
 31
0.0
  0
LINE
  5
2F54E1
330
6C
100
AcDbEntity
  8
0
 62
     4
100
AcDbLine
 10
-9723.890345990639
 20
-58.04046072047757
 30
0.0
 11
-9723.890345990639
 21
-33.04046072047757
 31
0.0
  0
INSERT
  5
2F54E2
330
6C
100
AcDbEntity
  8
0
 62
     7
100
AcDbBlockReference
  2
gggr
 10
-28810.14191903907
 20
-990.0442179384347
 30
0.0
  0
INSERT
  5
2F54E3
330
6C
100
AcDbEntity
  8
0
 62
     7
100
AcDbBlockReference
  2
gggr
 10
-28810.14191903907
 20
-1040.044217938435
 30
0.0
  0
INSERT
  5
2F54E4
330
6C
100
AcDbEntity
  8
0
 62
     7
100
AcDbBlockReference
  2
gggr
 10
-28810.14191903907
 20
-1090.044217938435
 30
0.0
  0
INSERT
  5
2F54E5
330
6C
100
AcDbEntity
  8
0
 62
     7
100
AcDbBlockReference
  2
gggr
 10
-28810.14191903907
 20
-1140.044217938434
 30
0.0
  0
INSERT
  5
2F54E6
330
6C
100
AcDbEntity
  8
0
 62
     7
100
AcDbBlockReference
  2
gggr
 10
-28810.14191903907
 20
-1190.044217938434
 30
0.0
  0
INSERT
  5
2F54E7
330
6C
100
AcDbEntity
  8
0
 62
     7
100
AcDbBlockReference
  2
gggr
 10
-28810.14191903907
 20
-1240.044217938435
 30
0.0
  0
INSERT
  5
2F54E8
330
6C
100
AcDbEntity
  8
0
 62
     7
100
AcDbBlockReference
  2
gggr
 10
-28810.14191903907
 20
-1340.044217938435
 30
0.0
  0
INSERT
  5
2F54E9
330
6C
100
AcDbEntity
  8
0
 62
     7
100
AcDbBlockReference
  2
gggr
 10
-28810.14191903907
 20
-1290.044217938435
 30
0.0
  0
INSERT
  5
2F54EA
330
6C
100
AcDbEntity
  8
0
 62
     7
100
AcDbBlockReference
  2
gggr
 10
-28810.14191903907
 20
-1390.044217938435
 30
0.0
  0
INSERT
  5
2F54EB
330
6C
100
AcDbEntity
  8
0
 62
     7
100
AcDbBlockReference
  2
gggr
 10
-28810.14191903907
 20
-1440.044217938434
 30
0.0
  0
INSERT
  5
2F54EC
330
6C
100
AcDbEntity
  8
0
 62
     7
100
AcDbBlockReference
  2
gggr
 10
-28810.14191903907
 20
-1490.044217938435
 30
0.0
  0
INSERT
  5
2F54ED
330
6C
100
AcDbEntity
  8
0
 62
     7
100
AcDbBlockReference
  2
gggr
 10
-28810.14191903907
 20
-1540.044217938435
 30
0.0
  0
INSERT
  5
2F54EE
330
6C
100
AcDbEntity
  8
0
 62
     7
100
AcDbBlockReference
  2
gggr
 10
-28810.14191903907
 20
-1590.044217938435
 30
0.0
  0
INSERT
  5
2F54EF
330
6C
100
AcDbEntity
  8
0
 62
     7
100
AcDbBlockReference
  2
gggr
 10
-28810.14191903907
 20
-1640.044217938435
 30
0.0
  0
INSERT
  5
2F54F0
330
6C
100
AcDbEntity
  8
0
 62
     7
100
AcDbBlockReference
  2
gggr
 10
-28810.14191903907
 20
-1690.044217938435
 30
0.0
  0
INSERT
  5
2F54F1
330
6C
100
AcDbEntity
  8
0
 62
     7
100
AcDbBlockReference
  2
gggr
 10
-28810.14191903907
 20
-1740.044217938435
 30
0.0
  0
INSERT
  5
2F54F2
330
6C
100
AcDbEntity
  8
0
 62
     7
100
AcDbBlockReference
  2
gggr
 10
-28810.14191903907
 20
-1790.044217938435
 30
0.0
  0
INSERT
  5
2F54F3
330
6C
100
AcDbEntity
  8
0
 62
     7
100
AcDbBlockReference
  2
gggr
 10
-28810.14191903907
 20
-1890.044217938435
 30
0.0
  0
INSERT
  5
2F54F4
330
6C
100
AcDbEntity
  8
0
 62
     7
100
AcDbBlockReference
  2
gggr
 10
-28810.14191903907
 20
-1840.044217938435
 30
0.0
  0
INSERT
  5
2F54F5
330
6C
100
AcDbEntity
  8
0
 62
     7
100
AcDbBlockReference
  2
gggr
 10
-28810.14191903907
 20
-1940.044217938435
 30
0.0
  0
INSERT
  5
2F54F6
330
6C
100
AcDbEntity
  8
0
 62
     7
100
AcDbBlockReference
  2
gggr
 10
-28810.14191903907
 20
-1990.044217938435
 30
0.0
  0
INSERT
  5
2F54F7
330
6C
100
AcDbEntity
  8
0
 62
     7
100
AcDbBlockReference
  2
gggr
 10
-28810.14191903907
 20
-2040.044217938435
 30
0.0
  0
INSERT
  5
2F54F8
330
6C
100
AcDbEntity
  8
0
 62
     7
100
AcDbBlockReference
  2
gggr
 10
-28810.14191903907
 20
-2090.044217938435
 30
0.0
  0
INSERT
  5
2F54F9
330
6C
100
AcDbEntity
  8
0
 62
     7
100
AcDbBlockReference
  2
gggr
 10
-28810.14191903907
 20
-2140.044217938435
 30
0.0
  0
LINE
  5
2F54FA
330
6C
100
AcDbEntity
  8
0
 62
     4
100
AcDbLine
 10
-9723.890345990639
 20
-108.0404607204775
 30
0.0
 11
-9723.890345990639
 21
-83.04046072047757
 31
0.0
  0
LINE
  5
2F54FB
330
6C
100
AcDbEntity
  8
0
 62
     4
100
AcDbLine
 10
-9723.890345990641
 20
-158.0404607204775
 30
0.0
 11
-9723.890345990641
 21
-133.0404607204775
 31
0.0
  0
LINE
  5
2F54FC
330
6C
100
AcDbEntity
  8
0
 62
     4
100
AcDbLine
 10
-9723.890345990641
 20
-208.0404607204776
 30
0.0
 11
-9723.890345990641
 21
-183.0404607204775
 31
0.0
  0
LINE
  5
2F54FD
330
6C
100
AcDbEntity
  8
0
 62
     4
100
AcDbLine
 10
-9723.890345990641
 20
-258.0404607204775
 30
0.0
 11
-9723.890345990641
 21
-233.0404607204776
 31
0.0
  0
LINE
  5
2F54FE
330
6C
100
AcDbEntity
  8
0
 62
     4
100
AcDbLine
 10
-9723.890345990641
 20
-308.0404607204775
 30
0.0
 11
-9723.890345990641
 21
-283.0404607204775
 31
0.0
  0
LINE
  5
2F54FF
330
6C
100
AcDbEntity
  8
0
 62
     4
100
AcDbLine
 10
-9723.890345990646
 20
-358.0404607204775
 30
0.0
 11
-9723.890345990646
 21
-333.0404607204775
 31
0.0
  0
LINE
  5
2F5500
330
6C
100
AcDbEntity
  8
0
 62
     4
100
AcDbLine
 10
-9723.890345990646
 20
-408.0404607204775
 30
0.0
 11
-9723.890345990646
 21
-383.0404607204775
 31
0.0
  0
LINE
  5
2F5501
330
6C
100
AcDbEntity
  8
0
 62
     4
100
AcDbLine
 10
-9723.890345990641
 20
-458.0404607204775
 30
0.0
 11
-9723.890345990641
 21
-433.0404607204775
 31
0.0
  0
LINE
  5
2F5502
330
6C
100
AcDbEntity
  8
0
 62
     4
100
AcDbLine
 10
-9723.890345990641
 20
-508.0404607204775
 30
0.0
 11
-9723.890345990641
 21
-483.0404607204775
 31
0.0
  0
LINE
  5
2F5503
330
6C
100
AcDbEntity
  8
0
 62
     4
100
AcDbLine
 10
-9723.890345990646
 20
-558.0404607204775
 30
0.0
 11
-9723.890345990646
 21
-533.0404607204775
 31
0.0
  0
LINE
  5
2F5504
330
6C
100
AcDbEntity
  8
0
 62
     4
100
AcDbLine
 10
-9723.890345990646
 20
-608.0404607204775
 30
0.0
 11
-9723.890345990646
 21
-583.0404607204775
 31
0.0
  0
LINE
  5
2F5505
330
6C
100
AcDbEntity
  8
0
 62
     4
100
AcDbLine
 10
-9723.890345990641
 20
-658.0404607204775
 30
0.0
 11
-9723.890345990641
 21
-633.0404607204775
 31
0.0
  0
LINE
  5
2F5506
330
6C
100
AcDbEntity
  8
0
 62
     4
100
AcDbLine
 10
-9723.890345990641
 20
-708.0404607204775
 30
0.0
 11
-9723.890345990641
 21
-683.0404607204775
 31
0.0
  0
LINE
  5
2F5507
330
6C
100
AcDbEntity
  8
0
 62
     4
100
AcDbLine
 10
-9723.890345990646
 20
-758.0404607204775
 30
0.0
 11
-9723.890345990646
 21
-733.0404607204775
 31
0.0
  0
LINE
  5
2F5508
330
6C
100
AcDbEntity
  8
0
 62
     4
100
AcDbLine
 10
-9723.890345990646
 20
-808.0404607204775
 30
0.0
 11
-9723.890345990646
 21
-783.0404607204775
 31
0.0
  0
LINE
  5
2F5509
330
6C
100
AcDbEntity
  8
0
 62
     4
100
AcDbLine
 10
-9723.890345990641
 20
-858.0404607204775
 30
0.0
 11
-9723.890345990641
 21
-833.0404607204775
 31
0.0
  0
LINE
  5
2F550A
330
6C
100
AcDbEntity
  8
0
 62
     4
100
AcDbLine
 10
-9723.890345990641
 20
-908.0404607204775
 30
0.0
 11
-9723.890345990641
 21
-883.0404607204775
 31
0.0
  0
LINE
  5
2F550B
330
6C
100
AcDbEntity
  8
0
 62
     4
100
AcDbLine
 10
-9723.890345990646
 20
-958.0404607204775
 30
0.0
 11
-9723.890345990646
 21
-933.0404607204775
 31
0.0
  0
LINE
  5
2F550C
330
6C
100
AcDbEntity
  8
0
 62
     4
100
AcDbLine
 10
-9723.890345990646
 20
-1008.040460720477
 30
0.0
 11
-9723.890345990646
 21
-983.0404607204775
 31
0.0
  0
LINE
  5
2F550D
330
6C
100
AcDbEntity
  8
0
 62
     4
100
AcDbLine
 10
-9723.890345990641
 20
-1058.040460720477
 30
0.0
 11
-9723.890345990641
 21
-1033.040460720477
 31
0.0
  0
LINE
  5
2F550E
330
6C
100
AcDbEntity
  8
0
 62
     4
100
AcDbLine
 10
-9723.890345990641
 20
-1108.040460720477
 30
0.0
 11
-9723.890345990641
 21
-1083.040460720477
 31
0.0
  0
LINE
  5
2F550F
330
6C
100
AcDbEntity
  8
0
 62
     4
100
AcDbLine
 10
-9723.890345990646
 20
-1158.040460720477
 30
0.0
 11
-9723.890345990646
 21
-1133.040460720477
 31
0.0
  0
LINE
  5
2F5510
330
6C
100
AcDbEntity
  8
0
 62
     4
100
AcDbLine
 10
-9723.890345990646
 20
-1208.040460720477
 30
0.0
 11
-9723.890345990646
 21
-1183.040460720477
 31
0.0
  0
LINE
  5
2F5511
330
6C
100
AcDbEntity
  8
0
 62
     4
100
AcDbLine
 10
-10867.89034599064
 20
-58.04046072047757
 30
0.0
 11
-10867.89034599064
 21
-83.04046072047757
 31
0.0
  0
LINE
  5
2F5512
330
6C
100
AcDbEntity
  8
0
 62
     4
100
AcDbLine
 10
-10867.89034599064
 20
-108.0404607204775
 30
0.0
 11
-10867.89034599064
 21
-133.0404607204775
 31
0.0
  0
LINE
  5
2F5513
330
6C
100
AcDbEntity
  8
0
 62
     4
100
AcDbLine
 10
-10867.89034599064
 20
-158.0404607204775
 30
0.0
 11
-10867.89034599064
 21
-183.0404607204775
 31
0.0
  0
LINE
  5
2F5514
330
6C
100
AcDbEntity
  8
0
 62
     4
100
AcDbLine
 10
-10867.89034599064
 20
-208.0404607204776
 30
0.0
 11
-10867.89034599064
 21
-233.0404607204776
 31
0.0
  0
LINE
  5
2F5515
330
6C
100
AcDbEntity
  8
0
 62
     4
100
AcDbLine
 10
-10867.89034599064
 20
-258.0404607204775
 30
0.0
 11
-10867.89034599064
 21
-283.0404607204775
 31
0.0
  0
LINE
  5
2F5516
330
6C
100
AcDbEntity
  8
0
 62
     4
100
AcDbLine
 10
-10867.89034599064
 20
-308.0404607204775
 30
0.0
 11
-10867.89034599064
 21
-333.0404607204775
 31
0.0
  0
LINE
  5
2F5517
330
6C
100
AcDbEntity
  8
0
 62
     4
100
AcDbLine
 10
-10867.89034599064
 20
-358.0404607204775
 30
0.0
 11
-10867.89034599064
 21
-383.0404607204775
 31
0.0
  0
LINE
  5
2F5518
330
6C
100
AcDbEntity
  8
0
 62
     4
100
AcDbLine
 10
-10867.89034599064
 20
-408.0404607204775
 30
0.0
 11
-10867.89034599064
 21
-433.0404607204775
 31
0.0
  0
LINE
  5
2F5519
330
6C
100
AcDbEntity
  8
0
 62
     4
100
AcDbLine
 10
-10867.89034599064
 20
-458.0404607204775
 30
0.0
 11
-10867.89034599064
 21
-483.0404607204775
 31
0.0
  0
LINE
  5
2F551A
330
6C
100
AcDbEntity
  8
0
 62
     4
100
AcDbLine
 10
-10867.89034599064
 20
-508.0404607204775
 30
0.0
 11
-10867.89034599064
 21
-533.0404607204775
 31
0.0
  0
LINE
  5
2F551B
330
6C
100
AcDbEntity
  8
0
 62
     4
100
AcDbLine
 10
-10867.89034599064
 20
-558.0404607204775
 30
0.0
 11
-10867.89034599064
 21
-583.0404607204775
 31
0.0
  0
LINE
  5
2F551C
330
6C
100
AcDbEntity
  8
0
 62
     4
100
AcDbLine
 10
-10867.89034599064
 20
-608.0404607204775
 30
0.0
 11
-10867.89034599064
 21
-633.0404607204775
 31
0.0
  0
LINE
  5
2F551D
330
6C
100
AcDbEntity
  8
0
 62
     4
100
AcDbLine
 10
-10867.89034599064
 20
-658.0404607204775
 30
0.0
 11
-10867.89034599064
 21
-683.0404607204775
 31
0.0
  0
LINE
  5
2F551E
330
6C
100
AcDbEntity
  8
0
 62
     4
100
AcDbLine
 10
-10867.89034599064
 20
-708.0404607204775
 30
0.0
 11
-10867.89034599064
 21
-733.0404607204775
 31
0.0
  0
LINE
  5
2F551F
330
6C
100
AcDbEntity
  8
0
 62
     4
100
AcDbLine
 10
-10867.89034599064
 20
-758.0404607204775
 30
0.0
 11
-10867.89034599064
 21
-783.0404607204775
 31
0.0
  0
LINE
  5
2F5520
330
6C
100
AcDbEntity
  8
0
 62
     4
100
AcDbLine
 10
-10867.89034599064
 20
-808.0404607204775
 30
0.0
 11
-10867.89034599064
 21
-833.0404607204775
 31
0.0
  0
LINE
  5
2F5521
330
6C
100
AcDbEntity
  8
0
 62
     4
100
AcDbLine
 10
-10867.89034599064
 20
-858.0404607204775
 30
0.0
 11
-10867.89034599064
 21
-883.0404607204775
 31
0.0
  0
LINE
  5
2F5522
330
6C
100
AcDbEntity
  8
0
 62
     4
100
AcDbLine
 10
-10867.89034599064
 20
-908.0404607204775
 30
0.0
 11
-10867.89034599064
 21
-933.0404607204775
 31
0.0
  0
LINE
  5
2F5523
330
6C
100
AcDbEntity
  8
0
 62
     4
100
AcDbLine
 10
-10867.89034599064
 20
-958.0404607204775
 30
0.0
 11
-10867.89034599064
 21
-983.0404607204775
 31
0.0
  0
LINE
  5
2F5524
330
6C
100
AcDbEntity
  8
0
 62
     4
100
AcDbLine
 10
-10867.89034599064
 20
-1008.040460720477
 30
0.0
 11
-10867.89034599064
 21
-1033.040460720477
 31
0.0
  0
LINE
  5
2F5525
330
6C
100
AcDbEntity
  8
0
 62
     4
100
AcDbLine
 10
-10867.89034599064
 20
-1058.040460720477
 30
0.0
 11
-10867.89034599064
 21
-1083.040460720477
 31
0.0
  0
LINE
  5
2F5526
330
6C
100
AcDbEntity
  8
0
 62
     4
100
AcDbLine
 10
-10867.89034599064
 20
-1108.040460720477
 30
0.0
 11
-10867.89034599064
 21
-1133.040460720477
 31
0.0
  0
LINE
  5
2F5527
330
6C
100
AcDbEntity
  8
0
 62
     4
100
AcDbLine
 10
-10867.89034599064
 20
-1158.040460720477
 30
0.0
 11
-10867.89034599064
 21
-1183.040460720477
 31
0.0
  0
LINE
  5
2F5528
330
6C
100
AcDbEntity
  8
0
 62
     4
100
AcDbLine
 10
-10867.89034599064
 20
-1208.040460720477
 30
0.0
 11
-10867.89034599064
 21
-1233.040460720477
 31
0.0
  0
ENDSEC
  0
SECTION
  2
OBJECTS
  0
DICTIONARY
  5
C
330
0
100
AcDbDictionary
281
     1
  3
ACAD_2007HEADERVARS_RT
350
2F559E
  3
ACAD_COLOR
350
63
  3
ACAD_GROUP
350
D
  3
ACAD_LAYOUT
350
62
  3
ACAD_MATERIAL
350
10
  3
ACAD_MLEADERSTYLE
350
66
  3
ACAD_MLINESTYLE
350
5F
  3
ACAD_PLOTSETTINGS
350
61
  3
ACAD_PLOTSTYLENAME
350
E
  3
ACAD_SCALELIST
350
42
  3
ACAD_TABLESTYLE
350
64
  3
ACAD_VISUALSTYLE
350
29
  3
ACDB_RECOMPOSE_DATA
350
2F559C
  3
AcDbVariableDictionary
350
22DB7
  3
AcmDictionary
350
22E11
  3
AMG
350
22DC3
  3
AMGSNAPSETTINGS
350
22E52
  3
DWGPROPS
350
2F559D
  0
DICTIONARY
  5
22E5D
330
2
100
AcDbDictionary
280
     1
281
     1
  3
ACAD_LAYERSTATES
360
22E5E
  3
AMLAYER_GROUPCOLORS
360
79095
  0
DICTIONARY
  5
2D669
330
6C
100
AcDbDictionary
280
     1
281
     1
  3
ACAD_SORTENTS
360
2D66A
  0
DICTIONARY
  5
2F4561
330
2F4560
100
AcDbDictionary
280
     1
281
     1
  3
ACAD_SORTENTS
360
2F4562
  0
DICTIONARY
  5
2F559E
102
{ACAD_REACTORS
330
C
102
}
330
C
100
AcDbDictionary
281
     1
  3
DIMARCSYM
350
2F559F
  3
DIMLTEX1
350
2F55A1
  3
DIMLTEX2
350
2F55A2
  3
DIMLTYPE
350
2F55A0
  0
DICTIONARY
  5
63
102
{ACAD_REACTORS
330
C
102
}
330
C
100
AcDbDictionary
281
     1
  0
DICTIONARY
  5
D
102
{ACAD_REACTORS
330
C
102
}
330
C
100
AcDbDictionary
281
     1
  0
DICTIONARY
  5
62
102
{ACAD_REACTORS
330
C
102
}
330
C
100
AcDbDictionary
281
     1
  3
Layout1
350
6B
  3
Layout2
350
73
  3
Model
350
6F
  0
DICTIONARY
  5
10
102
{ACAD_REACTORS
330
C
102
}
330
C
100
AcDbDictionary
281
     1
  3
ByBlock
350
19
  3
ByLayer
350
11
  3
Global
350
21
  0
DICTIONARY
  5
66
102
{ACAD_REACTORS
330
C
102
}
330
C
100
AcDbDictionary
281
     1
  3
Standard
350
67
  0
DICTIONARY
  5
5F
102
{ACAD_REACTORS
330
C
102
}
330
C
100
AcDbDictionary
281
     1
  3
Standard
350
60
  0
DICTIONARY
  5
61
102
{ACAD_REACTORS
330
C
102
}
330
C
100
AcDbDictionary
281
     1
  0
ACDBDICTIONARYWDFLT
  5
E
102
{ACAD_REACTORS
330
C
102
}
330
C
100
AcDbDictionary
281
     1
  3
Normal
350
F
100
AcDbDictionaryWithDefault
340
F
  0
DICTIONARY
  5
42
102
{ACAD_REACTORS
330
C
102
}
330
C
100
AcDbDictionary
281
     1
  3
A0
350
43
  3
A1
350
44
  3
A2
350
45
  3
A3
350
46
  3
A4
350
47
  3
A5
350
48
  3
A6
350
49
  3
A7
350
4A
  3
A8
350
4B
  3
A9
350
4C
  3
B0
350
4D
  3
B1
350
4E
  3
B2
350
4F
  3
B3
350
50
  3
B4
350
51
  3
B5
350
52
  3
B6
350
53
  0
DICTIONARY
  5
64
102
{ACAD_REACTORS
330
C
102
}
330
C
100
AcDbDictionary
281
     1
  3
Standard
350
65
  0
DICTIONARY
  5
29
102
{ACAD_REACTORS
330
C
102
}
330
C
100
AcDbDictionary
281
     1
  3
2dWireframe
350
2F
  3
3dWireframe
350
22EE4
  3
Basic
350
2E
  3
Brighten
350
35
  3
ColorChange
350
39
  3
Conceptual
350
32
  3
Dim
350
34
  3
EdgeColorOff
350
41
  3
Facepattern
350
38
  3
Flat
350
2A
  3
FlatWithEdges
350
2B
  3
Gouraud
350
2C
  3
GouraudWithEdges
350
2D
  3
Hidden
350
31
  3
JitterOff
350
3F
  3
Linepattern
350
37
  3
OverhangOff
350
40
  3
Realistic
350
33
  3
Shaded
350
3E
  3
Shaded with edges
350
3D
  3
Shades of Gray
350
3A
  3
Sketchy
350
3B
  3
Thicken
350
36
  3
Wireframe
350
30
  3
X-Ray
350
3C
  0
XRECORD
  5
2F559C
102
{ACAD_REACTORS
330
C
102
}
330
C
100
AcDbXrecord
280
     1
 90
        1
330
65
  0
DICTIONARY
  5
22DB7
102
{ACAD_REACTORS
330
C
102
}
330
C
100
AcDbDictionary
281
     1
  3
CANNOSCALE
350
22DBA
  3
CMLEADERSTYLE
350
22DB9
  3
CTABLESTYLE
350
22DB8
  3
DIMASSOC
350
2ECC47
  3
HIDETEXT
350
2ECC46
  3
HPORIGIN
350
7A31F
  3
INDEXCTL
350
2ECC45
  3
LAYEREVAL
350
2ECC42
  3
LAYERNOTIFY
350
2ECC43
  3
LIGHTINGUNITS
350
2ECC41
  3
MSLTSCALE
350
2ECC40
  3
SORTENTS
350
2ECC44
  3
XCLIPFRAME
350
2F559A
  0
DICTIONARY
  5
22E11
102
{ACAD_REACTORS
330
C
102
}
330
C
100
AcDbDictionary
281
     1
  3
AcmStdDictionary
350
22E1C
  0
DICTIONARY
  5
22DC3
102
{ACAD_REACTORS
330
C
102
}
330
C
100
AcDbDictionary
281
     1
  0
DICTIONARY
  5
22E52
102
{ACAD_REACTORS
330
C
102
}
330
C
100
AcDbDictionary
281
     1
  0
XRECORD
  5
2F559D
102
{ACAD_REACTORS
330
C
102
}
330
C
100
AcDbXrecord
280
     1
  1
DWGPROPS COOKIE
  2

  3

  4
Daniel Mazur
  6

  7

  8
Jumpo
  9

300
Menadżer=
301
Firma=
302
Kategoria=
303
Numer części=
304
Opis=
305
Projekt=
306
Projektant=Daniel Mazur
307
Inżynier=
308
Zatwierdził=
309
Centrum kosztów=
 40
1.659434201388888
 41
2458022.861501852
 42
2458667.562676053
  1

 90
       16
300
Dostawca=
300
Stan użytkownika=
300
Stan projektu=PracaWToku
300
Sprawdził=
300
Zatwierdził konstrukcję=
300
Zatwierdził do produkcji=
  0
DICTIONARY
  5
22E5E
102
{ACAD_REACTORS
330
22E5D
102
}
330
22E5D
100
AcDbDictionary
281
     1
  0
DICTIONARY
  5
79095
102
{ACAD_REACTORS
330
22E5D
102
}
330
22E5D
100
AcDbDictionary
280
     1
281
     1
  0
SORTENTSTABLE
  5
2D66A
102
{ACAD_REACTORS
330
2D669
102
}
330
2D669
100
AcDbSortentsTable
330
6C
331
2F54EF
  5
2F54EF
331
2F54B4
  5
2F54B4
331
2F53FF
  5
2F53FF
331
2F543E
  5
2F543E
331
2F5475
  5
2F5475
331
2F54EB
  5
2F54EB
331
2F5526
  5
2F5526
331
2F54B0
  5
2F54B0
331
2F543A
  5
2F543A
331
2F53C4
  5
2F53C4
331
2F5385
  5
2F5385
331
2F53FB
  5
2F53FB
331
2F5471
  5
2F5471
331
2F54E7
  5
2F54E7
331
2F54E3
  5
2F54E3
331
2F5436
  5
2F5436
331
2F53F7
  5
2F53F7
331
2F5381
  5
2F5381
331
2F53C0
  5
2F53C0
331
2F546D
  5
2F546D
331
2F54AC
  5
2F54AC
331
2F5522
  5
2F5522
331
2F54A8
  5
2F54A8
331
2F5432
  5
2F5432
331
2F53F3
  5
2F53F3
331
2F53BC
  5
2F53BC
331
2F537D
  5
2F537D
331
2F5469
  5
2F5469
331
2F534C
  5
2F534C
331
2F4515
  5
2F505C
331
2ECD7F
  5
2ECD83
331
2ECDBE
  5
2ECDC2
331
2F53B8
  5
2F53B8
331
2F5379
  5
2F5379
331
2F5348
  5
2F5348
331
2ECD7B
  5
2ECD7F
331
2ECD05
  5
2ECD09
331
2ECD44
  5
2ECD48
331
2ECDBA
  5
2ECDBE
331
2F5344
  5
2F5344
331
2F450D
  5
2F451B
331
2ECDB6
  5
2ECDBA
331
2ECD40
  5
2ECD44
331
2ECD01
  5
2ECD05
331
2ECD77
  5
2ECD7B
331
2F5340
  5
2F5340
331
2ECDB2
  5
2ECDB6
331
2ECD73
  5
2ECD77
331
2ECD3C
  5
2ECD40
331
2ECD38
  5
2ECD3C
331
2F551E
  5
2F551E
331
2F54DF
  5
2F54DF
331
2F551A
  5
2F551A
331
2F54A4
  5
2F54A4
331
2F53EF
  5
2F53EF
331
2F542E
  5
2F542E
331
2F5465
  5
2F5465
331
2F54DB
  5
2F54DB
331
2F5516
  5
2F5516
331
2F54A0
  5
2F54A0
331
2F53EB
  5
2F53EB
331
2F53B4
  5
2F53B4
331
2F5375
  5
2F5375
331
2F542A
  5
2F542A
331
2F5461
  5
2F5461
331
2F54D7
  5
2F54D7
331
2F54D3
  5
2F54D3
331
2F53E7
  5
2F53E7
331
2F5371
  5
2F5371
331
2F53B0
  5
2F53B0
331
2F5426
  5
2F5426
331
2F545D
  5
2F545D
331
2F549C
  5
2F549C
331
2F5512
  5
2F5512
331
2F5422
  5
2F5422
331
2F536D
  5
2F536D
331
2F53AC
  5
2F53AC
331
2F53E3
  5
2F53E3
331
2F5459
  5
2F5459
331
2F5498
  5
2F5498
331
2F533C
  5
2ECCFF
331
2ECD6F
  5
2ECD73
331
2ECDAE
  5
2ECDB2
331
2F5369
  5
2F5369
331
2F53A8
  5
2F53A8
331
2ECD6B
  5
2ECD6F
331
2ECD34
  5
2ECD38
331
2ECDAA
  5
2ECDAE
331
2ECDDD
  5
2F450E
331
2ECDA6
  5
2ECDAA
331
2ECD30
  5
2ECD34
331
2ECD67
  5
2ECD6B
331
2ECDD9
  5
2ECDDD
331
2ECDA2
  5
2ECDA6
331
2ECD2C
  5
2ECD30
331
2ECD63
  5
2ECD67
331
2ECD28
  5
2ECD2C
331
2EC8EF
  5
2EC8F1
331
2F550E
  5
2F550E
331
2F54CF
  5
2F54CF
331
2F550A
  5
2F550A
331
2F541E
  5
2F541E
331
2F53DF
  5
2F53DF
331
2F5455
  5
2F5455
331
2F5494
  5
2F5494
331
2F54CB
  5
2F54CB
331
2F5506
  5
2F5506
331
2F5365
  5
2F5365
331
2F53A4
  5
2F53A4
331
2F53DB
  5
2F53DB
331
2F541A
  5
2F541A
331
2F5451
  5
2F5451
331
2F5490
  5
2F5490
331
2F54C7
  5
2F54C7
331
2F54C3
  5
2F54C3
331
2F53D7
  5
2F53D7
331
2F5361
  5
2F5361
331
2F53A0
  5
2F53A0
331
2F5416
  5
2F5416
331
2F544D
  5
2F544D
331
2F548C
  5
2F548C
331
2F5502
  5
2F5502
331
2F5412
  5
2F5412
331
2F535D
  5
2F535D
331
2F539C
  5
2F539C
331
2F53D3
  5
2F53D3
331
2F5449
  5
2F5449
331
2F5488
  5
2F5488
331
2ECDD5
  5
2ECDD9
331
2ECD5F
  5
2ECD63
331
2ECD9E
  5
2ECDA2
331
2F5359
  5
2F5359
331
2F5398
  5
2F5398
331
2ECDD1
  5
2ECDD5
331
2F4B90
  5
2F5321
331
2ECD5B
  5
2ECD5F
331
2ECD24
  5
2ECD28
331
2ECD9A
  5
2ECD9E
331
2ECDCD
  5
2ECDD1
331
2ECD96
  5
2ECD9A
331
2ECD20
  5
2ECD24
331
2ECD57
  5
2ECD5B
331
2ECDC9
  5
2ECDCD
331
2ECD92
  5
2ECD96
331
2ECD1C
  5
2ECD20
331
2ECD53
  5
2ECD57
331
2ECD18
  5
2ECD1C
331
2F54FE
  5
2F54FE
331
2F54FA
  5
2F54FA
331
2F5484
  5
2F5484
331
2F540E
  5
2F540E
331
2F54F6
  5
2F54F6
331
2F5480
  5
2F5480
331
2F54BF
  5
2F54BF
331
2F5394
  5
2F5394
331
2F540A
  5
2F540A
331
2F547C
  5
2F547C
331
2F54BB
  5
2F54BB
331
2F54F2
  5
2F54F2
331
2F5445
  5
2F5445
331
2F5406
  5
2F5406
331
2F5390
  5
2F5390
331
2F53CF
  5
2F53CF
331
2F5478
  5
2F5478
331
2F5441
  5
2F5441
331
2F5402
  5
2F5402
331
2F53CB
  5
2F53CB
331
2ECD8E
  5
2ECD92
331
2F538C
  5
2F538C
331
2F5357
  5
2F5357
331
2ECD8A
  5
2ECD8E
331
2ECD14
  5
2ECD18
331
2F5388
  5
2F5388
331
2F451C
  5
2F5069
331
2F5353
  5
2F5353
331
2ECDC5
  5
2ECDC9
331
2ECD86
  5
2ECD8A
331
2ECD4F
  5
2ECD53
331
2ECD10
  5
2ECD14
331
2ECD82
  5
2ECD86
331
2ECD4B
  5
2ECD4F
331
2ECD0C
  5
2ECD10
331
2ECDC1
  5
2ECDC5
331
2ECD08
  5
2ECD0C
331
2F54B7
  5
2F54B7
331
2F54EE
  5
2F54EE
331
2F54B3
  5
2F54B3
331
2F5474
  5
2F5474
331
2F54EA
  5
2F54EA
331
2F53FE
  5
2F53FE
331
2F53C7
  5
2F53C7
331
2F543D
  5
2F543D
331
2F54AF
  5
2F54AF
331
2F5470
  5
2F5470
331
2F54E6
  5
2F54E6
331
2F5525
  5
2F5525
331
2F5439
  5
2F5439
331
2F53C3
  5
2F53C3
331
2F5384
  5
2F5384
331
2F53FA
  5
2F53FA
331
2F54E2
  5
2F54E2
331
2F546C
  5
2F546C
331
2F54AB
  5
2F54AB
331
2F5521
  5
2F5521
331
2F5435
  5
2F5435
331
2F53F6
  5
2F53F6
331
2F534F
  5
2F534F
331
2F5380
  5
2F5380
331
2F53BF
  5
2F53BF
331
2F5468
  5
2F5468
331
2F5431
  5
2F5431
331
2F53F2
  5
2F53F2
331
2F53BB
  5
2F53BB
331
2F534B
  5
2F534B
331
2F4514
  5
2F505B
331
2ECD47
  5
2ECD4B
331
2ECD7E
  5
2ECD82
331
2ECDBD
  5
2ECDC1
331
2F537C
  5
2F537C
331
2F5347
  5
2F5347
331
2ECD7A
  5
2ECD7E
331
2ECD04
  5
2ECD08
331
2ECD43
  5
2ECD47
331
2ECDB9
  5
2ECDBD
331
2F5378
  5
2F5378
331
2F5343
  5
2F5343
331
2ECDB5
  5
2ECDB9
331
2ECD76
  5
2ECD7A
331
2ECD3F
  5
2ECD43
331
2ECD00
  5
2ECD04
331
2ECD72
  5
2ECD76
331
2ECD3B
  5
2ECD3F
331
2ECDB1
  5
2ECDB5
331
2F551D
  5
2F551D
331
2F54A7
  5
2F54A7
331
2F54DE
  5
2F54DE
331
2F5519
  5
2F5519
331
2F54A3
  5
2F54A3
331
2F5464
  5
2F5464
331
2F54DA
  5
2F54DA
331
2F53EE
  5
2F53EE
331
2F53B7
  5
2F53B7
331
2F542D
  5
2F542D
331
2F5515
  5
2F5515
331
2F549F
  5
2F549F
331
2F5460
  5
2F5460
331
2F54D6
  5
2F54D6
331
2F5429
  5
2F5429
331
2F53B3
  5
2F53B3
331
2F5374
  5
2F5374
331
2F53EA
  5
2F53EA
331
2F54D2
  5
2F54D2
331
2F545C
  5
2F545C
331
2F549B
  5
2F549B
331
2F5511
  5
2F5511
331
2F53E6
  5
2F53E6
331
2F533F
  5
2F533F
331
2F5370
  5
2F5370
331
2F53AF
  5
2F53AF
331
2F5425
  5
2F5425
331
2F5458
  5
2F5458
331
2F5421
  5
2F5421
331
2F533B
  5
2EC8EE
331
2ECD37
  5
2ECD3B
331
2ECD6E
  5
2ECD72
331
2ECDAD
  5
2ECDB1
331
2F536C
  5
2F536C
331
2F53AB
  5
2F53AB
331
2F53E2
  5
2F53E2
331
2ECD6A
  5
2ECD6E
331
2ECD33
  5
2ECD37
331
2ECDA9
  5
2ECDAD
331
2F5368
  5
2F5368
331
2ECDDC
  5
2F450D
331
2ECDA5
  5
2ECDA9
331
2ECD2F
  5
2ECD33
331
2ECD66
  5
2ECD6A
331
2ECDD8
  5
2ECDDC
331
2ECDA1
  5
2ECDA5
331
2ECD2B
  5
2ECD2F
331
2ECD62
  5
2ECD66
331
2EC8EE
  5
2EC8EF
331
2F550D
  5
2F550D
331
2F5497
  5
2F5497
331
2F54CE
  5
2F54CE
331
2F5509
  5
2F5509
331
2F5454
  5
2F5454
331
2F5493
  5
2F5493
331
2F54CA
  5
2F54CA
331
2F53A7
  5
2F53A7
331
2F53DE
  5
2F53DE
331
2F541D
  5
2F541D
331
2F5505
  5
2F5505
331
2F548F
  5
2F548F
331
2F5450
  5
2F5450
331
2F54C6
  5
2F54C6
331
2F53A3
  5
2F53A3
331
2F5364
  5
2F5364
331
2F53DA
  5
2F53DA
331
2F5419
  5
2F5419
331
2F54C2
  5
2F54C2
331
2F544C
  5
2F544C
331
2F548B
  5
2F548B
331
2F5501
  5
2F5501
331
2F53D6
  5
2F53D6
331
2F5360
  5
2F5360
331
2F539F
  5
2F539F
331
2F5415
  5
2F5415
331
2F5448
  5
2F5448
331
2F5411
  5
2F5411
331
2ECDD4
  5
2ECDD8
331
2F4B93
  5
2F533C
331
2ECD27
  5
2ECD2B
331
2ECD5E
  5
2ECD62
331
2ECD9D
  5
2ECDA1
331
2F535C
  5
2F535C
331
2F539B
  5
2F539B
331
2F53D2
  5
2F53D2
331
2ECDD0
  5
2ECDD4
331
2ECD5A
  5
2ECD5E
331
2ECD23
  5
2ECD27
331
2ECD99
  5
2ECD9D
331
2F5358
  5
2F5358
331
2ECDCC
  5
2ECDD0
331
2ECD95
  5
2ECD99
331
2ECD1F
  5
2ECD23
331
2ECD56
  5
2ECD5A
331
2ECDC8
  5
2ECDCC
331
2ECD91
  5
2ECD95
331
2ECD1B
  5
2ECD1F
331
2ECD52
  5
2ECD56
331
2F54FD
  5
2F54FD
331
2F5487
  5
2F5487
331
2F54F9
  5
2F54F9
331
2F540D
  5
2F540D
331
2F5397
  5
2F5397
331
2F5483
  5
2F5483
331
2F54F5
  5
2F54F5
331
2F5393
  5
2F5393
331
2F5409
  5
2F5409
331
2F547F
  5
2F547F
331
2F54BE
  5
2F54BE
331
2F54BA
  5
2F54BA
331
2F5444
  5
2F5444
331
2F5405
  5
2F5405
331
2F53CE
  5
2F53CE
331
2F538F
  5
2F538F
331
2F547B
  5
2F547B
331
2F54F1
  5
2F54F1
331
2F5440
  5
2F5440
331
2F5401
  5
2F5401
331
2F53CA
  5
2F53CA
331
2ECD17
  5
2ECD1B
331
2ECD8D
  5
2ECD91
331
2F538B
  5
2F538B
331
2F5356
  5
2F5356
331
2ECD89
  5
2ECD8D
331
2ECD13
  5
2ECD17
331
2F5352
  5
2F5352
331
2F451B
  5
2F505D
331
2ECDC4
  5
2ECDC8
331
2ECD85
  5
2ECD89
331
2ECD4E
  5
2ECD52
331
2ECD0F
  5
2ECD13
331
2ECD81
  5
2ECD85
331
2ECD4A
  5
2ECD4E
331
2ECD0B
  5
2ECD0F
331
2ECDC0
  5
2ECDC4
331
2F54B6
  5
2F54B6
331
2F5477
  5
2F5477
331
2F54ED
  5
2F54ED
331
2F5528
  5
2F5528
331
2F54B2
  5
2F54B2
331
2F53FD
  5
2F53FD
331
2F53C6
  5
2F53C6
331
2F5387
  5
2F5387
331
2F543C
  5
2F543C
331
2F5473
  5
2F5473
331
2F54E9
  5
2F54E9
331
2F54E5
  5
2F54E5
331
2F5438
  5
2F5438
331
2F53F9
  5
2F53F9
331
2F5383
  5
2F5383
331
2F53C2
  5
2F53C2
331
2F546F
  5
2F546F
331
2F54AE
  5
2F54AE
331
2F5524
  5
2F5524
331
2F5520
  5
2F5520
331
2F5434
  5
2F5434
331
2F53F5
  5
2F53F5
331
2F534E
  5
2F534E
331
2F537F
  5
2F537F
331
2F53BE
  5
2F53BE
331
2F546B
  5
2F546B
331
2F54AA
  5
2F54AA
331
2F54E1
  5
2F54E1
331
2F5430
  5
2F5430
331
2F53F1
  5
2F53F1
331
2F53BA
  5
2F53BA
331
2F534A
  5
2F534A
331
2ECD07
  5
2ECD0B
331
2ECD46
  5
2ECD4A
331
2ECD7D
  5
2ECD81
331
2ECDBC
  5
2ECDC0
331
2F537B
  5
2F537B
331
2F5346
  5
2F5346
331
2ECD42
  5
2ECD46
331
2ECD03
  5
2ECD07
331
2ECD79
  5
2ECD7D
331
2ECDB8
  5
2ECDBC
331
2F5342
  5
2F5342
331
2ECDB4
  5
2ECDB8
331
2ECD75
  5
2ECD79
331
2ECD3E
  5
2ECD42
331
2ECCFF
  5
2ECD03
331
2ECD71
  5
2ECD75
331
2ECD3A
  5
2ECD3E
331
2ECDB0
  5
2ECDB4
331
2F551C
  5
2F551C
331
2F54A6
  5
2F54A6
331
2F5467
  5
2F5467
331
2F54DD
  5
2F54DD
331
2F5518
  5
2F5518
331
2F54A2
  5
2F54A2
331
2F53ED
  5
2F53ED
331
2F53B6
  5
2F53B6
331
2F5377
  5
2F5377
331
2F542C
  5
2F542C
331
2F5463
  5
2F5463
331
2F54D9
  5
2F54D9
331
2F549E
  5
2F549E
331
2F5428
  5
2F5428
331
2F53B2
  5
2F53B2
331
2F5373
  5
2F5373
331
2F53E9
  5
2F53E9
331
2F545F
  5
2F545F
331
2F54D5
  5
2F54D5
331
2F5514
  5
2F5514
331
2F54D1
  5
2F54D1
331
2F53E5
  5
2F53E5
331
2F533E
  5
2F533E
331
2F4507
  5
2F4515
331
2F536F
  5
2F536F
331
2F53AE
  5
2F53AE
331
2F5424
  5
2F5424
331
2F545B
  5
2F545B
331
2F549A
  5
2F549A
331
2F5510
  5
2F5510
331
2F5420
  5
2F5420
331
2F533A
  5
2ECD01
331
2ECD36
  5
2ECD3A
331
2ECD6D
  5
2ECD71
331
2ECDAC
  5
2ECDB0
331
2F536B
  5
2F536B
331
2F53AA
  5
2F53AA
331
2F53E1
  5
2F53E1
331
2ECD69
  5
2ECD6D
331
2ECD32
  5
2ECD36
331
2ECDA8
  5
2ECDAC
331
2ECDDB
  5
2F4507
331
2ECDA4
  5
2ECDA8
331
2ECD2E
  5
2ECD32
331
2ECD65
  5
2ECD69
331
2ECD2A
  5
2ECD2E
331
2ECD61
  5
2ECD65
331
2ECDA0
  5
2ECDA4
331
2EC8F1
  5
2ECD00
331
2F550C
  5
2F550C
331
2F5457
  5
2F5457
331
2F5496
  5
2F5496
331
2F54CD
  5
2F54CD
331
2F5508
  5
2F5508
331
2F5367
  5
2F5367
331
2F53A6
  5
2F53A6
331
2F53DD
  5
2F53DD
331
2F541C
  5
2F541C
331
2F5453
  5
2F5453
331
2F5492
  5
2F5492
331
2F54C9
  5
2F54C9
331
2F5504
  5
2F5504
331
2F548E
  5
2F548E
331
2F53A2
  5
2F53A2
331
2F5363
  5
2F5363
331
2F53D9
  5
2F53D9
331
2F5418
  5
2F5418
331
2F544F
  5
2F544F
331
2F54C5
  5
2F54C5
331
2F54C1
  5
2F54C1
331
2F53D5
  5
2F53D5
331
2ECDD7
  5
2ECDDB
331
2F535F
  5
2F535F
331
2F539E
  5
2F539E
331
2F5414
  5
2F5414
331
2F544B
  5
2F544B
331
2F548A
  5
2F548A
331
2F5500
  5
2F5500
331
2F5410
  5
2F5410
331
2F4B92
  5
2F533B
331
2ECDD3
  5
2ECDD7
331
2ECD26
  5
2ECD2A
331
2ECD5D
  5
2ECD61
331
2ECD9C
  5
2ECDA0
331
2F535B
  5
2F535B
331
2F539A
  5
2F539A
331
2F53D1
  5
2F53D1
331
2ECDCF
  5
2ECDD3
331
2ECD59
  5
2ECD5D
331
2ECD22
  5
2ECD26
331
2ECD98
  5
2ECD9C
331
2ECDCB
  5
2ECDCF
331
2ECD94
  5
2ECD98
331
2ECD1E
  5
2ECD22
331
2ECD55
  5
2ECD59
331
2ECD90
  5
2ECD94
331
2ECD1A
  5
2ECD1E
331
2ECD51
  5
2ECD55
331
2F54FC
  5
2F54FC
331
2F5486
  5
2F5486
331
2F54F8
  5
2F54F8
331
2F5396
  5
2F5396
331
2F540C
  5
2F540C
331
2F5482
  5
2F5482
331
2F54F4
  5
2F54F4
331
2F5447
  5
2F5447
331
2F5392
  5
2F5392
331
2F5408
  5
2F5408
331
2F547E
  5
2F547E
331
2F54BD
  5
2F54BD
331
2F54B9
  5
2F54B9
331
2F5443
  5
2F5443
331
2F5404
  5
2F5404
331
2F53CD
  5
2F53CD
331
2F538E
  5
2F538E
331
2F547A
  5
2F547A
331
2F54F0
  5
2F54F0
331
2F5400
  5
2F5400
331
2F53C9
  5
2F53C9
331
2ECD16
  5
2ECD1A
331
2ECD8C
  5
2ECD90
331
2F538A
  5
2F538A
331
2ECD88
  5
2ECD8C
331
2ECD12
  5
2ECD16
331
2ECDC7
  5
2ECDCB
331
2F5355
  5
2F5355
331
2ECDC3
  5
2ECDC7
331
2ECD84
  5
2ECD88
331
2ECD4D
  5
2ECD51
331
2ECD0E
  5
2ECD12
331
2F5351
  5
2F5351
331
2ECD80
  5
2ECD84
331
2ECD49
  5
2ECD4D
331
2ECD0A
  5
2ECD0E
331
2F54B5
  5
2F54B5
331
2F543F
  5
2F543F
331
2F5476
  5
2F5476
331
2F54EC
  5
2F54EC
331
2F5527
  5
2F5527
331
2F54B1
  5
2F54B1
331
2F53FC
  5
2F53FC
331
2F53C5
  5
2F53C5
331
2F5386
  5
2F5386
331
2F543B
  5
2F543B
331
2F5472
  5
2F5472
331
2F54E8
  5
2F54E8
331
2F54E4
  5
2F54E4
331
2F5437
  5
2F5437
331
2F53F8
  5
2F53F8
331
2F5382
  5
2F5382
331
2F53C1
  5
2F53C1
331
2F546E
  5
2F546E
331
2F54AD
  5
2F54AD
331
2F5523
  5
2F5523
331
2F54A9
  5
2F54A9
331
2F5433
  5
2F5433
331
2F53F4
  5
2F53F4
331
2F53BD
  5
2F53BD
331
2F537E
  5
2F537E
331
2F546A
  5
2F546A
331
2F54E0
  5
2F54E0
331
2ECDBF
  5
2ECDC3
331
2F534D
  5
2F534D
331
2F53F0
  5
2F53F0
331
2F53B9
  5
2F53B9
331
2F537A
  5
2F537A
331
2ECD7C
  5
2ECD80
331
2ECD06
  5
2ECD0A
331
2ECD45
  5
2ECD49
331
2ECDBB
  5
2ECDBF
331
2F5349
  5
2F5349
331
2F5345
  5
2F5345
331
2ECD41
  5
2ECD45
331
2ECD02
  5
2ECD06
331
2ECD78
  5
2ECD7C
331
2ECDB7
  5
2ECDBB
331
2F450E
  5
2F451C
331
2ECDB3
  5
2ECDB7
331
2ECD74
  5
2ECD78
331
2ECD3D
  5
2ECD41
331
2ECCFE
  5
2ECD02
331
2F5341
  5
2F5341
331
2ECD70
  5
2ECD74
331
2ECD39
  5
2ECD3D
331
2F551F
  5
2F551F
331
2F551B
  5
2F551B
331
2F54A5
  5
2F54A5
331
2F542F
  5
2F542F
331
2F5466
  5
2F5466
331
2F54DC
  5
2F54DC
331
2F5517
  5
2F5517
331
2F54A1
  5
2F54A1
331
2F53EC
  5
2F53EC
331
2F53B5
  5
2F53B5
331
2F5376
  5
2F5376
331
2F542B
  5
2F542B
331
2F5462
  5
2F5462
331
2F54D8
  5
2F54D8
331
2F54D4
  5
2F54D4
331
2F5427
  5
2F5427
331
2F53E8
  5
2F53E8
331
2F5372
  5
2F5372
331
2F53B1
  5
2F53B1
331
2F545E
  5
2F545E
331
2F549D
  5
2F549D
331
2F5513
  5
2F5513
331
2F5423
  5
2F5423
331
2F536E
  5
2F536E
331
2F53AD
  5
2F53AD
331
2F53E4
  5
2F53E4
331
2F545A
  5
2F545A
331
2F5499
  5
2F5499
331
2F54D0
  5
2F54D0
331
2F533D
  5
2ECCFE
331
2ECDAF
  5
2ECDB3
331
2F4506
  5
2F4514
331
2ECD35
  5
2ECD39
331
2ECD6C
  5
2ECD70
331
2ECDAB
  5
2ECDAF
331
2F536A
  5
2F536A
331
2F53A9
  5
2F53A9
331
2F53E0
  5
2F53E0
331
2ECD31
  5
2ECD35
331
2ECD68
  5
2ECD6C
331
2ECDA7
  5
2ECDAB
331
2ECDA3
  5
2ECDA7
331
2ECD2D
  5
2ECD31
331
2ECD64
  5
2ECD68
331
2ECDDA
  5
2F4506
331
2ECD29
  5
2ECD2D
331
2ECD60
  5
2ECD64
331
2EC8EC
  5
2EC8EC
331
2F550F
  5
2F550F
331
2F550B
  5
2F550B
331
2F541F
  5
2F541F
331
2F5456
  5
2F5456
331
2F5495
  5
2F5495
331
2F54CC
  5
2F54CC
331
2F5507
  5
2F5507
331
2F5366
  5
2F5366
331
2F53A5
  5
2F53A5
331
2F53DC
  5
2F53DC
331
2F541B
  5
2F541B
331
2F5452
  5
2F5452
331
2F5491
  5
2F5491
331
2F54C8
  5
2F54C8
331
2F548D
  5
2F548D
331
2F53A1
  5
2F53A1
331
2F5362
  5
2F5362
331
2F53D8
  5
2F53D8
331
2F5417
  5
2F5417
331
2F544E
  5
2F544E
331
2F54C4
  5
2F54C4
331
2F5503
  5
2F5503
331
2F54C0
  5
2F54C0
331
2F53D4
  5
2F53D4
331
2F535E
  5
2F535E
331
2F539D
  5
2F539D
331
2F5413
  5
2F5413
331
2F544A
  5
2F544A
331
2F5489
  5
2F5489
331
2ECD9F
  5
2ECDA3
331
2ECDD6
  5
2ECDDA
331
2F535A
  5
2F535A
331
2F5399
  5
2F5399
331
2F53D0
  5
2F53D0
331
2ECD5C
  5
2ECD60
331
2ECD25
  5
2ECD29
331
2ECD9B
  5
2ECD9F
331
2ECDD2
  5
2ECDD6
331
2F4B91
  5
2F533A
331
2ECD97
  5
2ECD9B
331
2ECD21
  5
2ECD25
331
2ECD58
  5
2ECD5C
331
2ECDCE
  5
2ECDD2
331
2ECD93
  5
2ECD97
331
2ECD1D
  5
2ECD21
331
2ECD54
  5
2ECD58
331
2ECDCA
  5
2ECDCE
331
2ECD19
  5
2ECD1D
331
2ECD50
  5
2ECD54
331
2F54FF
  5
2F54FF
331
2F54FB
  5
2F54FB
331
2F540F
  5
2F540F
331
2F5485
  5
2F5485
331
2F54F7
  5
2F54F7
331
2F5395
  5
2F5395
331
2F540B
  5
2F540B
331
2F5481
  5
2F5481
331
2F54F3
  5
2F54F3
331
2F5446
  5
2F5446
331
2F5391
  5
2F5391
331
2F5407
  5
2F5407
331
2F547D
  5
2F547D
331
2F54BC
  5
2F54BC
331
2F54B8
  5
2F54B8
331
2F5442
  5
2F5442
331
2F5403
  5
2F5403
331
2F53CC
  5
2F53CC
331
2F538D
  5
2F538D
331
2F5479
  5
2F5479
331
2ECD8F
  5
2ECD93
331
2F53C8
  5
2F53C8
331
2F5389
  5
2F5389
331
2ECD15
  5
2ECD19
331
2ECD8B
  5
2ECD8F
331
2F5354
  5
2F5354
331
2ECDC6
  5
2ECDCA
331
2ECD87
  5
2ECD8B
331
2ECD11
  5
2ECD15
331
2F5350
  5
2F5350
331
2ECD83
  5
2ECD87
331
2ECD4C
  5
2ECD50
331
2ECD0D
  5
2ECD11
331
2ECDC2
  5
2ECDC6
331
2ECD48
  5
2ECD4C
331
2ECD09
  5
2ECD0D
  0
SORTENTSTABLE
  5
2F4562
102
{ACAD_REACTORS
330
2F4561
102
}
330
2F4561
100
AcDbSortentsTable
330
2F4560
  0
XRECORD
  5
2F559F
102
{ACAD_REACTORS
330
2F559E
102
}
330
2F559E
100
AcDbXrecord
280
     1
 70
     1
  0
XRECORD
  5
2F55A1
102
{ACAD_REACTORS
330
2F559E
102
}
330
2F559E
100
AcDbXrecord
280
     1
340
5B
  0
XRECORD
  5
2F55A2
102
{ACAD_REACTORS
330
2F559E
102
}
330
2F559E
100
AcDbXrecord
280
     1
340
5B
  0
XRECORD
  5
2F55A0
102
{ACAD_REACTORS
330
2F559E
102
}
330
2F559E
100
AcDbXrecord
280
     1
340
5B
  0
LAYOUT
  5
6B
102
{ACAD_XDICTIONARY
360
2F55D4
102
}
102
{ACAD_REACTORS
330
62
102
}
330
62
100
AcDbPlotSettings
  1

  2

  4

  6

 40
0.0
 41
0.0
 42
0.0
 43
0.0
 44
0.0
 45
0.0
 46
0.0
 47
0.0
 48
0.0
 49
0.0
140
0.0
141
0.0
142
1.0
143
1.0
 70
   688
 72
     0
 73
     0
 74
     5
  7
monochrome.ctb
 75
    16
147
1.0
148
0.0
149
0.0
100
AcDbLayout
  1
Layout1
 70
     1
 71
     1
 10
0.0
 20
0.0
 11
420.0
 21
297.0
 12
0.0
 22
0.0
 32
0.0
 14
0.0
 24
0.0
 34
0.0
 15
420.0
 25
297.0
 35
0.0
146
0.0
 13
0.0
 23
0.0
 33
0.0
 16
1.0
 26
0.0
 36
0.0
 17
0.0
 27
1.0
 37
0.0
 76
     0
330
68
  0
LAYOUT
  5
73
102
{ACAD_XDICTIONARY
360
2F55D7
102
}
102
{ACAD_REACTORS
330
62
102
}
330
62
100
AcDbPlotSettings
  1

  2

  4

  6

 40
0.0
 41
0.0
 42
0.0
 43
0.0
 44
0.0
 45
0.0
 46
0.0
 47
0.0
 48
0.0
 49
0.0
140
0.0
141
0.0
142
1.0
143
1.0
 70
   688
 72
     0
 73
     0
 74
     5
  7
monochrome.ctb
 75
    16
147
1.0
148
0.0
149
0.0
100
AcDbLayout
  1
Layout2
 70
     1
 71
     2
 10
0.0
 20
0.0
 11
12.0
 21
9.0
 12
0.0
 22
0.0
 32
0.0
 14
0.0
 24
0.0
 34
0.0
 15
0.0
 25
0.0
 35
0.0
146
0.0
 13
0.0
 23
0.0
 33
0.0
 16
1.0
 26
0.0
 36
0.0
 17
0.0
 27
1.0
 37
0.0
 76
     0
330
70
  0
LAYOUT
  5
6F
102
{ACAD_XDICTIONARY
360
22E63
102
}
102
{ACAD_REACTORS
330
62
102
}
330
62
100
AcDbPlotSettings
  1

  2
PDFCreator
  4
A4
  6

 40
3.174999952316283
 41
3.174999952316283
 42
3.175003051757812
 43
3.17498779296875
 44
209.8886566162109
 45
297.0530090332031
 46
0.0
 47
0.0
 48
0.0
 49
0.0
140
0.0
141
0.0
142
1.0
143
44.55739079110223
 70
 11952
 72
     1
 73
     1
 74
     0
  7
monochrome.ctb
 75
     0
147
0.022442965852473
148
3615.822218811902
149
2375.763017350619
100
AcDbLayout
  1
Model
 70
     1
 71
     0
 10
0.0
 20
0.0
 11
12.0
 21
9.0
 12
0.0
 22
0.0
 32
0.0
 14
0.0
 24
0.0
 34
0.0
 15
0.0
 25
0.0
 35
0.0
146
0.0
 13
0.0
 23
0.0
 33
0.0
 16
1.0
 26
0.0
 36
0.0
 17
0.0
 27
1.0
 37
0.0
 76
     0
330
6C
331
57
1001
ACAD_PSEXT
1000
PDFCreator
1000
PDFCreator
1000
pdfcmon
1000
PDFCreator Printer
1070
     0
  0
MATERIAL
  5
19
102
{ACAD_XDICTIONARY
360
1A
102
}
102
{ACAD_REACTORS
330
10
102
}
330
10
100
AcDbMaterial
  1
ByBlock
 72
     0
 43
0.0208333333333333
 43
0.0
 43
0.0
 43
0.0
 43
0.0
 43
0.0208333333333333
 43
0.0
 43
0.0
 43
0.0
 43
0.0
 43
1.0
 43
0.0
 43
0.0
 43
0.0
 43
0.0
 43
1.0
 77
     0
 47
0.0208333333333333
 47
0.0
 47
0.0
 47
0.0
 47
0.0
 47
0.0208333333333333
 47
0.0
 47
0.0
 47
0.0
 47
0.0
 47
1.0
 47
0.0
 47
0.0
 47
0.0
 47
0.0
 47
1.0
171
     0
 49
0.0208333333333333
 49
0.0
 49
0.0
 49
0.0
 49
0.0
 49
0.0208333333333333
 49
0.0
 49
0.0
 49
0.0
 49
0.0
 49
1.0
 49
0.0
 49
0.0
 49
0.0
 49
0.0
 49
1.0
175
     0
142
0.0208333333333333
142
0.0
142
0.0
142
0.0
142
0.0
142
0.0208333333333333
142
0.0
142
0.0
142
0.0
142
0.0
142
1.0
142
0.0
142
0.0
142
0.0
142
0.0
142
1.0
179
     0
144
0.0208333333333333
144
0.0
144
0.0
144
0.0
144
0.0
144
0.0208333333333333
144
0.0
144
0.0
144
0.0
144
0.0
144
1.0
144
0.0
144
0.0
144
0.0
144
0.0
144
1.0
147
0.0208333333333333
147
0.0
147
0.0
147
0.0
147
0.0
147
0.0208333333333333
147
0.0
147
0.0
147
0.0
147
0.0
147
1.0
147
0.0
147
0.0
147
0.0
147
0.0
147
1.0
  0
MATERIAL
  5
11
102
{ACAD_XDICTIONARY
360
12
102
}
102
{ACAD_REACTORS
330
10
102
}
330
10
100
AcDbMaterial
  1
ByLayer
 72
     0
 43
0.0208333333333333
 43
0.0
 43
0.0
 43
0.0
 43
0.0
 43
0.0208333333333333
 43
0.0
 43
0.0
 43
0.0
 43
0.0
 43
1.0
 43
0.0
 43
0.0
 43
0.0
 43
0.0
 43
1.0
 77
     0
 47
0.0208333333333333
 47
0.0
 47
0.0
 47
0.0
 47
0.0
 47
0.0208333333333333
 47
0.0
 47
0.0
 47
0.0
 47
0.0
 47
1.0
 47
0.0
 47
0.0
 47
0.0
 47
0.0
 47
1.0
171
     0
 49
0.0208333333333333
 49
0.0
 49
0.0
 49
0.0
 49
0.0
 49
0.0208333333333333
 49
0.0
 49
0.0
 49
0.0
 49
0.0
 49
1.0
 49
0.0
 49
0.0
 49
0.0
 49
0.0
 49
1.0
175
     0
142
0.0208333333333333
142
0.0
142
0.0
142
0.0
142
0.0
142
0.0208333333333333
142
0.0
142
0.0
142
0.0
142
0.0
142
1.0
142
0.0
142
0.0
142
0.0
142
0.0
142
1.0
179
     0
144
0.0208333333333333
144
0.0
144
0.0
144
0.0
144
0.0
144
0.0208333333333333
144
0.0
144
0.0
144
0.0
144
0.0
144
1.0
144
0.0
144
0.0
144
0.0
144
0.0
144
1.0
147
0.0208333333333333
147
0.0
147
0.0
147
0.0
147
0.0
147
0.0208333333333333
147
0.0
147
0.0
147
0.0
147
0.0
147
1.0
147
0.0
147
0.0
147
0.0
147
0.0
147
1.0
  0
MATERIAL
  5
21
102
{ACAD_XDICTIONARY
360
22
102
}
102
{ACAD_REACTORS
330
10
102
}
330
10
100
AcDbMaterial
  1
Global
 72
     0
 43
0.0208333333333333
 43
0.0
 43
0.0
 43
0.0
 43
0.0
 43
0.0208333333333333
 43
0.0
 43
0.0
 43
0.0
 43
0.0
 43
1.0
 43
0.0
 43
0.0
 43
0.0
 43
0.0
 43
1.0
 77
     0
 47
0.0208333333333333
 47
0.0
 47
0.0
 47
0.0
 47
0.0
 47
0.0208333333333333
 47
0.0
 47
0.0
 47
0.0
 47
0.0
 47
1.0
 47
0.0
 47
0.0
 47
0.0
 47
0.0
 47
1.0
171
     0
 49
0.0208333333333333
 49
0.0
 49
0.0
 49
0.0
 49
0.0
 49
0.0208333333333333
 49
0.0
 49
0.0
 49
0.0
 49
0.0
 49
1.0
 49
0.0
 49
0.0
 49
0.0
 49
0.0
 49
1.0
175
     0
142
0.0208333333333333
142
0.0
142
0.0
142
0.0
142
0.0
142
0.0208333333333333
142
0.0
142
0.0
142
0.0
142
0.0
142
1.0
142
0.0
142
0.0
142
0.0
142
0.0
142
1.0
179
     0
144
0.0208333333333333
144
0.0
144
0.0
144
0.0
144
0.0
144
0.0208333333333333
144
0.0
144
0.0
144
0.0
144
0.0
144
1.0
144
0.0
144
0.0
144
0.0
144
0.0
144
1.0
147
0.0208333333333333
147
0.0
147
0.0
147
0.0
147
0.0
147
0.0208333333333333
147
0.0
147
0.0
147
0.0
147
0.0
147
1.0
147
0.0
147
0.0
147
0.0
147
0.0
147
1.0
  0
MLEADERSTYLE
  5
67
102
{ACAD_REACTORS
330
66
102
}
330
66
100
AcDbMLeaderStyle
170
     2
171
     1
172
     0
 90
        2
 40
0.0
 41
0.0
173
     1
 91
-1056964608
340
5B
 92
       -2
290
     1
 42
0.09
291
     1
 43
0.36
  3
Standard
 44
0.18
300

342
55
174
     1
178
     6
175
     1
176
     0
 93
-1056964608
 45
0.18
292
     0
297
     0
 46
0.18
 94
-1056964608
 47
1.0
 49
1.0
140
1.0
293
     1
141
0.0
294
     1
177
     0
142
1.0
295
     0
296
     0
143
0.125
1001
ACAD_MLEADERVER
1070
     2
  0
MLINESTYLE
  5
60
102
{ACAD_REACTORS
330
5F
102
}
330
5F
100
AcDbMlineStyle
  2
STANDARD
 70
     0
  3

 62
   256
 51
90.0
 52
90.0
 71
     2
 49
0.5
 62
   256
  6
BYLAYER
 49
-0.5
 62
   256
  6
BYLAYER
  0
ACDBPLACEHOLDER
  5
F
102
{ACAD_REACTORS
330
E
102
}
330
E
  0
SCALE
  5
43
102
{ACAD_REACTORS
330
42
102
}
330
42
100
AcDbScale
 70
     0
300
1:1
140
1.0
141
1.0
290
     1
  0
SCALE
  5
44
102
{ACAD_REACTORS
330
42
102
}
330
42
100
AcDbScale
 70
     0
300
1/128" = 1'-0"
140
0.0078125
141
12.0
290
     0
  0
SCALE
  5
45
102
{ACAD_REACTORS
330
42
102
}
330
42
100
AcDbScale
 70
     0
300
1/64" = 1'-0"
140
0.015625
141
12.0
290
     0
  0
SCALE
  5
46
102
{ACAD_REACTORS
330
42
102
}
330
42
100
AcDbScale
 70
     0
300
1/32" = 1'-0"
140
0.03125
141
12.0
290
     0
  0
SCALE
  5
47
102
{ACAD_REACTORS
330
42
102
}
330
42
100
AcDbScale
 70
     0
300
1/16" = 1'-0"
140
0.0625
141
12.0
290
     0
  0
SCALE
  5
48
102
{ACAD_REACTORS
330
42
102
}
330
42
100
AcDbScale
 70
     0
300
3/32" = 1'-0"
140
0.09375
141
12.0
290
     0
  0
SCALE
  5
49
102
{ACAD_REACTORS
330
42
102
}
330
42
100
AcDbScale
 70
     0
300
1/8" = 1'-0"
140
0.125
141
12.0
290
     0
  0
SCALE
  5
4A
102
{ACAD_REACTORS
330
42
102
}
330
42
100
AcDbScale
 70
     0
300
3/16" = 1'-0"
140
0.1875
141
12.0
290
     0
  0
SCALE
  5
4B
102
{ACAD_REACTORS
330
42
102
}
330
42
100
AcDbScale
 70
     0
300
1/4" = 1'-0"
140
0.25
141
12.0
290
     0
  0
SCALE
  5
4C
102
{ACAD_REACTORS
330
42
102
}
330
42
100
AcDbScale
 70
     0
300
3/8" = 1'-0"
140
0.375
141
12.0
290
     0
  0
SCALE
  5
4D
102
{ACAD_REACTORS
330
42
102
}
330
42
100
AcDbScale
 70
     0
300
1/2" = 1'-0"
140
0.5
141
12.0
290
     0
  0
SCALE
  5
4E
102
{ACAD_REACTORS
330
42
102
}
330
42
100
AcDbScale
 70
     0
300
3/4" = 1'-0"
140
0.75
141
12.0
290
     0
  0
SCALE
  5
4F
102
{ACAD_REACTORS
330
42
102
}
330
42
100
AcDbScale
 70
     0
300
1" = 1'-0"
140
1.0
141
12.0
290
     0
  0
SCALE
  5
50
102
{ACAD_REACTORS
330
42
102
}
330
42
100
AcDbScale
 70
     0
300
1-1/2" = 1'-0"
140
1.5
141
12.0
290
     0
  0
SCALE
  5
51
102
{ACAD_REACTORS
330
42
102
}
330
42
100
AcDbScale
 70
     0
300
3" = 1'-0"
140
3.0
141
12.0
290
     0
  0
SCALE
  5
52
102
{ACAD_REACTORS
330
42
102
}
330
42
100
AcDbScale
 70
     0
300
6" = 1'-0"
140
6.0
141
12.0
290
     0
  0
SCALE
  5
53
102
{ACAD_REACTORS
330
42
102
}
330
42
100
AcDbScale
 70
     0
300
1'-0" = 1'-0"
140
12.0
141
12.0
290
     0
  0
TABLESTYLE
  5
65
102
{ACAD_XDICTIONARY
360
2ECC49
102
}
102
{ACAD_REACTORS
330
64
102
}
330
64
100
AcDbTableStyle
  3
Standard
 70
     0
 71
     0
 40
0.06
 41
0.06
280
     0
281
     0
  7
Standard
140
0.18
170
     2
 62
     0
 63
     7
283
     0
274
    -2
284
     1
 64
     0
275
    -2
285
     1
 65
     0
276
    -2
286
     1
 66
     0
277
    -2
287
     1
 67
     0
278
    -2
288
     1
 68
     0
279
    -2
289
     1
 69
     0
  7
Standard
140
0.25
170
     5
 62
     0
 63
     7
283
     0
274
    -2
284
     1
 64
     0
275
    -2
285
     1
 65
     0
276
    -2
286
     1
 66
     0
277
    -2
287
     1
 67
     0
278
    -2
288
     1
 68
     0
279
    -2
289
     1
 69
     0
  7
Standard
140
0.18
170
     5
 62
     0
 63
     7
283
     0
274
    -2
284
     1
 64
     0
275
    -2
285
     1
 65
     0
276
    -2
286
     1
 66
     0
277
    -2
287
     1
 67
     0
278
    -2
288
     1
 68
     0
279
    -2
289
     1
 69
     0
  0
VISUALSTYLE
  5
2F
102
{ACAD_XDICTIONARY
360
2F55AD
102
}
102
{ACAD_REACTORS
330
29
102
}
330
29
100
AcDbVisualStyle
  2

 70
     4
 71
     0
 72
     2
 73
     0
 90
        0
 40
-0.6
 41
-30.0
 62
     5
 63
     7
 74
     1
 91
        4
 64
     7
 65
   257
 75
     1
175
     1
 42
1.0
 92
        0
 66
   257
 43
1.0
 76
     1
 77
     6
 78
     2
 67
     7
 79
     5
170
     0
171
     0
290
     0
174
     0
 93
        1
 44
0.0
173
     0
291
     0
 45
0.0
1001
ACAD
1000
AcDbSavedByObjectVersion
1070
     0
  0
VISUALSTYLE
  5
22EE4
102
{ACAD_XDICTIONARY
360
2F55D9
102
}
102
{ACAD_REACTORS
330
29
102
}
330
29
100
AcDbVisualStyle
  2

 70
     5
 71
     0
 72
     2
 73
     1
 90
        0
 40
-0.6
 41
-30.0
 62
     5
 63
     7
 74
     1
 91
        4
 64
     7
 65
   257
 75
     1
175
     1
 42
1.0
 92
        0
 66
   257
 43
1.0
 76
     1
 77
     6
 78
     2
 67
     7
 79
     5
170
     0
171
     0
290
     0
174
     0
 93
        1
 44
0.0
173
     0
291
     0
 45
0.0
1001
ACAD
1000
AcDbSavedByObjectVersion
1070
     0
  0
VISUALSTYLE
  5
2E
102
{ACAD_XDICTIONARY
360
2F55AB
102
}
102
{ACAD_REACTORS
330
29
102
}
330
29
100
AcDbVisualStyle
  2

 70
     7
 71
     1
 72
     0
 73
     1
 90
        0
 40
-0.6
 41
-30.0
 62
     5
 63
     7
 74
     0
 91
        4
 64
     7
 65
   257
 75
     1
175
     1
 42
1.0
 92
        8
 66
     7
 43
1.0
 76
     1
 77
     6
 78
     2
 67
     7
 79
     5
170
     0
171
     0
290
     0
174
     0
 93
        1
 44
0.0
173
     0
291
     1
 45
0.0
1001
ACAD
1000
AcDbSavedByObjectVersion
1070
     0
  0
VISUALSTYLE
  5
35
102
{ACAD_XDICTIONARY
360
2F55B9
102
}
102
{ACAD_REACTORS
330
29
102
}
330
29
100
AcDbVisualStyle
  2

 70
    12
 71
     2
 72
     2
 73
     0
 90
        0
 40
-0.6
 41
-30.0
 62
     5
 63
     7
 74
     1
 91
        4
 64
     7
 65
   257
 75
     1
175
     1
 42
1.0
 92
        8
 66
     7
 43
1.0
 76
     1
 77
     6
 78
     2
 67
     7
 79
     5
170
     0
171
     0
290
     0
174
     0
 93
        1
 44
50.0
173
     0
291
     1
 45
0.0
1001
ACAD
1000
AcDbSavedByObjectVersion
1070
     0
  0
VISUALSTYLE
  5
39
102
{ACAD_XDICTIONARY
360
2F55C1
102
}
102
{ACAD_REACTORS
330
29
102
}
330
29
100
AcDbVisualStyle
  2

 70
    16
 71
     2
 72
     2
 73
     3
 90
        0
 40
-0.6
 41
-30.0
 62
     5
 63
     8
 74
     1
 91
        4
 64
     7
 65
   257
 75
     1
175
     1
 42
1.0
 92
        8
 66
     8
 43
1.0
 76
     1
 77
     6
 78
     2
 67
     7
 79
     5
170
     0
171
     0
290
     0
174
     0
 93
        1
 44
0.0
173
     0
291
     1
 45
0.0
1001
ACAD
1000
AcDbSavedByObjectVersion
1070
     0
  0
VISUALSTYLE
  5
32
102
{ACAD_XDICTIONARY
360
2F55B3
102
}
102
{ACAD_REACTORS
330
29
102
}
330
29
100
AcDbVisualStyle
  2

 70
     9
 71
     3
 72
     2
 73
     0
 90
        0
 40
-0.6
 41
-30.0
 62
     5
 63
     7
 74
     2
 91
        2
 64
     7
 65
   257
 75
     1
175
     1
 42
179.0
 92
        8
 66
     7
 43
1.0
 76
     1
 77
     6
 78
     2
 67
     7
 79
     3
170
     0
171
     0
290
     0
174
     0
 93
        1
 44
0.0
173
     0
291
     0
 45
0.0
1001
ACAD
1000
AcDbSavedByObjectVersion
1070
     0
  0
VISUALSTYLE
  5
34
102
{ACAD_XDICTIONARY
360
2F55B7
102
}
102
{ACAD_REACTORS
330
29
102
}
330
29
100
AcDbVisualStyle
  2

 70
    11
 71
     2
 72
     2
 73
     0
 90
        0
 40
-0.6
 41
-30.0
 62
     5
 63
     7
 74
     1
 91
        4
 64
     7
 65
   257
 75
     1
175
     1
 42
1.0
 92
        8
 66
     7
 43
1.0
 76
     1
 77
     6
 78
     2
 67
     7
 79
     5
170
     0
171
     0
290
     0
174
     0
 93
        1
 44
-50.0
173
     0
291
     1
 45
0.0
1001
ACAD
1000
AcDbSavedByObjectVersion
1070
     0
  0
VISUALSTYLE
  5
41
102
{ACAD_XDICTIONARY
360
2F55D1
102
}
102
{ACAD_REACTORS
330
29
102
}
330
29
100
AcDbVisualStyle
  2

 70
    22
 71
     2
 72
     2
 73
     0
 90
        0
 40
-0.6
 41
-30.0
 62
     5
 63
     7
 74
     1
 91
        4
 64
     7
 65
   257
 75
     1
175
     1
 42
1.0
 92
        8
 66
     7
 43
1.0
 76
     1
 77
     6
 78
     2
 67
     7
 79
     5
170
     0
171
     0
290
     0
174
     0
 93
        1
 44
0.0
173
     0
291
     1
 45
0.0
1001
ACAD
1000
AcDbSavedByObjectVersion
1070
     0
  0
VISUALSTYLE
  5
38
102
{ACAD_XDICTIONARY
360
2F55BF
102
}
102
{ACAD_REACTORS
330
29
102
}
330
29
100
AcDbVisualStyle
  2

 70
    15
 71
     2
 72
     2
 73
     0
 90
        0
 40
-0.6
 41
-30.0
 62
     5
 63
     7
 74
     1
 91
        4
 64
     7
 65
   257
 75
     1
175
     1
 42
1.0
 92
        8
 66
     7
 43
1.0
 76
     1
 77
     6
 78
     2
 67
     7
 79
     5
170
     0
171
     0
290
     0
174
     0
 93
        1
 44
0.0
173
     0
291
     1
 45
0.0
1001
ACAD
1000
AcDbSavedByObjectVersion
1070
     0
  0
VISUALSTYLE
  5
2A
102
{ACAD_XDICTIONARY
360
2F55A3
102
}
102
{ACAD_REACTORS
330
29
102
}
330
29
100
AcDbVisualStyle
  2

 70
     0
 71
     2
 72
     1
 73
     1
 90
        2
 40
-0.6
 41
30.0
 62
     5
 63
     7
 74
     0
 91
        0
 64
     7
 65
   257
 75
     1
175
     1
 42
1.0
 92
        8
 66
     7
 43
1.0
 76
     1
 77
     6
 78
     2
 67
     7
 79
     5
170
     0
171
     0
290
     0
174
     0
 93
       13
 44
0.0
173
     0
291
     1
 45
0.0
1001
ACAD
1000
AcDbSavedByObjectVersion
1070
     0
  0
VISUALSTYLE
  5
2B
102
{ACAD_XDICTIONARY
360
2F55A5
102
}
102
{ACAD_REACTORS
330
29
102
}
330
29
100
AcDbVisualStyle
  2

 70
     1
 71
     2
 72
     1
 73
     1
 90
        2
 40
-0.6
 41
30.0
 62
     5
 63
     7
 74
     1
 91
        0
 64
     7
 65
   257
 75
     1
175
     1
 42
1.0
 92
        0
 66
   257
 43
1.0
 76
     1
 77
     6
 78
     2
 67
     7
 79
     5
170
     0
171
     0
290
     0
174
     0
 93
       13
 44
0.0
173
     0
291
     1
 45
0.0
1001
ACAD
1000
AcDbSavedByObjectVersion
1070
     0
  0
VISUALSTYLE
  5
2C
102
{ACAD_XDICTIONARY
360
2F55A7
102
}
102
{ACAD_REACTORS
330
29
102
}
330
29
100
AcDbVisualStyle
  2

 70
     2
 71
     2
 72
     2
 73
     1
 90
        2
 40
-0.6
 41
30.0
 62
     5
 63
     7
 74
     0
 91
        0
 64
     7
 65
   257
 75
     1
175
     1
 42
1.0
 92
        0
 66
     7
 43
1.0
 76
     1
 77
     6
 78
     2
 67
     7
 79
     5
170
     0
171
     0
290
     0
174
     0
 93
       13
 44
0.0
173
     0
291
     1
 45
0.0
1001
ACAD
1000
AcDbSavedByObjectVersion
1070
     0
  0
VISUALSTYLE
  5
2D
102
{ACAD_XDICTIONARY
360
2F55A9
102
}
102
{ACAD_REACTORS
330
29
102
}
330
29
100
AcDbVisualStyle
  2

 70
     3
 71
     2
 72
     2
 73
     1
 90
        2
 40
-0.6
 41
30.0
 62
     5
 63
     7
 74
     1
 91
        0
 64
     7
 65
   257
 75
     1
175
     1
 42
1.0
 92
        0
 66
   257
 43
1.0
 76
     1
 77
     6
 78
     2
 67
     7
 79
     5
170
     0
171
     0
290
     0
174
     0
 93
       13
 44
0.0
173
     0
291
     1
 45
0.0
1001
ACAD
1000
AcDbSavedByObjectVersion
1070
     0
  0
VISUALSTYLE
  5
31
102
{ACAD_XDICTIONARY
360
2F55B1
102
}
102
{ACAD_REACTORS
330
29
102
}
330
29
100
AcDbVisualStyle
  2

 70
     6
 71
     1
 72
     2
 73
     2
 90
        0
 40
-0.6
 41
-30.0
 62
     5
 63
     7
 74
     2
 91
        2
 64
     7
 65
   257
 75
     2
175
     1
 42
40.0
 92
        0
 66
   257
 43
1.0
 76
     1
 77
     6
 78
     2
 67
     7
 79
     3
170
     0
171
     0
290
     0
174
     0
 93
        1
 44
0.0
173
     0
291
     0
 45
0.0
1001
ACAD
1000
AcDbSavedByObjectVersion
1070
     0
  0
VISUALSTYLE
  5
3F
102
{ACAD_XDICTIONARY
360
2F55CD
102
}
102
{ACAD_REACTORS
330
29
102
}
330
29
100
AcDbVisualStyle
  2

 70
    20
 71
     2
 72
     2
 73
     0
 90
        0
 40
-0.6
 41
-30.0
 62
     5
 63
     7
 74
     1
 91
        4
 64
     7
 65
   257
 75
     1
175
     1
 42
1.0
 92
       10
 66
     7
 43
1.0
 76
     1
 77
     6
 78
     2
 67
     7
 79
     5
170
     0
171
     0
290
     0
174
     0
 93
        1
 44
0.0
173
     0
291
     1
 45
0.0
1001
ACAD
1000
AcDbSavedByObjectVersion
1070
     0
  0
VISUALSTYLE
  5
37
102
{ACAD_XDICTIONARY
360
2F55BD
102
}
102
{ACAD_REACTORS
330
29
102
}
330
29
100
AcDbVisualStyle
  2

 70
    14
 71
     2
 72
     2
 73
     0
 90
        0
 40
-0.6
 41
-30.0
 62
     5
 63
     7
 74
     1
 91
        4
 64
     7
 65
   257
 75
     7
175
     7
 42
1.0
 92
        8
 66
     7
 43
1.0
 76
     1
 77
     6
 78
     2
 67
     7
 79
     5
170
     0
171
     0
290
     0
174
     0
 93
        1
 44
0.0
173
     0
291
     1
 45
0.0
1001
ACAD
1000
AcDbSavedByObjectVersion
1070
     0
  0
VISUALSTYLE
  5
40
102
{ACAD_XDICTIONARY
360
2F55CF
102
}
102
{ACAD_REACTORS
330
29
102
}
330
29
100
AcDbVisualStyle
  2

 70
    21
 71
     2
 72
     2
 73
     0
 90
        0
 40
-0.6
 41
-30.0
 62
     5
 63
     7
 74
     1
 91
        4
 64
     7
 65
   257
 75
     1
175
     1
 42
1.0
 92
        9
 66
     7
 43
1.0
 76
     1
 77
     6
 78
     2
 67
     7
 79
     5
170
     0
171
     0
290
     0
174
     0
 93
        1
 44
0.0
173
     0
291
     1
 45
0.0
1001
ACAD
1000
AcDbSavedByObjectVersion
1070
     0
  0
VISUALSTYLE
  5
33
102
{ACAD_XDICTIONARY
360
2F55B5
102
}
102
{ACAD_REACTORS
330
29
102
}
330
29
100
AcDbVisualStyle
  2

 70
     8
 71
     2
 72
     3
 73
     0
 90
        2
 40
-0.6
 41
30.0
 62
     5
 63
     7
 74
     0
 91
        0
 64
     7
 65
   257
 75
     1
175
     1
 42
1.0
 92
        8
 66
   257
 43
1.0
 76
     1
 77
     6
 78
     2
 67
     7
 79
     3
170
     0
171
     0
290
     0
174
     0
 93
       13
 44
0.0
173
     0
291
     0
 45
0.0
1001
ACAD
1000
AcDbSavedByObjectVersion
1070
     0
  0
VISUALSTYLE
  5
3E
102
{ACAD_XDICTIONARY
360
2F55CB
102
}
102
{ACAD_REACTORS
330
29
102
}
330
29
100
AcDbVisualStyle
  2

 70
    27
 71
     2
 72
     2
 73
     1
 90
        2
 40
-0.6
 41
30.0
 62
     5
 63
     7
 74
     0
 91
        4
 64
     7
 65
   257
 75
     1
175
     1
 42
1.0
 92
        8
 66
   257
 43
1.0
 76
     1
 77
     6
 78
     2
 67
     8
 79
     3
170
     0
171
     0
290
     0
174
     0
 93
        5
 44
0.0
173
     0
291
     0
 45
0.0
1001
ACAD
1000
AcDbSavedByObjectVersion
1070
     0
  0
VISUALSTYLE
  5
3D
102
{ACAD_XDICTIONARY
360
2F55C9
102
}
102
{ACAD_REACTORS
330
29
102
}
330
29
100
AcDbVisualStyle
  2

 70
    26
 71
     2
 72
     2
 73
     1
 90
        2
 40
-0.6
 41
30.0
 62
     5
 63
     7
 74
     1
 91
       10
 64
     7
 65
   257
 75
     2
175
     1
 42
1.0
 92
        8
 66
   257
 43
1.0
 76
     1
 77
     6
 78
     2
 67
     7
 79
     3
170
     0
171
     0
290
     0
174
     0
 93
        5
 44
0.0
173
     0
291
     0
 45
0.0
1001
ACAD
1000
AcDbSavedByObjectVersion
1070
     0
  0
VISUALSTYLE
  5
3A
102
{ACAD_XDICTIONARY
360
2F55C3
102
}
102
{ACAD_REACTORS
330
29
102
}
330
29
100
AcDbVisualStyle
  2

 70
    23
 71
     2
 72
     2
 73
     3
 90
        0
 40
-0.6
 41
-30.0
 62
     5
 63
     7
 74
     2
 91
        2
 64
     7
 65
     7
 75
     1
175
     1
 42
40.0
 92
        8
 66
     7
 43
1.0
 76
     1
 77
     6
 78
     2
 67
     7
 79
     3
170
     0
171
     0
290
     0
174
     0
 93
        1
 44
0.0
173
     0
291
     0
 45
0.0
1001
ACAD
1000
AcDbSavedByObjectVersion
1070
     0
  0
VISUALSTYLE
  5
3B
102
{ACAD_XDICTIONARY
360
2F55C5
102
}
102
{ACAD_REACTORS
330
29
102
}
330
29
100
AcDbVisualStyle
  2

 70
    24
 71
     1
 72
     2
 73
     2
 90
        0
 40
-0.6
 41
-30.0
 62
     5
 63
     7
 74
     2
 91
        2
 64
     7
 65
     7
 75
     1
175
     1
 42
40.0
 92
       11
 66
     7
 43
1.0
 76
     1
 77
     6
 78
     2
 67
     7
 79
     6
170
     0
171
     0
290
     0
174
     0
 93
        1
 44
0.0
173
     0
291
     0
 45
0.0
1001
ACAD
1000
AcDbSavedByObjectVersion
1070
     0
  0
VISUALSTYLE
  5
36
102
{ACAD_XDICTIONARY
360
2F55BB
102
}
102
{ACAD_REACTORS
330
29
102
}
330
29
100
AcDbVisualStyle
  2

 70
    13
 71
     2
 72
     2
 73
     0
 90
        0
 40
-0.6
 41
-30.0
 62
     5
 63
     7
 74
     1
 91
        4
 64
     7
 65
   257
 75
     1
175
     1
 42
1.0
 92
       12
 66
     7
 43
1.0
 76
     1
 77
     6
 78
     2
 67
     7
 79
     5
170
     0
171
     0
290
     0
174
     0
 93
        1
 44
0.0
173
     0
291
     1
 45
0.0
1001
ACAD
1000
AcDbSavedByObjectVersion
1070
     0
  0
VISUALSTYLE
  5
30
102
{ACAD_XDICTIONARY
360
2F55AF
102
}
102
{ACAD_REACTORS
330
29
102
}
330
29
100
AcDbVisualStyle
  2

 70
     5
 71
     0
 72
     2
 73
     0
 90
        0
 40
-0.6
 41
-30.0
 62
     5
 63
     7
 74
     1
 91
        4
 64
     7
 65
   257
 75
     1
175
     1
 42
1.0
 92
        0
 66
   257
 43
1.0
 76
     1
 77
     6
 78
     2
 67
     7
 79
     3
170
     0
171
     0
290
     0
174
     0
 93
        1
 44
0.0
173
     0
291
     0
 45
0.0
1001
ACAD
1000
AcDbSavedByObjectVersion
1070
     0
  0
VISUALSTYLE
  5
3C
102
{ACAD_XDICTIONARY
360
2F55C7
102
}
102
{ACAD_REACTORS
330
29
102
}
330
29
100
AcDbVisualStyle
  2

 70
    25
 71
     2
 72
     2
 73
     1
 90
        1
 40
0.5
 41
-30.0
 62
     5
 63
     7
 74
     1
 91
        0
 64
     7
 65
   257
 75
     1
175
     1
 42
1.0
 92
        8
 66
     7
 43
1.0
 76
     1
 77
     6
 78
     2
 67
     7
 79
     3
170
     0
171
     0
290
     0
174
     0
 93
       13
 44
0.0
173
     0
291
     0
 45
0.0
1001
ACAD
1000
AcDbSavedByObjectVersion
1070
     0
  0
DICTIONARYVAR
  5
22DBA
102
{ACAD_REACTORS
330
22DB7
102
}
330
22DB7
100
DictionaryVariables
280
     0
  1
1:1
  0
DICTIONARYVAR
  5
22DB9
102
{ACAD_REACTORS
330
22DB7
102
}
330
22DB7
100
DictionaryVariables
280
     0
  1
STANDARD
  0
DICTIONARYVAR
  5
22DB8
102
{ACAD_REACTORS
330
22DB7
102
}
330
22DB7
100
DictionaryVariables
280
     0
  1
STANDARD
  0
DICTIONARYVAR
  5
2ECC47
102
{ACAD_REACTORS
330
22DB7
102
}
330
22DB7
100
DictionaryVariables
280
     0
  1
1
  0
DICTIONARYVAR
  5
2ECC46
102
{ACAD_REACTORS
330
22DB7
102
}
330
22DB7
100
DictionaryVariables
280
     0
  1
1
  0
DICTIONARYVAR
  5
7A31F
102
{ACAD_REACTORS
330
22DB7
102
}
330
22DB7
100
DictionaryVariables
280
     0
  1
-201.059514;-1326.672515
  0
DICTIONARYVAR
  5
2ECC45
102
{ACAD_REACTORS
330
22DB7
102
}
330
22DB7
100
DictionaryVariables
280
     0
  1
0
  0
DICTIONARYVAR
  5
2ECC42
102
{ACAD_REACTORS
330
22DB7
102
}
330
22DB7
100
DictionaryVariables
280
     0
  1
0
  0
DICTIONARYVAR
  5
2ECC43
102
{ACAD_REACTORS
330
22DB7
102
}
330
22DB7
100
DictionaryVariables
280
     0
  1
0
  0
DICTIONARYVAR
  5
2ECC41
102
{ACAD_REACTORS
330
22DB7
102
}
330
22DB7
100
DictionaryVariables
280
     0
  1
2
  0
DICTIONARYVAR
  5
2ECC40
102
{ACAD_REACTORS
330
22DB7
102
}
330
22DB7
100
DictionaryVariables
280
     0
  1
1
  0
DICTIONARYVAR
  5
2ECC44
102
{ACAD_REACTORS
330
22DB7
102
}
330
22DB7
100
DictionaryVariables
280
     0
  1
127
  0
DICTIONARYVAR
  5
2F559A
102
{ACAD_REACTORS
330
22DB7
102
}
330
22DB7
100
DictionaryVariables
280
     0
  1
2
  0
DICTIONARY
  5
22E1C
102
{ACAD_REACTORS
330
22E11
102
}
330
22E11
100
AcDbDictionary
281
     1
  0
DICTIONARY
  5
2F55D4
330
6B
100
AcDbDictionary
280
     1
281
     1
  3
ACAD_XREC_ROUNDTRIP
360
2F55D5
  0
DICTIONARY
  5
2F55D7
330
73
100
AcDbDictionary
280
     1
281
     1
  3
ACAD_XREC_ROUNDTRIP
360
2F55D8
  0
DICTIONARY
  5
22E63
330
6F
100
AcDbDictionary
280
     1
281
     1
  3
ACAD_XREC_ROUNDTRIP
360
2F55D6
  3
ADSK_XREC_LAYOUTTHUMBNAIL
360
22E64
  0
DICTIONARY
  5
1A
330
19
100
AcDbDictionary
280
     1
281
     1
  3
ACAD_XREC_ROUNDTRIP
360
2ECC4E
  3
BUMPTILE
360
1C
  3
DIFFUSETILE
360
1B
  3
OPACITYTILE
360
1F
  3
REFLECTIONTILE
360
1E
  3
REFRACTIONTILE
360
20
  3
SPECULARTILE
360
1D
  0
DICTIONARY
  5
12
330
11
100
AcDbDictionary
280
     1
281
     1
  3
ACAD_XREC_ROUNDTRIP
360
2ECC4D
  3
BUMPTILE
360
14
  3
DIFFUSETILE
360
13
  3
OPACITYTILE
360
17
  3
REFLECTIONTILE
360
16
  3
REFRACTIONTILE
360
18
  3
SPECULARTILE
360
15
  0
DICTIONARY
  5
22
330
21
100
AcDbDictionary
280
     1
281
     1
  3
ACAD_XREC_ROUNDTRIP
360
2ECC4F
  3
BUMPTILE
360
24
  3
DIFFUSETILE
360
23
  3
OPACITYTILE
360
27
  3
REFLECTIONTILE
360
26
  3
REFRACTIONTILE
360
28
  3
SPECULARTILE
360
25
  0
DICTIONARY
  5
2ECC49
330
65
100
AcDbDictionary
280
     1
281
     1
  3
ACAD_ROUNDTRIP_2008_TABLESTYLE_CELLSTYLEMAP
360
2F559B
  3
ACAD_XREC_ROUNDTRIP
360
2F55D3
  0
DICTIONARY
  5
2F55AD
330
2F
100
AcDbDictionary
280
     1
281
     1
  3
ACAD_XREC_ROUNDTRIP
360
2F55AE
  0
DICTIONARY
  5
2F55D9
330
22EE4
100
AcDbDictionary
280
     1
281
     1
  3
ACAD_XREC_ROUNDTRIP
360
2F55DA
  0
DICTIONARY
  5
2F55AB
330
2E
100
AcDbDictionary
280
     1
281
     1
  3
ACAD_XREC_ROUNDTRIP
360
2F55AC
  0
DICTIONARY
  5
2F55B9
330
35
100
AcDbDictionary
280
     1
281
     1
  3
ACAD_XREC_ROUNDTRIP
360
2F55BA
  0
DICTIONARY
  5
2F55C1
330
39
100
AcDbDictionary
280
     1
281
     1
  3
ACAD_XREC_ROUNDTRIP
360
2F55C2
  0
DICTIONARY
  5
2F55B3
330
32
100
AcDbDictionary
280
     1
281
     1
  3
ACAD_XREC_ROUNDTRIP
360
2F55B4
  0
DICTIONARY
  5
2F55B7
330
34
100
AcDbDictionary
280
     1
281
     1
  3
ACAD_XREC_ROUNDTRIP
360
2F55B8
  0
DICTIONARY
  5
2F55D1
330
41
100
AcDbDictionary
280
     1
281
     1
  3
ACAD_XREC_ROUNDTRIP
360
2F55D2
  0
DICTIONARY
  5
2F55BF
330
38
100
AcDbDictionary
280
     1
281
     1
  3
ACAD_XREC_ROUNDTRIP
360
2F55C0
  0
DICTIONARY
  5
2F55A3
330
2A
100
AcDbDictionary
280
     1
281
     1
  3
ACAD_XREC_ROUNDTRIP
360
2F55A4
  0
DICTIONARY
  5
2F55A5
330
2B
100
AcDbDictionary
280
     1
281
     1
  3
ACAD_XREC_ROUNDTRIP
360
2F55A6
  0
DICTIONARY
  5
2F55A7
330
2C
100
AcDbDictionary
280
     1
281
     1
  3
ACAD_XREC_ROUNDTRIP
360
2F55A8
  0
DICTIONARY
  5
2F55A9
330
2D
100
AcDbDictionary
280
     1
281
     1
  3
ACAD_XREC_ROUNDTRIP
360
2F55AA
  0
DICTIONARY
  5
2F55B1
330
31
100
AcDbDictionary
280
     1
281
     1
  3
ACAD_XREC_ROUNDTRIP
360
2F55B2
  0
DICTIONARY
  5
2F55CD
330
3F
100
AcDbDictionary
280
     1
281
     1
  3
ACAD_XREC_ROUNDTRIP
360
2F55CE
  0
DICTIONARY
  5
2F55BD
330
37
100
AcDbDictionary
280
     1
281
     1
  3
ACAD_XREC_ROUNDTRIP
360
2F55BE
  0
DICTIONARY
  5
2F55CF
330
40
100
AcDbDictionary
280
     1
281
     1
  3
ACAD_XREC_ROUNDTRIP
360
2F55D0
  0
DICTIONARY
  5
2F55B5
330
33
100
AcDbDictionary
280
     1
281
     1
  3
ACAD_XREC_ROUNDTRIP
360
2F55B6
  0
DICTIONARY
  5
2F55CB
330
3E
100
AcDbDictionary
280
     1
281
     1
  3
ACAD_XREC_ROUNDTRIP
360
2F55CC
  0
DICTIONARY
  5
2F55C9
330
3D
100
AcDbDictionary
280
     1
281
     1
  3
ACAD_XREC_ROUNDTRIP
360
2F55CA
  0
DICTIONARY
  5
2F55C3
330
3A
100
AcDbDictionary
280
     1
281
     1
  3
ACAD_XREC_ROUNDTRIP
360
2F55C4
  0
DICTIONARY
  5
2F55C5
330
3B
100
AcDbDictionary
280
     1
281
     1
  3
ACAD_XREC_ROUNDTRIP
360
2F55C6
  0
DICTIONARY
  5
2F55BB
330
36
100
AcDbDictionary
280
     1
281
     1
  3
ACAD_XREC_ROUNDTRIP
360
2F55BC
  0
DICTIONARY
  5
2F55AF
330
30
100
AcDbDictionary
280
     1
281
     1
  3
ACAD_XREC_ROUNDTRIP
360
2F55B0
  0
DICTIONARY
  5
2F55C7
330
3C
100
AcDbDictionary
280
     1
281
     1
  3
ACAD_XREC_ROUNDTRIP
360
2F55C8
  0
XRECORD
  5
2F55D5
102
{ACAD_REACTORS
330
2F55D4
102
}
330
2F55D4
100
AcDbXrecord
280
     1
102
SHADEPLOT
 70
     0
102
SHADEPLOTRESLEVEL
 70
     2
102
SHADEPLOTCUSTOMDPI
 70
   300
  0
XRECORD
  5
2F55D8
102
{ACAD_REACTORS
330
2F55D7
102
}
330
2F55D7
100
AcDbXrecord
280
     1
102
SHADEPLOT
 70
     0
102
SHADEPLOTRESLEVEL
 70
     2
102
SHADEPLOTCUSTOMDPI
 70
   300
  0
XRECORD
  5
2F55D6
102
{ACAD_REACTORS
330
22E63
102
}
330
22E63
100
AcDbXrecord
280
     1
102
SHADEPLOT
 70
     0
102
SHADEPLOTRESLEVEL
 70
     2
102
SHADEPLOTCUSTOMDPI
 70
   300
  0
XRECORD
  5
22E64
102
{ACAD_REACTORS
330
22E63
102
}
330
22E63
100
AcDbXrecord
280
     1
310
28000000000100005A0000000100080000000000005A0000000000000000000000010000000000003028210000000000FFFFFF000000000000000000000000000000000000000000000000000000000000000000330000006600000099000000CC000000FF00000000330000333300006633000099330000CC330000FF3300
310
0000660000336600006666000099660000CC660000FF66000000990000339900006699000099990000CC990000FF99000000CC000033CC000066CC000099CC0000CCCC0000FFCC000000FF000033FF000066FF000099FF0000CCFF0000FFFF000000003300330033006600330099003300CC003300FF003300003333003333
310
33006633330099333300CC333300FF33330000663300336633006666330099663300CC663300FF66330000993300339933006699330099993300CC993300FF99330000CC330033CC330066CC330099CC3300CCCC3300FFCC330000FF330033FF330066FF330099FF3300CCFF3300FFFF330000006600330066006600660099
310
006600CC006600FF00660000336600333366006633660099336600CC336600FF33660000666600336666006666660099666600CC666600FF66660000996600339966006699660099996600CC996600FF99660000CC660033CC660066CC660099CC6600CCCC6600FFCC660000FF660033FF660066FF660099FF6600CCFF6600
310
FFFF660000009900330099006600990099009900CC009900FF00990000339900333399006633990099339900CC339900FF33990000669900336699006666990099669900CC669900FF66990000999900339999006699990099999900CC999900FF99990000CC990033CC990066CC990099CC9900CCCC9900FFCC990000FF99
310
0033FF990066FF990099FF9900CCFF9900FFFF99000000CC003300CC006600CC009900CC00CC00CC00FF00CC000033CC003333CC006633CC009933CC00CC33CC00FF33CC000066CC003366CC006666CC009966CC00CC66CC00FF66CC000099CC003399CC006699CC009999CC00CC99CC00FF99CC0000CCCC0033CCCC0066CC
310
CC0099CCCC00CCCCCC00FFCCCC0000FFCC0033FFCC0066FFCC0099FFCC00CCFFCC00FFFFCC000000FF003300FF006600FF009900FF00CC00FF00FF00FF000033FF003333FF006633FF009933FF00CC33FF00FF33FF000066FF003366FF006666FF009966FF00CC66FF00FF66FF000099FF003399FF006699FF009999FF00CC
310
99FF00FF99FF0000CCFF0033CCFF0066CCFF0099CCFF00CCCCFF00FFCCFF0000FFFF0033FFFF0066FFFF0099FFFF00CCFFFF00FFFFFF00000000000D0D0D001A1A1A00282828003535350043434300505050005D5D5D006B6B6B00787878008686860093939300A1A1A100AEAEAE00BBBBBB00C9C9C900D6D6D600E4E4E400
310
F1F1F100FFFFFF000000000000000000000000000000000000000000000000000000000000000000000000000000000000000000000000000000000000000000000000000000000000000000000000000000000000000000000000000000000000000000000000000000000000000000000000000000000000000000000000
310
00000000000000000000000000000000000000000000000000000000000000000000000000000000000000000000000000000000000000000000000000000000000000000000000000000000000000000000000000000000000000000000000000000000000000000000000000000000000000C30000000000000000000000
310
0000000000000000000000000000000000000000000000000000000000000000000000000000000000000000000000000000000000000000000000000000000000000000000000000000000000000000000000000000000000000000000000000000000000000000000000000000000000DC00000000DC00000000DC00DC00
310
00DC000000DC00000000DC00000000DC00DC0000DC000000DC00000000DC00000000DC0000000000000000000000DC00000000000000000000000000000000000000000000000000000000000000000000000000000000000000000000000000000000000000000000000000000000000000000000C3000000000000000000
310
0000000000000000000000000000000000000000000000000000000000000000000000000000000000000000000000000000000000000000000000000000000000000000000000000000000000000000000000000000000000000000000000000000000000DCDCDCDCDCDCDCDCDCDCDCDCDCDCDCDCDCDCDCDCDCDCDCDCDCDC
310
DCDCDCDCDCDCDCDCDCDCDCDCDCDCDCDCDCDCDCDCDCDCDCDCDCDCDCDCDCDCDCDCDCDCDCDCDCDCDCDCDCDCDCDCDCDCDCDCDCDC000000000000000000000000000000000000000000000000000000000000000000000000000000000000000000000000000000000000000000000000000000000000000000C300000000000000
310
0000000000000000000000000000000000000000000000000000000000000000000000000000000000000000000000000000000000000000000000000000000000000000000000000000000000000000000000000000000000000000000000000000000000000000DC00000000000000000000000000000000000000000000
310
000000000000000000000000000000000000000000000000000000000000000000000000000000000000000000000000000000DC000000000000000000000000000000000000000000000000000000000000000000000000000000000000000000000000000000000000000000000000000000000000000000C30000000000
310
00000000000000000000000000000000000000000000000000000000000000000000000000000000000000000000000000000000000000000000000000000000000000000000000000000000000000000000000000000000000000000000000000000000000000000000DC0000000000000000000000000000000000000000
310
0000000000000000000000000000000000000000000000000000000000000000000000000000000000000000000000000000000000DC000000000000000000000000000000000000000000000000000000000000000000000000000000000000000000000000000000000000000000000000000000000000000000C3000000
310
000000000000000000000000000000000000000000000000000000000000000000000000000000000000000000000000000000000000000000000000000000000000000000000000000000000000000000000000000000000000000000000000000000000000000000000000DC000000000000000000000000000000000000
310
00000000000000000000000000000000000000000000000000000000000000000000000000000000000000000000000000000000000000DC000000000000000000000000000000000000000000000000000000000000000000000000000000000000000000000000000000000000000000000000000000000000000000C300
310
0000000000000000000000000000000000000000000000000000000000000000000000000000000000000000000000000000000000000000000000000000000000000000000000000000000000000000000000000000000000000000000000000000000000000000000000000000DC00000000000000000000000000000000
310
000000000000000000000000000000000000000000000000000000000000000000000000000000000000000000000000000000000000000000DC000000000000000000000000000000000000000000000000000000000000000000000000000000000000000000000000000000000000000000000000000000000000000000
310
C3000000000000000000000000000000000000000000000000000000000000000000000000000000000000000000000000000000000000000000000000000000000000000000000000000000000000000000000000000000000000000000000000000000000000000000000000000000DC0000000000000000000000000000
310
0000000000000000000000000000000000000000000000000000000000000000000000000000000000000000000000000000000000000000000000DC00000000000000000000000000000000000000000000000000000000000000000000000000000000000000000000000000000000000000000000000000000000000000
310
0000C3000000000000000000000000000000000000000000000000000000000000000000000000000000000000000000000000000000000000000000000000000000000000000000000000000000000000000000000000000000000000000000000000000000000000000000000000000000DC000000000000000000000000
310
00000000000000000000000000000000000000000000000000000000000000000000000000000000000000000000000000000000000000000000000000DC0000000000000000000000000000000000000000000000000000000000000000000000000000000000000000000000000000000000000000000000000000000000
310
00000000C3000000000000000000000000000000000000000000000000000000000000000000000000000000000000000000000000000000000000000000000000000000000000000000000000000000000000000000000000000000000000000000000000000000000000000000000000000000DC00000000000000000000
310
000000000000000000000000000000000000000000000000000000000000000000000000000000000000000000000000000000000000000000000000000000DC000000000000000000000000000000000000000000000000000000000000000000000000000000000000000000000000000000000000000000000000000000
310
000000000000C3000000000000000000000000000000000000000000000000000000000000000000000000000000000000000000000000000000000000000000000000000000000000000000000000000000000000000000000000000000000000000000000000000000000000000000000000000000DC0000000000000000
310
0000000000000000000000000000000000000000000000000000000000000000000000000000000000000000000000000000000000000000000000000000000000DC00000000000000000000000000000000000000000000000000000000000000000000000000000000000000000000000000000000000000000000000000
310
0000000000000000C3000000000000000000000000000000000000000000000000000000000000000000000000000000000000000000000000000000000000000000000000000000000000000000000000000000000000000000000000000000000000000000000000000000000000000000000000000000DC000000000000
310
00000000000000000000000000000000000000000000000000000000000000000000000000000000000000000000000000000000000000000000000000000000000000DC0000000000000000000000000000000000000000000000000000000000000000000000000000000000000000000000000000000000000000000000
310
0000000000000000000000C30000000000000000000000000000000000000000000000000000000000000000000000000000000000000000000000000000000000000000000000000000000000000000000000000000000000000000000000000000000000000000000000000000000000000000000000000000DC00000000
310
000000000000000000000000000000000000000000000000000000000000000000000000000000000000000000000000000000000000000000000000000000000000000000DC000000000000000000000000000000000000000000000000000000000000000000000000000000000000000000000000000000000000000000
310
00000000000000000000000000C30000000000000000000000000000000000000000000000000000000000000000000000000000000000000000000000000000000000000000000000000000000000000000000000000000000000000000000000000000000000000000000000000000000000000000000000000000DC0000
310
000000000000000000DC2D2D2D2D2D2DDC2D2D2D2DDC2D2D2D2D2D2D2D2D2D2DDC2D2D2D2D2D2D2D2D2D2DDC2D2D2D2DDC2D2D2D2D2DDC2D2D2D2D000000000000000000000000DC00000000000000000000000000000000000000000000000000000000000000000000000000000000000000000000000000000000000000
310
000000000000000000000000000000C300000000000000000000000000000000000000000000000000000000000000000000000000000000000000000000000000000000000000000000000000000000000000000000000000000000000000000000000000000000000000000000000000000000000000000000000000DCDC
310
00000000000000000000002D2D2D2D2D2D2D2D2D2D2D2D2D2D2D2D2D2D2D2D2D2D2D2D2D2D2D2D2D2D2D2D2D2D2D2D2D2D2D2D2D2D2D2D2D2D2D2D2D2D000000000000000000000000DC0000000000000000000000000000000000000000000000000000000000000000000000000000000000000000000000000000000000
310
0000000000000000000000000000000000C300000000000000000000000000000000000000000000000000000000000000000000000000000000000000000000000000000000000000000000000000000000000000000000000000000000000000000000000000000000000000000000000000000000000000000000000000
310
00DC00000000000000000000002D00002D002D0000002D2D0000002D002D0000002D2D0000002D002D00002D002D0000002D2D0000002D002D0000002D2DDC000000000000000000000000DC000000000000000000000000000000000000000000000000000000000000000000000000000000000000000000000000000000
310
00000000000000000000000000000000000000C30000000000000000000000000000000000000000000000000000000000000000000000000000000000000000000000000000000000000000000000000000000000000000000000000000000000000000000000000000000000000000000000000000000000000000000000
310
000000DC00000000000000000000002D2D2D2D2D2D2D2D2D2D2D2D2D2D2D2D2D2D2D2D2D2D2D2D2D2D2D2D2D2D2D2D2D2D2D2D2D2D2D2D2D2D2D2D2D2D2D2D2D2D000000000000000000000000DC00000000000000000000000000000000000000000000000000000000000000000000000000000000000000000000000000
310
000000000000000000000000000000000000000000C3000000000000000000000000000000000000000000000000000000000000000000000000000000000000000000000000000000000000000000000000000000000000000000000000000000000000000000000000000000000000000000000000000000000000000000
310
0000000000DC00000000000000000000002D2D2D2D2D2D2D2D2D2D2D2D2D2D2D2D2D2D2D2D2D2D2D2D2D2D2D2D2D2D2D2D2D2D2D2D2D2D2D2D2D2D2D2D2D2D2D2D2D2D000000000000000000000000DC0000000000000000000000000000000000000000000000000000000000000000000000000000000000000000000000
310
0000000000000000000000000000000000000000000000C300000000000000000000000000000000000000000000000000000000000000000000000000000000000000000000000000000000000000000000000000000000000000000000000000000000000000000000000000000000000000000000000000000000000000
310
00000000000000DC00000000000000000000002D2D2D2D2D2D2D2D2D2D2D2D2D2D2D2D2D2D2D2D2D2D2D2D2D2D2D2D2D2D2D2D2D2D2D2D2D2D2D2D2D2D2D2D2D2D2D2D2D2D000000000000000000000000DC000000000000000000000000000000000000000000000000000000000000000000000000000000000000000000
310
00000000000000000000000000000000000000000000000000C30000000000000000000000000000000000000000000000000000000000000000000000000000000000000000000000000000000000000000000000000000000000000000000000000000000000000000000000000000000000000000000000000000000000
310
0000000000000000DCDC00000000000000000000002D2D2D2D2D2D2D2D2D2D2D2D2D2D2D2D2D2D2D2D2D2D2D2D2D2D2D2D2D2D2D2D2D2D2D2D2D2D2D2D2D2D2D2D2D2D2D2D2D2D000000000000000000000000DC00000000000000000000000000000000000000000000000000000000000000000000000000000000000000
310
000000000000000000000000000000000000000000000000000000C3000000000000000000000000000000000000000000000000000000000000000000000000000000000000000000000000000000000000000000000000000000000000000000000000000000000000000000000000000000000000000000000000000000
310
0000000000000000000000DC00000000000000000000002D2D2D2D2D2D2D2D2D2D2D2D2D2D2D2D2D2D2D2D2D2D2D2D2D2D2D2D2D2D2D2D2D2D2D2D2D2D2D2D2D2D2D2D2D2D2D2D2D2D000000000000000000000000DC0000000000000000000000000000000000000000000000000000000000000000000000000000000000
310
0000000000000000000000000000000000000000000000000000000000C300000000000000000000000000000000000000000000000000000000000000000000000000000000000000000000000000000000000000000000000000000000000000000000000000000000000000000000000000000000000000000000000000
310
00000000000000000000000000DC00000000000000000000002D2D2D2D2D2D2D2D2D2D2D2D2D2D2D2D2D2D2D2D2D2D2D2D2D2D2D2D2D2D2D2D2D2D2D2D2D2D2D2D2D2D2D2D2D2D2D2D2D2D000000000000000000000000DC000000000000000000000000000000000000000000000000000000000000000000000000000000
310
00000000000000000000000000000000000000000000000000000000000000C30000000000000000000000000000000000000000000000000000000000000000000000000000000000000000000000000000000000000000000000000000000000000000000000000000000000000000000000000000000000000000000000
310
000000000000000000000000000000DC00000000000000000000002D2D2D2D2D2D2D2D2D2D2D2D2D2D2D2D2D2D2D2D2D2D2D2D2D2D2D2D2D2D2D2D2D2D2D2D2D2D2D2D2D2D2D2D2D2D2D2D2D2D000000000000000000000000DC00000000000000000000000000000000000000000000000000000000000000000000000000
310
000000000000000000000000000000000000000000000000000000000000000000C3000000000000000000000000000000000000000000000000000000000000000000000000000000000000000000000000000000000000000000000000000000000000000000000000000000000000000000000000000000000000000000
310
00000000000000000000000000000000DCDC00000000000000000000002D2D2D2D2D2D2D2D2D2D2D2D2D2D2D2D2D2D2D2D2D2D2D2D2D2D2D2D2D2D2D2D2D2D2D2D2D2D2D2D2D2D2D2D2D2D2D2D2D2D000000000000000000000000DC0000000000000000000000000000000000000000000000000000000000000000000000
310
0000000000000000000000000000000000000000000000000000000000000000000000C300000000000000000000000000000000000000000000000000000000000000000000000000000000000000000000000000000000000000000000000000000000000000000000000000000000000000000000000000000000000000
310
00000000000000000000000000000000000000DC00000000000000000000002D2D2D2D2D2D2D2D2D2D2D2D2D2D2D2D2D2D2D2D2D2D2D2D2D2D2D2D2D2D2D2D2D2D2D2D2D2D2D2D2D2D2D2D2D2D2D2D2D2D000000000000000000000000DC000000000000000000000000000000000000000000000000000000000000000000
310
00000000000000000000000000000000000000000000000000000000000000000000000000C30000000000000000000000000000000000000000000000000000000000000000000000000000000000000000000000000000000000000000000000000000000000000000000000000000000000000000000000000000000000
310
000000000000000000000000000000000000000000DC00000000000000000000002D2D2D2D2D2D2D2D2D2D2D2D2D2D2D2D2D2D2D2D2D2D2D2D2D2D2D2D2D2D2D2D2D2D2D2D2D2D2D2D2D2D2D2D2D2D2D2D2D2D000000000000000000000000DC00000000000000000000000000000000000000000000000000000000000000
310
000000000000000000000000000000000000000000000000000000000000000000000000000000C3000000000000000000000000000000000000000000000000000000000000000000000000000000000000000000000000000000000000000000000000000000000000000000000000000000000000000000000000000000
310
0000000000000000000000000000000000000000000000DC00000000000000000000002D2D2D2D2D2D2D2D2D2D2D2D2D2D2D2D2D2D2D2D2D2D2D2D2D2D2D2D2D2D2D2D2D2D2D2D2D2D2D2D2D2D2D2D2D2D2D2D2D2D000000000000000000000000DC0000000000000000000000000000000000000000000000000000000000
310
0000000000000000000000000000000000000000000000000000000000000000000000000000000000C300000000000000000000000000000000000000000000000000000000000000000000000000000000000000000000000000000000000000000000000000000000000000000000000000000000000000000000000000
310
00000000000000000000000000000000000000000000000000DC00000000000000000000002D2D2D2D2D2D2D2D2D2D2D2D2D2D2D2D2D2D2D2D2D2D2D2D2D2D2D2D2D2D2D2D2D2D2D2D2D2D2D2D2D2D2D2D2D2D2D2D2D2D000000000000000000000000DC000000000000000000000000000000000000000000000000000000
310
00000000000000000000000000000000000000000000000000000000000000000000000000000000000000C30000000000000000000000000000000000000000000000000000000000000000000000000000000000000000000000000000000000000000000000000000000000000000000000000000000000000000000000
310
0000000000000000000000000000000000000000000000000000DCDC00000000000000000000002D2D2D2D2D2D2D2D2D2D2D2D2D2D2D2D2D2D2D2D2D2D2D2D2D2D2D2D2D2D2D2D2D2D2D2D2D2D2D2D2D2D2D2D2D2D2D2D2D2D000000000000000000000000DC00000000000000000000000000000000000000000000000000
310
000000000000000000000000000000000000000000000000000000000000000000000000000000000000000000C3000000000000000000000000000000000000000000000000000000000000000000000000000000000000000000000000000000000000000000000000000000000000000000000000000000000000000000
310
0000000000000000000000000000000000000000000000000000000000DC00000000000000000000002D2D2D2D2D2D2D2D2D2D2D2D2D2D2D2D2D2D2D2D2D2D2D2D2D2D2D2D2D2D2D2D2D2D2D2D2D2D2D2D2D2D2D2D2D2D2D2D2D2D000000000000000000000000DC0000000000000000000000000000000000000000000000
310
0000000000000000000000000000000000000000000000000000000000000000000000000000000000000000000000C300000000000000000000000000000000000000000000000000000000000000000000000000000000000000000000000000000000000000000000000000000000000000000000000000000000000000
310
00000000000000000000000000000000000000000000000000000000000000DC00000000000000000000002D2D2D2D2D2D2D2D2D2D2D2D2D2D2D2D2D2D2D2D2D2D2D2D2D2D2D2D2D2D2D2D2D2D2D2D2D2D2D2D2D2D2D2D2D2D2D2D2D2D000000000000000000000000DC000000000000000000000000000000000000000000
310
00000000000000000000000000000000000000000000000000000000000000000000000000000000000000000000000000C30000000000000000000000000000000000000000000000000000000000000000000000000000000000000000000000000000000000000000000000000000000000000000000000000000000000
310
0000000000000000000000000000000000000000000000000000000000000000DCDC00000000000000000000002D2D2D2D2D2D2D2D2D2D2D2D2D2D2D2D2D2D2D2D2D2D2D2D2D2D2D2D2D2D2D2D2D2D2D2D2D2D2D2D2D2D2D2D2D2D2D2D2D2D000000000000000000000000DC00000000000000000000000000000000000000
310
000000000000000000000000000000000000000000000000000000000000000000000000000000000000000000000000000000C3000000000000000000000000000000000000000000000000000000000000000000000000000000000000000000000000000000000000000000000000000000000000000000000000000000
310
0000000000000000000000000000000000000000000000000000000000000000000000DC00000000000000000000002D2D2D2D2D2D2D2D2D2D2D2D2D2D2D2D2D2D2D2D2D2D2D2D2D2D2D2D2D2D2D2D2D2D2D2D2D2D2D2D2D2D2D2D2D2D2D2D2D2D000000000000000000000000DC0000000000000000000000000000000000
310
0000000000000000000000000000000000000000000000000000000000000000000000000000000000000000000000000000000000C300000000000000000000000000000000000000000000000000000000000000000000000000000000000000000000000000000000000000000000000000000000000000000000000000
310
000000000000000000000000000000000000000000000000000000000000000000000000DCDC00000000000000000000002D2D2D2D2D2D2D2D2D2D2D2D2D2D2D2D2D2D2D2D2D2D2D2D2D2D2D2D2D2D2D2D2D2D2D2D2D2D2D2D2D2D2D2D2D2D2D2D2D2D000000000000000000000000DC000000000000000000000000000000
310
00000000000000000000000000000000000000000000000000000000000000000000000000000000000000000000000000000000000000C30000000000000000000000000000000000000000000000000000000000000000000000000000000000000000000000000000000000000000000000000000000000000000000000
310
000000000000000000000000000000000000000000000000000000000000000000000000000000DC00000000000000000000002D2D2D2D2D2D2D2D2D2D2D2D2D2D2D2D2D2D2D2D2D2D2D2D2D2D2D2D2D2D2D2D2D2D2D2D2D2D2D2D2D2D2D2D2D2D2D2D2D2D000000000000000000000000DC00000000000000000000000000
310
000000000000000000000000000000000000000000000000000000000000000000000000000000000000000000000000000000000000000000C3000000000000000000000000000000000000000000000000000000000000000000000000000000000000000000000000000000000000000000000000000000000000000000
310
0000000000000000000000000000000000000000000000000000000000000000000000000000000000DC00000000000000000000002D2D2D2D2D2D2D2D2D2D2D2D2D2D2D2D2D2D2D2D2D2D2D2D2D2D2D2D2D2D2D2D2D2D2D2D2D2D2D2D2D2D2D2D2D2D2D2D2D2D000000000000000000000000DC0000000000000000000000
310
0000000000000000000000000000000000000000000000000000000000000000000000000000000000000000000000000000000000000000000000C300000000000000000000000000000000000000000000000000000000000000000000000000000000000000000000000000000000000000000000000000000000000000
310
00000000000000000000000000000000000000000000000000000000000000000000000000000000000000DC00000000000000000000002D2D2D2D2D2D2D2D2D2D2D2D2D2D2D2D2D2D2D2D2D2D2D2D2D2D2D2D2D2D2D2D2D2D2D2D2D2D2D2D2D2D2D2D2D2D2D2D2D2D000000000000000000000000DC000000000000000000
310
00000000000000000000000000000000000000000000000000000000000000000000000000000000000000000000000000000000000000000000000000C30000000000000000000000000000000000000000000000000000000000000000000000000000000000000000000000000000000000000000000000000000000000
310
000000000000000000000000000000000000000000000000000000000000000000000000000000000000000000DC00000000000000000000002D2D2D2D2D2D2D2D2D2D2D2D2D2D2D2D2D2D2D2D2D2D2D2D2D2D2D2D2D2D2D2D2D2D2D2D2D2D2D2D2D2D2D2D2D2D2D2D2D2D000000000000000000000000DC00000000000000
310
000000000000000000000000000000000000000000000000000000000000000000000000000000000000000000000000000000000000000000000000000000C3000000000000000000000000000000000000000000000000000000000000000000000000000000000000000000000000000000000000000000000000000000
310
00000000000000000000000000000000000000000000000000000000000000000000000000000000000000000000DCDC00000000000000000000002D2D2D2D2D2D2D2D2D2D2D2D2D2D2D2D2D2D2D2D2D2D2D2D2D2D2D2D2D2D2D2D2D2D2D2D2D2D2D2D2D2D2D2D2D2D2D2D2D2D000000000000000000000000DC0000000000
310
0000000000000000000000000000000000000000000000000000000000000000000000000000000000000000000000000000000000000000000000000000000000C300000000000000000000000000000000000000000000000000000000000000000000000000000000000000000000000000000000000000000000000000
310
00000000000000000000000000000000000000000000000000000000000000000000000000000000000000000000000000DC00000000000000000000002D2D2D2D2D2D2D2D2D2D2D2D2D2D2D2D2D2D2D2D2D2D2D2D2D2D2D2D2D2D2D2D2D2D2D2D2D2D2D2D2D2D2D2D2D2D2D2D2D2D000000000000000000000000DC000000
310
00000000000000000000000000000000000000000000000000000000000000000000000000000000000000000000000000000000000000000000000000000000000000C30000000000000000000000000000000000000000000000000000000000000000000000000000000000000000000000000000000000000000000000
310
000000000000000000000000000000000000000000000000000000000000000000000000000000000000000000000000000000DC00000000000000000000002D2D2D2D2D2D2D2D2D2D2D2D2D2D2D2D2D2D2D2D2D2D2D2D2D2D2D2D2D2D2D2D2D2D2D2D2D2D2D2D2D2D2D2D2D2D2D2D2D2D000000000000000000000000DC00
310
000000000000000000000000000000000000000000000000000000000000000000000000000000000000000000000000000000000000000000000000000000000000000000C3000000000000000000000000000000000000000000000000000000000000000000000000000000000000000000000000000000000000000000
310
0000000000000000000000000000000000000000000000000000000000000000000000000000000000000000000000000000000000DC00000000000000000000002D2D2D2D2D2D2D2D2D2D2D2D2D2D2D2D2D2D2D2D2D2D2D2D2D2D2D2D2D2D2D2D2D2D2D2D2D2D2D2D2D2D2D2D2D2D2D2D2D2D000000000000000000000000
310
DC00000000000000000000000000000000000000000000000000000000000000000000000000000000000000000000000000000000000000000000000000000000000000000000C300000000000000000000000000000000000000000000000000000000000000000000000000000000000000000000000000000000000000
310
000000000000000000000000000000000000000000000000000000000000000000000000000000000000000000000000000000000000DCDC00000000000000000000002D2D2D2D2D2D2D2D2D2D2D2D2D2D2D2D2D2D2D2D2D2D2D2D2D2D2D2D2D2D2D2D2D2D2D2D2D2D2D2D2D2D2D2D2D2D2D2D2D2D00000000000000000000
310
0000DC00000000000000000000000000000000000000000000000000000000000000000000000000000000000000000000000000000000000000000000000000000000000000000000C30000000000000000000000000000000000000000000000000000000000000000000000000000000000000000000000000000000000
310
000000000000000000000000000000000000000000000000000000000000000000000000000000000000000000000000000000000000000000DC00000000000000000000002D2D2D2D2D2D2D2D2D2D2D2D2D2D2D2D2D2D2D2D2D2D2D2D2D2D2D2D2D2D2D2D2D2D2D2D2D2D2D2D2D2D2D2D2D2D2D2D2D2D0000000000000000
310
00000000DC00000000000000000000000000000000000000000000000000000000000000000000000000000000000000000000000000000000000000000000000000000000000000000000C3000000000000000000000000000000000000000000000000000000000000000000000000000000000000000000000000000000
310
0000000000000000000000000000000000000000000000000000000000000000000000000000000000000000000000000000000000000000000000DC00000000000000000000002D2D2D2D2D2D2D2D2D2D2D2D2D2D2D2D2D2D2D2D2D2D2D2D2D2D2D2D2D2D2D2D2D2D2D2D2D2D2D2D2D2D2D2D2D2D2D2D2D2D000000000000
310
000000000000DC00000000000000000000000000000000000000000000000000000000000000000000000000000000000000000000000000000000000000000000000000000000000000000000C300000000000000000000000000000000000000000000000000000000000000000000000000000000000000000000000000
310
00000000000000000000000000000000000000000000000000000000000000000000000000000000000000000000000000000000000000000000000000DC00000000000000000000002D2D2D2D2D2D2D2D2D2D2D2D2D2D2D2D2D2D2D2D2D2D2D2D2D2D2D2D2D2D2D2D2D2D2D2D2D2D2D2D2D2D2D2D2D2D2D2D2D2D00000000
310
0000000000000000DC00000000000000000000000000000000000000000000000000000000000000000000000000000000000000000000000000000000000000000000000000000000000000000000C30000000000000000000000000000000000000000000000000000000000000000000000000000000000000000000000
310
000000000000000000000000000000000000000000000000000000000000000000000000000000000000000000000000000000000000000000000000000000DC00000000000000000000002D2D2D2D2D2D2D2D2D2D2D2D2D2D2D2D2D2D2D2D2D2D2D2D2D2D2D2D2D2D2D2D2D2D2D2D2D2D2D2D2D2D2D2D2D2D2D2D2D2D0000
310
00000000000000000000DC00000000000000000000000000000000000000000000000000000000000000000000000000000000000000000000000000000000000000000000000000000000000000000000C3000000000000000000000000000000000000000000000000000000000000000000000000000000000000000000
310
00000000000000000000000000000000000000000000000000000000000000000000000000000000000000000000000000000000000000000000000000000000DCDC00000000000000000000002D2D2D2D2D2D2D2D2D2D2D2D2D2D2D2D2D2D2D2D2D2D2D2D2D2D2D2D2D2D2D2D2D2D2D2D2D2D2D2D2D2D2D2D2D2D2D2D2D2D
310
000000000000000000000000DC00000000000000000000000000000000000000000000000000000000000000000000000000000000000000000000000000000000000000000000000000000000000000000000C300000000000000000000000000000000000000000000000000000000000000000000000000000000000000
310
00000000000000000000000000000000000000000000000000000000000000000000000000000000000000000000000000000000000000000000000000000000000000DC00000000000000000000002D2D2D2D2D2D2D2D2D2D2D2D2D2D2D2D2D2D2D2D2D2D2D2D2D2D2D2D2D2D2D2D2D2D2D2D2D2D2D2D2D2D2D2D2D2D2D2D
310
2D2D000000000000000000000000DC00000000000000000000000000000000000000000000000000000000000000000000000000000000000000000000000000000000000000000000000000000000000000000000C30000000000000000000000000000000000000000000000000000000000000000000000000000000000
310
000000000000000000000000000000000000000000000000000000000000000000000000000000000000000000000000000000000000000000000000000000000000000000DC00000000000000000000002D2D2D2D2D2D2D2D2D2D2D2D2D2D2D2D2D2D2D2D2D2D2D2D2D2D2D2D2D2D2D2D2D2D2D2D2D2D2D2D2D2D2D2D2D2D
310
2D2D2D2D000000000000000000000000DC00000000000000000000000000000000000000000000000000000000000000000000000000000000000000000000000000000000000000000000000000000000000000000000C3000000000000000000000000000000000000000000000000000000000000000000000000000000
310
00000000000000000000000000000000000000000000000000000000000000000000000000000000000000000000000000000000000000000000000000000000000000000000DCDC00000000000000000000002D00002D002D0000002D2D0000002D002D0000002D2D0000002D002D00002D002D0000002D2D0000002D002D
310
0000002D2DDC000000000000000000000000DC00000000000000000000000000000000000000000000000000000000000000000000000000000000000000000000000000000000000000000000000000000000000000000000C300000000000000000000000000000000000000000000000000000000000000000000000000
310
00000000000000000000000000000000000000000000000000000000000000000000000000000000000000000000000000000000000000000000000000000000000000000000000000DC00000000000000000000002D2D2D2D2D2D2D2D2D2D2D2D2D2D2D2D2D2D2D2D2D2D2D2D2D2D2D2D2D2D2D2D2D2D2D2D2D2D2D2D2D2D
310
2D2D2D2D2D2D2D2D000000000000000000000000DC00000000000000000000000000000000000000000000000000000000000000000000000000000000000000000000000000000000000000000000000000000000000000000000C30000000000000000000000000000000000000000000000000000000000000000000000
310
0000000000000000000000000000000000000000000000000000000000000000000000000000000000000000000000000000000000000000000000000000000000000000000000000000DCDC00000000000000000000002D2D2D2D2D2D2D2D2D2D2D2D2D2D2D2D2D2D2D2D2D2D2D2D2D2D2D2D2D2D2D2D2D2D2D2D2D2D2D2D
310
2D2D2D2D2D2D2D2D2D2D000000000000000000000000DC00000000000000000000000000000000000000000000000000000000000000000000000000000000000000000000000000000000000000000000000000000000000000000000C3000000000000000000000000000000000000000000000000000000000000000000
310
0000000000000000000000000000000000000000000000000000000000000000000000000000000000000000000000000000000000000000000000000000000000000000000000000000000000DC00000000000000000000002D2D2D2D2D2D2D2D2D2D2D2D2D2D2D2D2D2D2D2D2D2D2D2D2D2D2D2D2D2D2D2D2D2D2D2D2D2D
310
2D2D2D2D2D2D2D2D2D2D2D2D000000000000000000000000DC00000000000000000000000000000000000000000000000000000000000000000000000000000000000000000000000000000000000000000000000000000000000000000000C300000000000000000000000000000000000000000000000000000000000000
310
00000000000000000000000000000000000000000000000000000000000000000000000000000000000000000000000000000000000000000000000000000000000000000000000000000000000000DC00000000000000000000002D2D2D2D2D2D2D2D2D2D2D2D2D2D2D2D2D2D2D2D2D2D2D2D2D2D2D2D2D2D2D2D2D2D2D2D
310
2D2D2D2D2D2D2D2D2D2D2D2D2D2D000000000000000000000000DC00000000000000000000000000000000000000000000000000000000000000000000000000000000000000000000000000000000000000000000000000000000000000000000C30000000000000000000000000000000000000000000000000000000000
310
000000000000000000000000000000000000000000000000000000000000000000000000000000000000000000000000000000000000000000000000000000000000000000000000000000000000000000DC00000000000000000000002D2D2D2D2D2D2D2D2D2D2D2D2D2D2D2D2D2D2D2D2D2D2D2D2D2D2D2D2D2D2D2D2D2D
310
2D2D2D2D2D2D2D2D2D2D2D2D2D2D2D2D000000000000000000000000DC00000000000000000000000000000000000000000000000000000000000000000000000000000000000000000000000000000000000000000000000000000000000000000000C3000000000000000000000000000000000000000000000000000000
310
0000000000000000000000000000000000000000000000000000000000000000000000000000000000000000000000000000000000000000000000000000000000000000000000000000000000000000000000DC00000000000000000000002D2D2D2D2D2D2D2D2D2D2D2D2D2D2D2D2D2D2D2D2D2D2D2D2D2D2D2D2D2D2D2D
310
2D2D2D2D2D2D2D2D2D2D2D2D2D2D2D2D2D2D000000000000000000000000DC00000000000000000000000000000000000000000000000000000000000000000000000000000000000000000000000000000000000000000000000000000000000000000000C300000000000000000000000000000000000000000000000000
310
000000000000000000000000000000000000000000000000000000000000000000000000000000000000000000000000000000000000000000000000000000000000000000000000000000000000000000000000DCDC00000000000000000000002D2D2D2D2D2D2D2D2D2D2D2D2D2D2D2D2D2D2D2D2D2D2D2D2D2D2D2D2D2D
310
2D2D2D2D2D2D2D2D2D2D2D2D2D2D2D2D2D2D2D2D000000000000000000000000DC00000000000000000000000000000000000000000000000000000000000000000000000000000000000000000000000000000000000000000000000000000000000000000000C30000000000000000000000000000000000000000000000
310
000000000000000000000000000000000000000000000000000000000000000000000000000000000000000000000000000000000000000000000000000000000000000000000000000000000000000000000000000000DC00000000000000000000002D2D2D2D2D2D2D2D2D2D2D2D2D2D2D2D2D2D2D2D2D2D2D2D2D2D2D2D
310
2D2D2D2D2D2D2D2D2D2D2D2D2D2D2D2D2D2D2D2D2D2D000000000000000000000000DC00000000000000000000000000000000000000000000000000000000000000000000000000000000000000000000000000000000000000000000000000000000000000000000C3000000000000000000000000000000000000000000
310
0000000000000000000000000000000000000000000000000000000000000000000000000000000000000000000000000000000000000000000000000000000000000000000000000000000000000000000000000000000000DC00000000000000000000002D2D2D2D2D2D2D2D2D2D2D2D2D2D2D2D2D2D2D2D2D2D2D2D2D2D
310
2D2D2D2D2D2D2D2D2D2D2D2D2D2D2D2D2D2D2D2D2D2D2D2D000000000000000000000000DC00000000000000000000000000000000000000000000000000000000000000000000000000000000000000000000000000000000000000000000000000000000000000000000C300000000000000000000000000000000000000
310
00000000000000000000000000000000000000000000000000000000000000000000000000000000000000000000000000000000000000000000000000000000000000000000000000000000000000000000000000000000000000DC00000000000000000000002D2D2D2D2D2D2D2D2D2D2D2D2D2D2D2D2D2D2D2D2D2D2D2D
310
2D2D2D2D2D2D2D2D2D2D2D2D2D2D2D2D2D2D2D2D2D2D2D2D2D2D000000000000000000000000DC00000000000000000000000000000000000000000000000000000000000000000000000000000000000000000000000000000000000000000000000000000000000000000000C30000000000000000000000000000000000
310
0000000000000000000000000000000000000000000000000000000000000000000000000000000000000000000000000000000000000000000000000000000000000000000000000000000000000000000000000000000000000000DCDC00000000000000000000002D2D2D2D2D2D2D2D2D2D2D2D2D2D2D2D2D2D2D2D2D2D
310
2D2D2D2D2D2D2D2D2D2D2D2D2D2D2D2D2D2D2D2D2D2D2D2D2D2D2D2D000000000000000000000000DC00000000000000000000000000000000000000000000000000000000000000000000000000000000000000000000000000000000000000000000000000000000000000000000C3000000000000000000000000000000
310
0000000000000000000000000000000000000000000000000000000000000000000000000000000000000000000000000000000000000000000000000000000000000000000000000000000000000000000000000000000000000000000000DC00000000000000000000002D2D2D2D2D2D2D2D2D2D2D2D2D2D2D2D2D2D2D2D
310
2D2D2D2D2D2D2D2D2D2D2D2D2D2D2D2D2D2D2D2D2D2D2D2D2D2D2D2D2D2D000000000000000000000000DC00000000000000000000000000000000000000000000000000000000000000000000000000000000000000000000000000000000000000000000000000000000000000000000C300000000000000000000000000
310
00000000000000000000000000000000000000000000000000000000000000000000000000000000000000000000000000000000000000000000000000000000000000000000000000000000000000000000000000000000000000000000000000DC00000000000000000000002D2D2D2DDC2D2D2D2D2D2D2D2D2D2DDC2D2D
310
2D2D2D2D2D2D2D2DDC2D2D2D2DDC2D2D2D2D2D2D2D2D2D2DDC2D2D2D2D2D2D2D000000000000000000000000DC00000000000000000000000000000000000000000000000000000000000000000000000000000000000000000000000000000000000000000000000000000000000000000000C30000000000000000000000
310
000000000000000000000000000000000000000000000000000000000000000000000000000000000000000000000000000000000000000000000000000000000000000000000000000000000000000000000000000000000000000000000000000000DC000000000000000000000000000000000000000000000000000000
310
00000000000000000000000000000000000000000000000000000000000000000000000000000000000000000000DC00000000000000000000000000000000000000000000000000000000000000000000000000000000000000000000000000000000000000000000000000000000000000000000C3000000000000000000
310
0000000000000000000000000000000000000000000000000000000000000000000000000000000000000000000000000000000000000000000000000000000000000000000000000000000000000000000000000000000000000000000000000000000000DC00000000000000000000000000000000000000000000000000
310
000000000000000000000000000000000000000000000000000000000000000000000000000000000000000000000000DC00000000000000000000000000000000000000000000000000000000000000000000000000000000000000000000000000000000000000000000000000000000000000000000C300000000000000
310
00000000000000000000000000000000000000000000000000000000000000000000000000000000000000000000000000000000000000000000000000000000000000000000000000000000000000000000000000000000000000000000000000000000000000DC0000000000000000000000000000000000000000000000
310
0000000000000000000000000000000000000000000000000000000000000000000000000000000000000000000000000000DC00000000000000000000000000000000000000000000000000000000000000000000000000000000000000000000000000000000000000000000000000000000000000000000C30000000000
310
000000000000000000000000000000000000000000000000000000000000000000000000000000000000000000000000000000000000000000000000000000000000000000000000000000000000000000000000000000000000000000000000000000000000000000DC000000000000000000000000000000000000000000
310
00000000000000000000000000000000000000000000000000000000000000000000000000000000000000000000000000000000DC000000000000000000000000000000000000000000000000000000000000000000000000000000000000000000000000000000000000000000000000000000000000000000C300000000
310
0000000000000000000000000000000000000000000000000000000000000000000000000000000000000000000000000000000000000000000000000000000000000000000000000000000000000000000000000000000000000000000000000000000000000000000000DC00000000000000000000000000000000000000
310
000000000000000000000000000000000000000000000000000000000000000000000000000000000000000000000000000000000000DC000000000000000000000000000000000000000000000000000000000000000000000000000000000000000000000000000000000000000000000000000000000000000000C30000
310
00000000000000000000000000000000000000000000000000000000000000000000000000000000000000000000000000000000000000000000000000000000000000000000000000000000000000000000000000000000000000000000000000000000000000000000000000DC0000000000000000000000000000000000
310
0000000000000000000000000000000000000000000000000000000000000000000000000000000000000000000000000000000000000000DC000000000000000000000000000000000000000000000000000000000000000000000000000000000000000000000000000000000000000000000000000000000000000000C3
310
000000000000000000000000000000000000000000000000000000000000000000000000000000000000000000000000000000000000000000000000000000000000000000000000000000000000000000000000000000000000000000000000000000000000000000000000000000DC000000000000000000000000000000
310
00000000000000000000000000000000000000000000000000000000000000000000000000000000000000000000000000000000000000000000DC0000000000000000000000000000000000000000000000000000000000000000000000000000000000000000000000000000000000000000000000000000000000000000
310
00C3000000000000000000000000000000000000000000000000000000000000000000000000000000000000000000000000000000000000000000000000000000000000000000000000000000000000000000000000000000000000000000000000000000000000000000000000000000DC00000000000000000000000000
310
000000000000000000000000000000000000000000000000000000000000000000000000000000000000000000000000000000000000000000000000DC000000000000000000000000000000000000000000000000000000000000000000000000000000000000000000000000000000000000000000000000000000000000
310
000000C3000000000000000000000000000000000000000000000000000000000000000000000000000000000000000000000000000000000000000000000000000000000000000000000000000000000000000000000000000000000000000000000000000000000000000000000000000000DC0000000000000000000000
310
0000000000000000000000000000000000000000000000000000000000000000000000000000000000000000000000000000000000000000000000000000DC00000000000000000000000000000000000000000000000000000000000000000000000000000000000000000000000000000000000000000000000000000000
310
0000000000C3000000000000000000000000000000000000000000000000000000000000000000000000000000000000000000000000000000000000000000000000000000000000000000000000000000000000000000000000000000000000000000000000000000000000000000000000000000DC000000000000000000
310
00000000000000000000000000000000000000000000000000000000000000000000000000000000000000000000000000000000000000000000000000000000DC0000000000000000000000000000000000000000000000000000000000000000000000000000000000000000000000000000000000000000000000000000
310
00000000000000C3000000000000000000000000000000000000000000000000000000000000000000000000000000000000000000000000000000000000000000000000000000000000000000000000000000000000000000000000000000000000000000000000000000000000000000000000000000DC00000000000000
310
000000000000000000000000000000000000000000000000000000000000000000000000000000000000000000000000000000000000000000000000000000000000DC000000000000000000000000000000000000000000000000000000000000000000000000000000000000000000000000000000000000000000000000
310
000000000000000000C3000000000000000000000000000000000000000000000000000000000000000000000000000000000000000000000000000000000000000000000000000000000000000000000000000000000000000000000000000000000000000000000000000000000000000000000000000000DCDCDCDCDCDC
310
DCDCDCDCDCDCDCDCDCDCDCDCDCDCDCDCDCDCDCDCDCDCDCDCDCDCDCDCDCDCDCDCDCDCDCDCDCDCDCDCDCDCDCDCDCDCDCDCDCDCDCDCDCDCDCDCDCDCDCDCDCDCDCDCDCDCDCDCDC00000000000000000000000000000000000000000000000000000000000000000000000000000000000000000000000000000000000000000000
310
0000000000000000000000C300000000000000000000000000000000000000000000000000000000000000000000000000000000000000000000000000000000000000000000000000000000000000000000000000000000000000000000000000000000000000000000000000000000000000000000000000000000000000
310
00000000000000000000000000000000000000000000000000000000000000000000000000000000000000000000000000000000000000000000000000000000000000000000000000000000000000000000000000000000000000000000000000000000000000000000000000000000000000000000000000000000000000
310
00000000000000000000000000C30000000000000000000000000000000000000000000000000000000000000000000000000000000000000000000000000000000000000000000000000000000000000000000000000000000000000000000000000000000000000000000000000000000000000000000000000000000000
310
00000000000000000000000000000000000000000000000000000000000000000000000000000000000000000000000000000000000000000000000000000000000000000000000000000000000000000000000000000000000000000000000000000000000000000000000000000000000000000000000000000000000000
310
0000000000000000000000000000C300000000000000000000000000000000000000000000000000000000000000000000000000000000000000000000000000000000000000000000000000000000000000000000000000000000000000000000000000000000000000000000000000000000000000000000000000000000
310
00000000000000000000000000000000000000000000000000000000000000000000000000000000000000000000000000000000000000000000000000000000000000000000000000000000000000000000000000000000000000000000000000000000000000000000000000000000000000000000000000000000000000
310
00000000000000000000000000000000C30000000000000000000000000000000000000000000000000000000000000000000000000000000000000000000000000000000000000000000000000000000000000000000000000000000000000000000000000000000000000000000000000000000000000000000000000000
310
00000000000000000000000000000000000000000000000000000000000000000000000000000000000000000000000000000000000000000000000000000000000000000000000000000000000000000000000000000000000000000000000000000000000000000000000000000000000000000000000000000000000000
310
00000000000000000000000000000000000000000000000000000000000000000000000000000000000000000000000000000000000000000000000000000000000000000000000000000000000000000000000000000000000000000000000000000000000000000000000000000000000000000000000000000000000000
310
00000000000000000000000000000000000000000000000000000000000000000000000000000000000000000000000000000000000000000000000000000000000000000000000000000000000000000000000000000000000000000000000000000000000000000000000000000000000000000000000000000000000000
310
0000000000000000000000000000000000000000C300000000000000000000000000000000000000000000000000000000000000000000000000000000000000000000000000000000000000000000000000000000000000000000000000000000000000000000000000000000000000000000000000000000000000000000
310
00000000000000000000000000000000000000000000000000000000000000000000000000000000000000000000000000000000000000000000000000000000000000000000000000000000000000000000000000000000000000000000000000000000000000000000000000000000000000000000000000000000000000
310
00000000000000000000000000000000000000000000C30000000000000000000000000000000000000000000000000000000000000000000000000000000000000000000000000000000000000000000000000000000000000000000000000000000000000000000000000000000000000000000000000000000000000000
310
00000000000000000000000000000000000000000000000000000000000000000000000000000000000000000000000000000000000000000000000000000000000000000000000000000000000000000000000000000000000000000000000000000000000000000000000000000000000000000000000000000000000000
310
0000000000000000000000000000000000000000000000C300000000000000000000000000000000000000000000000000000000000000000000000000000000000000000000000000000000000000000000000000000000000000000000000000000000000000000000000000000000000000000000000000000000000000
310
00000000000000000000000000000000000000000000000000000000000000000000000000000000000000000000000000000000000000000000000000000000000000000000000000000000000000000000000000000000000000000000000000000000000000000000000000000000000000000000000000000000000000
310
00000000000000000000000000000000000000000000000000C30000000000000000000000000000000000000000000000000000000000000000000000000000000000000000000000000000000000000000000000000000000000000000000000000000000000000000000000000000000000000000000000000000000000
310
00000000000000000000000000000000000000000000000000000000000000000000000000000000000000000000000000000000000000000000000000000000000000000000000000000000000000000000000000000000000000000000000000000000000000000000000000000000000000000000000000000000000000
310
000000000000000000000000000000000000000000000000000000C3000000000000000000000000000000000000000000000000000000000000000000000000000000000000000000000000000000000000000000000000000000000000000000000000000000000000000000000000000000000000000000000000000000
310
00000000000000000000000000000000000000000000000000000000000000000000000000000000000000000000000000000000000000000000000000000000000000000000000000000000000000000000000000000000000000000000000000000000000000000000000000000000000000000000000000000000000000
310
0000000000000000000000000000000000000000000000000000000000C300000000000000000000000000000000000000000000000000000000000000000000000000000000000000000000000000000000000000000000000000000000000000000000000000000000000000000000000000000000000000000000000000
310
00000000000000000000000000000000000000000000000000000000000000000000000000000000000000000000000000000000000000000000000000000000000000000000000000000000000000000000000000000000000000000000000000000000000000000000000000000000000000000000000000000000000000
310
000000000000000000000000000000000000000000000000000000000000C3000000000000000000000000000000000000000000000000000000000000000000000000000000000000000000000000000000000000000000000000000000000000000000000000000000000000000000000000000000000000000000000000
310
00000000000000000000000000000000000000000000000000000000000000000000000000000000000000000000000000000000000000000000000000000000000000000000000000000000000000000000000000000000000000000000000000000000000000000000000000000000000000000000000000000000000000
310
0000000000000000000000000000000000000000000000000000000000000000C300000000000000000000000000000000000000000000000000000000000000000000000000000000000000000000000000000000000000000000000000000000000000000000000000000000000000000000000000000000000000000000
310
00000000000000000000000000000000000000000000000000000000000000000000000000000000000000000000000000000000000000000000000000000000000000000000000000000000000000000000000000000000000000000000000000000000000000000000000000000000000000000000000000000000000000
310
000000000000000000000000000000000000000000000000000000000000000000C3000000000000000000000000000000000000000000000000000000000000000000000000000000000000000000000000000000000000000000000000000000000000000000000000000000000000000000000000000000000000000000
310
00000000000000000000000000000000000000000000000000000000000000000000000000000000000000000000000000000000000000000000000000000000000000000000000000000000000000000000000000000000000000000000000000000000000000000000000000000000000000000000000000000000000000
310
0000000000000000000000000000000000000000000000000000000000000000000000C30000000000000000000000000000000000000000000000000000000000000000000000000000000000000000000000000000000000000000000000000000000000
  0
XRECORD
  5
2ECC4E
102
{ACAD_REACTORS
330
1A
102
}
330
1A
100
AcDbXrecord
280
     1
102
MATERIAL
148
0.0
149
0.0
149
0.0
 93
        0
 94
      127
282
     0
 72
     0
 77
     0
171
     0
175
     0
179
     0
273
     0
  0
XRECORD
  5
1C
102
{ACAD_REACTORS
330
1A
102
}
330
1A
100
AcDbXrecord
280
     1
270
     1
271
     1
  0
XRECORD
  5
1B
102
{ACAD_REACTORS
330
1A
102
}
330
1A
100
AcDbXrecord
280
     1
270
     1
271
     1
  0
XRECORD
  5
1F
102
{ACAD_REACTORS
330
1A
102
}
330
1A
100
AcDbXrecord
280
     1
270
     1
271
     1
  0
XRECORD
  5
1E
102
{ACAD_REACTORS
330
1A
102
}
330
1A
100
AcDbXrecord
280
     1
270
     1
271
     1
  0
XRECORD
  5
20
102
{ACAD_REACTORS
330
1A
102
}
330
1A
100
AcDbXrecord
280
     1
270
     1
271
     1
  0
XRECORD
  5
1D
102
{ACAD_REACTORS
330
1A
102
}
330
1A
100
AcDbXrecord
280
     1
270
     1
271
     1
  0
XRECORD
  5
2ECC4D
102
{ACAD_REACTORS
330
12
102
}
330
12
100
AcDbXrecord
280
     1
102
MATERIAL
148
0.0
149
0.0
149
0.0
 93
        0
 94
      127
282
     0
 72
     0
 77
     0
171
     0
175
     0
179
     0
273
     0
  0
XRECORD
  5
14
102
{ACAD_REACTORS
330
12
102
}
330
12
100
AcDbXrecord
280
     1
270
     1
271
     1
  0
XRECORD
  5
13
102
{ACAD_REACTORS
330
12
102
}
330
12
100
AcDbXrecord
280
     1
270
     1
271
     1
  0
XRECORD
  5
17
102
{ACAD_REACTORS
330
12
102
}
330
12
100
AcDbXrecord
280
     1
270
     1
271
     1
  0
XRECORD
  5
16
102
{ACAD_REACTORS
330
12
102
}
330
12
100
AcDbXrecord
280
     1
270
     1
271
     1
  0
XRECORD
  5
18
102
{ACAD_REACTORS
330
12
102
}
330
12
100
AcDbXrecord
280
     1
270
     1
271
     1
  0
XRECORD
  5
15
102
{ACAD_REACTORS
330
12
102
}
330
12
100
AcDbXrecord
280
     1
270
     1
271
     1
  0
XRECORD
  5
2ECC4F
102
{ACAD_REACTORS
330
22
102
}
330
22
100
AcDbXrecord
280
     1
102
MATERIAL
148
0.0
149
0.0
149
0.0
 93
        0
 94
      127
282
     0
 72
     0
 77
     0
171
     0
175
     0
179
     0
273
     0
  0
XRECORD
  5
24
102
{ACAD_REACTORS
330
22
102
}
330
22
100
AcDbXrecord
280
     1
270
     1
271
     1
  0
XRECORD
  5
23
102
{ACAD_REACTORS
330
22
102
}
330
22
100
AcDbXrecord
280
     1
270
     1
271
     1
  0
XRECORD
  5
27
102
{ACAD_REACTORS
330
22
102
}
330
22
100
AcDbXrecord
280
     1
270
     1
271
     1
  0
XRECORD
  5
26
102
{ACAD_REACTORS
330
22
102
}
330
22
100
AcDbXrecord
280
     1
270
     1
271
     1
  0
XRECORD
  5
28
102
{ACAD_REACTORS
330
22
102
}
330
22
100
AcDbXrecord
280
     1
270
     1
271
     1
  0
XRECORD
  5
25
102
{ACAD_REACTORS
330
22
102
}
330
22
100
AcDbXrecord
280
     1
270
     1
271
     1
  0
CELLSTYLEMAP
  5
2F559B
102
{ACAD_REACTORS
330
2ECC49
102
}
330
2ECC49
100
AcDbCellStyleMap
 90
        3
300
CELLSTYLE
  1
TABLEFORMAT_BEGIN
 90
        5
170
     1
 91
        0
 92
    32768
 62
   257
 93
        1
300
CONTENTFORMAT
  1
CONTENTFORMAT_BEGIN
 90
        0
 91
        0
 92
      512
 93
        0
300

 40
0.0
140
1.0
 94
        5
 62
     0
340
55
144
0.25
309
CONTENTFORMAT_END
171
     1
301
MARGIN
  1
CELLMARGIN_BEGIN
 40
0.06
 40
0.06
 40
0.06
 40
0.06
 40
0.18
 40
0.18
309
CELLMARGIN_END
 94
        6
 95
        1
302
GRIDFORMAT
  1
GRIDFORMAT_BEGIN
 90
        0
 91
        1
 62
     0
 92
       -2
340
0
 93
        0
 40
0.045
309
GRIDFORMAT_END
 95
        2
302
GRIDFORMAT
  1
GRIDFORMAT_BEGIN
 90
        0
 91
        1
 62
     0
 92
       -2
340
0
 93
        0
 40
0.045
309
GRIDFORMAT_END
 95
        4
302
GRIDFORMAT
  1
GRIDFORMAT_BEGIN
 90
        0
 91
        1
 62
     0
 92
       -2
340
0
 93
        0
 40
0.045
309
GRIDFORMAT_END
 95
        8
302
GRIDFORMAT
  1
GRIDFORMAT_BEGIN
 90
        0
 91
        1
 62
     0
 92
       -2
340
0
 93
        0
 40
0.045
309
GRIDFORMAT_END
 95
       16
302
GRIDFORMAT
  1
GRIDFORMAT_BEGIN
 90
        0
 91
        1
 62
     0
 92
       -2
340
0
 93
        0
 40
0.045
309
GRIDFORMAT_END
 95
       32
302
GRIDFORMAT
  1
GRIDFORMAT_BEGIN
 90
        0
 91
        1
 62
     0
 92
       -2
340
0
 93
        0
 40
0.045
309
GRIDFORMAT_END
309
TABLEFORMAT_END
  1
CELLSTYLE_BEGIN
 90
        1
 91
        1
300
_TITLE
309
CELLSTYLE_END
300
CELLSTYLE
  1
TABLEFORMAT_BEGIN
 90
        5
170
     1
 91
        0
 92
        0
 62
   257
 93
        1
300
CONTENTFORMAT
  1
CONTENTFORMAT_BEGIN
 90
        0
 91
        0
 92
      512
 93
        0
300

 40
0.0
140
1.0
 94
        5
 62
     0
340
55
144
0.18
309
CONTENTFORMAT_END
171
     1
301
MARGIN
  1
CELLMARGIN_BEGIN
 40
0.06
 40
0.06
 40
0.06
 40
0.06
 40
0.18
 40
0.18
309
CELLMARGIN_END
 94
        6
 95
        1
302
GRIDFORMAT
  1
GRIDFORMAT_BEGIN
 90
        0
 91
        1
 62
     0
 92
       -2
340
0
 93
        0
 40
0.045
309
GRIDFORMAT_END
 95
        2
302
GRIDFORMAT
  1
GRIDFORMAT_BEGIN
 90
        0
 91
        1
 62
     0
 92
       -2
340
0
 93
        0
 40
0.045
309
GRIDFORMAT_END
 95
        4
302
GRIDFORMAT
  1
GRIDFORMAT_BEGIN
 90
        0
 91
        1
 62
     0
 92
       -2
340
0
 93
        0
 40
0.045
309
GRIDFORMAT_END
 95
        8
302
GRIDFORMAT
  1
GRIDFORMAT_BEGIN
 90
        0
 91
        1
 62
     0
 92
       -2
340
0
 93
        0
 40
0.045
309
GRIDFORMAT_END
 95
       16
302
GRIDFORMAT
  1
GRIDFORMAT_BEGIN
 90
        0
 91
        1
 62
     0
 92
       -2
340
0
 93
        0
 40
0.045
309
GRIDFORMAT_END
 95
       32
302
GRIDFORMAT
  1
GRIDFORMAT_BEGIN
 90
        0
 91
        1
 62
     0
 92
       -2
340
0
 93
        0
 40
0.045
309
GRIDFORMAT_END
309
TABLEFORMAT_END
  1
CELLSTYLE_BEGIN
 90
        2
 91
        1
300
_HEADER
309
CELLSTYLE_END
300
CELLSTYLE
  1
TABLEFORMAT_BEGIN
 90
        5
170
     1
 91
        0
 92
        0
 62
   257
 93
        1
300
CONTENTFORMAT
  1
CONTENTFORMAT_BEGIN
 90
        0
 91
        0
 92
      512
 93
        0
300

 40
0.0
140
1.0
 94
        2
 62
     0
340
55
144
0.18
309
CONTENTFORMAT_END
171
     1
301
MARGIN
  1
CELLMARGIN_BEGIN
 40
0.06
 40
0.06
 40
0.06
 40
0.06
 40
0.18
 40
0.18
309
CELLMARGIN_END
 94
        6
 95
        1
302
GRIDFORMAT
  1
GRIDFORMAT_BEGIN
 90
        0
 91
        1
 62
     0
 92
       -2
340
0
 93
        0
 40
0.045
309
GRIDFORMAT_END
 95
        2
302
GRIDFORMAT
  1
GRIDFORMAT_BEGIN
 90
        0
 91
        1
 62
     0
 92
       -2
340
0
 93
        0
 40
0.045
309
GRIDFORMAT_END
 95
        4
302
GRIDFORMAT
  1
GRIDFORMAT_BEGIN
 90
        0
 91
        1
 62
     0
 92
       -2
340
0
 93
        0
 40
0.045
309
GRIDFORMAT_END
 95
        8
302
GRIDFORMAT
  1
GRIDFORMAT_BEGIN
 90
        0
 91
        1
 62
     0
 92
       -2
340
0
 93
        0
 40
0.045
309
GRIDFORMAT_END
 95
       16
302
GRIDFORMAT
  1
GRIDFORMAT_BEGIN
 90
        0
 91
        1
 62
     0
 92
       -2
340
0
 93
        0
 40
0.045
309
GRIDFORMAT_END
 95
       32
302
GRIDFORMAT
  1
GRIDFORMAT_BEGIN
 90
        0
 91
        1
 62
     0
 92
       -2
340
0
 93
        0
 40
0.045
309
GRIDFORMAT_END
309
TABLEFORMAT_END
  1
CELLSTYLE_BEGIN
 90
        3
 91
        2
300
_DATA
309
CELLSTYLE_END
  0
XRECORD
  5
2F55D3
102
{ACAD_REACTORS
330
2ECC49
102
}
330
2ECC49
100
AcDbXrecord
280
     1
102
ACAD_ROUNDTRIP_PRE2007_TABLESTYLE
 90
      512
 91
        0
  1

 92
      512
 93
        0
  2

 94
      512
 95
        0
  3

  0
XRECORD
  5
2F55AE
102
{ACAD_REACTORS
330
2F55AD
102
}
330
2F55AD
100
AcDbXrecord
280
     1
102
RTVSPropertyOp0
 70
     1
102
RTVSPropertyOp1
 70
     1
102
RTVSPropertyOp2
 70
     1
102
RTVSPropertyOp3
 70
     1
102
RTVSPropertyOp4
 70
     1
102
RTVSPropertyOp5
 70
     1
102
RTVSPropertyOp6
 70
     1
102
RTVSPropertyOp7
 70
     1
102
RTVSPropertyOp8
 70
     1
102
RTVSPropertyOp9
 70
     1
102
RTVSPropertyOp10
 70
     1
102
RTVSPropertyOp11
 70
     1
102
RTVSPropertyOp12
 70
     1
102
RTVSPropertyOp13
 70
     1
102
RTVSPropertyOp14
 70
     1
102
RTVSPropertyOp15
 70
     1
102
RTVSPropertyOp16
 70
     1
102
RTVSPropertyOp17
 70
     1
102
RTVSPropertyOp18
 70
     1
102
RTVSPropertyOp19
 70
     1
102
RTVSPropertyOp20
 70
     1
102
RTVSPropertyOp21
 70
     1
102
RTVSPropertyOp22
 70
     1
102
RTVSPropertyOp23
 70
     1
102
RTVSPropertyOp24
 70
     1
102
RTVSPropertyOp25
 70
     1
102
RTVSPropertyOp26
 70
     1
102
RTVSPropertyOp27
 70
     1
102
RTVSPropertyOp28
 70
     1
102
RTVSPropertyOp29
 70
     1
102
RTVSPropertyOp30
 70
     1
102
RTVSPropertyOp31
 70
     1
102
RTVSPropertyOp32
 70
     1
  0
XRECORD
  5
2F55DA
102
{ACAD_REACTORS
330
2F55D9
102
}
330
2F55D9
100
AcDbXrecord
280
     1
102
RTVSPropertyOp0
 70
     1
102
RTVSPropertyOp1
 70
     1
102
RTVSPropertyOp2
 70
     1
102
RTVSPropertyOp3
 70
     1
102
RTVSPropertyOp4
 70
     1
102
RTVSPropertyOp5
 70
     1
102
RTVSPropertyOp6
 70
     1
102
RTVSPropertyOp7
 70
     1
102
RTVSPropertyOp8
 70
     1
102
RTVSPropertyOp9
 70
     1
102
RTVSPropertyOp10
 70
     1
102
RTVSPropertyOp11
 70
     1
102
RTVSPropertyOp12
 70
     1
102
RTVSPropertyOp13
 70
     1
102
RTVSPropertyOp14
 70
     1
102
RTVSPropertyOp15
 70
     1
102
RTVSPropertyOp16
 70
     1
102
RTVSPropertyOp17
 70
     1
102
RTVSPropertyOp18
 70
     1
102
RTVSPropertyOp19
 70
     1
102
RTVSPropertyOp20
 70
     1
102
RTVSPropertyOp21
 70
     1
102
RTVSPropertyOp22
 70
     1
102
RTVSPropertyOp23
 70
     1
102
RTVSPropertyOp24
 70
     1
102
RTVSPropertyOp25
 70
     1
102
RTVSPropertyOp26
 70
     1
102
RTVSPropertyOp27
 70
     1
102
RTVSPropertyOp28
 70
     1
102
RTVSPropertyOp29
 70
     1
102
RTVSPropertyOp30
 70
     1
102
RTVSPropertyOp31
 70
     1
102
RTVSPropertyOp32
 70
     1
  0
XRECORD
  5
2F55AC
102
{ACAD_REACTORS
330
2F55AB
102
}
330
2F55AB
100
AcDbXrecord
280
     1
102
RTVSPropertyOp0
 70
     1
102
RTVSPropertyOp1
 70
     1
102
RTVSPropertyOp2
 70
     1
102
RTVSPropertyOp3
 70
     1
102
RTVSPropertyOp4
 70
     1
102
RTVSPropertyOp5
 70
     1
102
RTVSPropertyOp6
 70
     1
102
RTVSPropertyOp7
 70
     1
102
RTVSPropertyOp8
 70
     1
102
RTVSPropertyOp9
 70
     1
102
RTVSPropertyOp10
 70
     1
102
RTVSPropertyOp11
 70
     1
102
RTVSPropertyOp12
 70
     1
102
RTVSPropertyOp13
 70
     1
102
RTVSPropertyOp14
 70
     1
102
RTVSPropertyOp15
 70
     1
102
RTVSPropertyOp16
 70
     1
102
RTVSPropertyOp17
 70
     1
102
RTVSPropertyOp18
 70
     1
102
RTVSPropertyOp19
 70
     1
102
RTVSPropertyOp20
 70
     1
102
RTVSPropertyOp21
 70
     1
102
RTVSPropertyOp22
 70
     1
102
RTVSPropertyOp23
 70
     1
102
RTVSPropertyOp24
 70
     1
102
RTVSPropertyOp25
 70
     1
102
RTVSPropertyOp26
 70
     1
102
RTVSPropertyOp27
 70
     1
102
RTVSPropertyOp28
 70
     1
102
RTVSPropertyOp29
 70
     1
102
RTVSPropertyOp30
 70
     1
102
RTVSPropertyOp31
 70
     1
102
RTVSPropertyOp32
 70
     1
  0
XRECORD
  5
2F55BA
102
{ACAD_REACTORS
330
2F55B9
102
}
330
2F55B9
100
AcDbXrecord
280
     1
102
RTVSPropertyOp0
 70
     1
102
RTVSPropertyOp1
 70
     1
102
RTVSPropertyOp2
 70
     1
102
RTVSPropertyOp3
 70
     1
102
RTVSPropertyOp4
 70
     1
102
RTVSPropertyOp5
 70
     1
102
RTVSPropertyOp6
 70
     1
102
RTVSPropertyOp7
 70
     1
102
RTVSPropertyOp8
 70
     1
102
RTVSPropertyOp9
 70
     1
102
RTVSPropertyOp10
 70
     1
102
RTVSPropertyOp11
 70
     1
102
RTVSPropertyOp12
 70
     1
102
RTVSPropertyOp13
 70
     1
102
RTVSPropertyOp14
 70
     1
102
RTVSPropertyOp15
 70
     1
102
RTVSPropertyOp16
 70
     1
102
RTVSPropertyOp17
 70
     1
102
RTVSPropertyOp18
 70
     1
102
RTVSPropertyOp19
 70
     1
102
RTVSPropertyOp20
 70
     1
102
RTVSPropertyOp21
 70
     1
102
RTVSPropertyOp22
 70
     1
102
RTVSPropertyOp23
 70
     1
102
RTVSPropertyOp24
 70
     1
102
RTVSPropertyOp25
 70
     1
102
RTVSPropertyOp26
 70
     1
102
RTVSPropertyOp27
 70
     1
102
RTVSPropertyOp28
 70
     1
102
RTVSPropertyOp29
 70
     1
102
RTVSPropertyOp30
 70
     1
102
RTVSPropertyOp31
 70
     1
102
RTVSPropertyOp32
 70
     1
  0
XRECORD
  5
2F55C2
102
{ACAD_REACTORS
330
2F55C1
102
}
330
2F55C1
100
AcDbXrecord
280
     1
102
RTVSPropertyOp0
 70
     1
102
RTVSPropertyOp1
 70
     1
102
RTVSPropertyOp2
 70
     1
102
RTVSPropertyOp3
 70
     1
102
RTVSPropertyOp4
 70
     1
102
RTVSPropertyOp5
 70
     1
102
RTVSPropertyOp6
 70
     1
102
RTVSPropertyOp7
 70
     1
102
RTVSPropertyOp8
 70
     1
102
RTVSPropertyOp9
 70
     1
102
RTVSPropertyOp10
 70
     1
102
RTVSPropertyOp11
 70
     1
102
RTVSPropertyOp12
 70
     1
102
RTVSPropertyOp13
 70
     1
102
RTVSPropertyOp14
 70
     1
102
RTVSPropertyOp15
 70
     1
102
RTVSPropertyOp16
 70
     1
102
RTVSPropertyOp17
 70
     1
102
RTVSPropertyOp18
 70
     1
102
RTVSPropertyOp19
 70
     1
102
RTVSPropertyOp20
 70
     1
102
RTVSPropertyOp21
 70
     1
102
RTVSPropertyOp22
 70
     1
102
RTVSPropertyOp23
 70
     1
102
RTVSPropertyOp24
 70
     1
102
RTVSPropertyOp25
 70
     1
102
RTVSPropertyOp26
 70
     1
102
RTVSPropertyOp27
 70
     1
102
RTVSPropertyOp28
 70
     1
102
RTVSPropertyOp29
 70
     1
102
RTVSPropertyOp30
 70
     1
102
RTVSPropertyOp31
 70
     1
102
RTVSPropertyOp32
 70
     1
  0
XRECORD
  5
2F55B4
102
{ACAD_REACTORS
330
2F55B3
102
}
330
2F55B3
100
AcDbXrecord
280
     1
102
RTVSPropertyOp0
 70
     1
102
RTVSPropertyOp1
 70
     1
102
RTVSPropertyOp2
 70
     1
102
RTVSPropertyOp3
 70
     1
102
RTVSPropertyOp4
 70
     1
102
RTVSPropertyOp5
 70
     1
102
RTVSPropertyOp6
 70
     1
102
RTVSPropertyOp7
 70
     1
102
RTVSPropertyOp8
 70
     1
102
RTVSPropertyOp9
 70
     1
102
RTVSPropertyOp10
 70
     1
102
RTVSPropertyOp11
 70
     1
102
RTVSPropertyOp12
 70
     1
102
RTVSPropertyOp13
 70
     1
102
RTVSPropertyOp14
 70
     1
102
RTVSPropertyOp15
 70
     1
102
RTVSPropertyOp16
 70
     1
102
RTVSPropertyOp17
 70
     1
102
RTVSPropertyOp18
 70
     1
102
RTVSPropertyOp19
 70
     1
102
RTVSPropertyOp20
 70
     1
102
RTVSPropertyOp21
 70
     1
102
RTVSPropertyOp22
 70
     1
102
RTVSPropertyOp23
 70
     1
102
RTVSPropertyOp24
 70
     1
102
RTVSPropertyOp25
 70
     1
102
RTVSPropertyOp26
 70
     1
102
RTVSPropertyOp27
 70
     1
102
RTVSPropertyOp28
 70
     1
102
RTVSPropertyOp29
 70
     1
102
RTVSPropertyOp30
 70
     1
102
RTVSPropertyOp31
 70
     1
102
RTVSPropertyOp32
 70
     1
  0
XRECORD
  5
2F55B8
102
{ACAD_REACTORS
330
2F55B7
102
}
330
2F55B7
100
AcDbXrecord
280
     1
102
RTVSPropertyOp0
 70
     1
102
RTVSPropertyOp1
 70
     1
102
RTVSPropertyOp2
 70
     1
102
RTVSPropertyOp3
 70
     1
102
RTVSPropertyOp4
 70
     1
102
RTVSPropertyOp5
 70
     1
102
RTVSPropertyOp6
 70
     1
102
RTVSPropertyOp7
 70
     1
102
RTVSPropertyOp8
 70
     1
102
RTVSPropertyOp9
 70
     1
102
RTVSPropertyOp10
 70
     1
102
RTVSPropertyOp11
 70
     1
102
RTVSPropertyOp12
 70
     1
102
RTVSPropertyOp13
 70
     1
102
RTVSPropertyOp14
 70
     1
102
RTVSPropertyOp15
 70
     1
102
RTVSPropertyOp16
 70
     1
102
RTVSPropertyOp17
 70
     1
102
RTVSPropertyOp18
 70
     1
102
RTVSPropertyOp19
 70
     1
102
RTVSPropertyOp20
 70
     1
102
RTVSPropertyOp21
 70
     1
102
RTVSPropertyOp22
 70
     1
102
RTVSPropertyOp23
 70
     1
102
RTVSPropertyOp24
 70
     1
102
RTVSPropertyOp25
 70
     1
102
RTVSPropertyOp26
 70
     1
102
RTVSPropertyOp27
 70
     1
102
RTVSPropertyOp28
 70
     1
102
RTVSPropertyOp29
 70
     1
102
RTVSPropertyOp30
 70
     1
102
RTVSPropertyOp31
 70
     1
102
RTVSPropertyOp32
 70
     1
  0
XRECORD
  5
2F55D2
102
{ACAD_REACTORS
330
2F55D1
102
}
330
2F55D1
100
AcDbXrecord
280
     1
102
RTVSPropertyOp0
 70
     0
102
RTVSPropertyOp1
 70
     0
102
RTVSPropertyOp2
 70
     0
102
RTVSPropertyOp3
 70
     0
102
RTVSPropertyOp4
 70
     0
102
RTVSPropertyOp5
 70
     0
102
RTVSPropertyOp6
 70
     0
102
RTVSPropertyOp7
 70
     0
102
RTVSPropertyOp8
 70
     0
102
RTVSPropertyOp9
 70
     0
102
RTVSPropertyOp10
 70
     0
102
RTVSPropertyOp11
 70
     0
102
RTVSPropertyOp12
 70
     0
102
RTVSPropertyOp13
 70
     0
102
RTVSPropertyOp14
 70
     2
102
RTVSPropertyOp15
 70
     0
102
RTVSPropertyOp16
 70
     0
102
RTVSPropertyOp17
 70
     0
102
RTVSPropertyOp18
 70
     0
102
RTVSPropertyOp19
 70
     0
102
RTVSPropertyOp20
 70
     0
102
RTVSPropertyOp21
 70
     0
102
RTVSPropertyOp22
 70
     0
102
RTVSPropertyOp23
 70
     0
102
RTVSPropertyOp24
 70
     0
102
RTVSPropertyOp25
 70
     0
102
RTVSPropertyOp26
 70
     0
102
RTVSPropertyOp27
 70
     0
102
RTVSPropertyOp28
 70
     1
102
RTVSPropertyOp29
 70
     1
102
RTVSPropertyOp30
 70
     1
102
RTVSPropertyOp31
 70
     1
102
RTVSPropertyOp32
 70
     1
  0
XRECORD
  5
2F55C0
102
{ACAD_REACTORS
330
2F55BF
102
}
330
2F55BF
100
AcDbXrecord
280
     1
102
RTVSPropertyOp0
 70
     1
102
RTVSPropertyOp1
 70
     1
102
RTVSPropertyOp2
 70
     1
102
RTVSPropertyOp3
 70
     1
102
RTVSPropertyOp4
 70
     1
102
RTVSPropertyOp5
 70
     1
102
RTVSPropertyOp6
 70
     1
102
RTVSPropertyOp7
 70
     1
102
RTVSPropertyOp8
 70
     1
102
RTVSPropertyOp9
 70
     1
102
RTVSPropertyOp10
 70
     1
102
RTVSPropertyOp11
 70
     1
102
RTVSPropertyOp12
 70
     1
102
RTVSPropertyOp13
 70
     1
102
RTVSPropertyOp14
 70
     1
102
RTVSPropertyOp15
 70
     1
102
RTVSPropertyOp16
 70
     1
102
RTVSPropertyOp17
 70
     1
102
RTVSPropertyOp18
 70
     1
102
RTVSPropertyOp19
 70
     1
102
RTVSPropertyOp20
 70
     1
102
RTVSPropertyOp21
 70
     1
102
RTVSPropertyOp22
 70
     1
102
RTVSPropertyOp23
 70
     1
102
RTVSPropertyOp24
 70
     1
102
RTVSPropertyOp25
 70
     1
102
RTVSPropertyOp26
 70
     1
102
RTVSPropertyOp27
 70
     1
102
RTVSPropertyOp28
 70
     1
102
RTVSPropertyOp29
 70
     1
102
RTVSPropertyOp30
 70
     1
102
RTVSPropertyOp31
 70
     1
102
RTVSPropertyOp32
 70
     1
  0
XRECORD
  5
2F55A4
102
{ACAD_REACTORS
330
2F55A3
102
}
330
2F55A3
100
AcDbXrecord
280
     1
102
RTVSPropertyOp0
 70
     1
102
RTVSPropertyOp1
 70
     1
102
RTVSPropertyOp2
 70
     1
102
RTVSPropertyOp3
 70
     1
102
RTVSPropertyOp4
 70
     1
102
RTVSPropertyOp5
 70
     1
102
RTVSPropertyOp6
 70
     1
102
RTVSPropertyOp7
 70
     1
102
RTVSPropertyOp8
 70
     1
102
RTVSPropertyOp9
 70
     1
102
RTVSPropertyOp10
 70
     1
102
RTVSPropertyOp11
 70
     1
102
RTVSPropertyOp12
 70
     1
102
RTVSPropertyOp13
 70
     1
102
RTVSPropertyOp14
 70
     1
102
RTVSPropertyOp15
 70
     1
102
RTVSPropertyOp16
 70
     1
102
RTVSPropertyOp17
 70
     1
102
RTVSPropertyOp18
 70
     1
102
RTVSPropertyOp19
 70
     1
102
RTVSPropertyOp20
 70
     1
102
RTVSPropertyOp21
 70
     1
102
RTVSPropertyOp22
 70
     1
102
RTVSPropertyOp23
 70
     1
102
RTVSPropertyOp24
 70
     1
102
RTVSPropertyOp25
 70
     1
102
RTVSPropertyOp26
 70
     1
102
RTVSPropertyOp27
 70
     1
102
RTVSPropertyOp28
 70
     1
102
RTVSPropertyOp29
 70
     1
102
RTVSPropertyOp30
 70
     1
102
RTVSPropertyOp31
 70
     1
102
RTVSPropertyOp32
 70
     1
  0
XRECORD
  5
2F55A6
102
{ACAD_REACTORS
330
2F55A5
102
}
330
2F55A5
100
AcDbXrecord
280
     1
102
RTVSPropertyOp0
 70
     1
102
RTVSPropertyOp1
 70
     1
102
RTVSPropertyOp2
 70
     1
102
RTVSPropertyOp3
 70
     1
102
RTVSPropertyOp4
 70
     1
102
RTVSPropertyOp5
 70
     1
102
RTVSPropertyOp6
 70
     1
102
RTVSPropertyOp7
 70
     1
102
RTVSPropertyOp8
 70
     1
102
RTVSPropertyOp9
 70
     1
102
RTVSPropertyOp10
 70
     1
102
RTVSPropertyOp11
 70
     1
102
RTVSPropertyOp12
 70
     1
102
RTVSPropertyOp13
 70
     1
102
RTVSPropertyOp14
 70
     1
102
RTVSPropertyOp15
 70
     1
102
RTVSPropertyOp16
 70
     1
102
RTVSPropertyOp17
 70
     1
102
RTVSPropertyOp18
 70
     1
102
RTVSPropertyOp19
 70
     1
102
RTVSPropertyOp20
 70
     1
102
RTVSPropertyOp21
 70
     1
102
RTVSPropertyOp22
 70
     1
102
RTVSPropertyOp23
 70
     1
102
RTVSPropertyOp24
 70
     1
102
RTVSPropertyOp25
 70
     1
102
RTVSPropertyOp26
 70
     1
102
RTVSPropertyOp27
 70
     1
102
RTVSPropertyOp28
 70
     1
102
RTVSPropertyOp29
 70
     1
102
RTVSPropertyOp30
 70
     1
102
RTVSPropertyOp31
 70
     1
102
RTVSPropertyOp32
 70
     1
  0
XRECORD
  5
2F55A8
102
{ACAD_REACTORS
330
2F55A7
102
}
330
2F55A7
100
AcDbXrecord
280
     1
102
RTVSPropertyOp0
 70
     1
102
RTVSPropertyOp1
 70
     1
102
RTVSPropertyOp2
 70
     1
102
RTVSPropertyOp3
 70
     1
102
RTVSPropertyOp4
 70
     1
102
RTVSPropertyOp5
 70
     1
102
RTVSPropertyOp6
 70
     1
102
RTVSPropertyOp7
 70
     1
102
RTVSPropertyOp8
 70
     1
102
RTVSPropertyOp9
 70
     1
102
RTVSPropertyOp10
 70
     1
102
RTVSPropertyOp11
 70
     1
102
RTVSPropertyOp12
 70
     1
102
RTVSPropertyOp13
 70
     1
102
RTVSPropertyOp14
 70
     1
102
RTVSPropertyOp15
 70
     1
102
RTVSPropertyOp16
 70
     1
102
RTVSPropertyOp17
 70
     1
102
RTVSPropertyOp18
 70
     1
102
RTVSPropertyOp19
 70
     1
102
RTVSPropertyOp20
 70
     1
102
RTVSPropertyOp21
 70
     1
102
RTVSPropertyOp22
 70
     1
102
RTVSPropertyOp23
 70
     1
102
RTVSPropertyOp24
 70
     1
102
RTVSPropertyOp25
 70
     1
102
RTVSPropertyOp26
 70
     1
102
RTVSPropertyOp27
 70
     1
102
RTVSPropertyOp28
 70
     1
102
RTVSPropertyOp29
 70
     1
102
RTVSPropertyOp30
 70
     1
102
RTVSPropertyOp31
 70
     1
102
RTVSPropertyOp32
 70
     1
  0
XRECORD
  5
2F55AA
102
{ACAD_REACTORS
330
2F55A9
102
}
330
2F55A9
100
AcDbXrecord
280
     1
102
RTVSPropertyOp0
 70
     1
102
RTVSPropertyOp1
 70
     1
102
RTVSPropertyOp2
 70
     1
102
RTVSPropertyOp3
 70
     1
102
RTVSPropertyOp4
 70
     1
102
RTVSPropertyOp5
 70
     1
102
RTVSPropertyOp6
 70
     1
102
RTVSPropertyOp7
 70
     1
102
RTVSPropertyOp8
 70
     1
102
RTVSPropertyOp9
 70
     1
102
RTVSPropertyOp10
 70
     1
102
RTVSPropertyOp11
 70
     1
102
RTVSPropertyOp12
 70
     1
102
RTVSPropertyOp13
 70
     1
102
RTVSPropertyOp14
 70
     1
102
RTVSPropertyOp15
 70
     1
102
RTVSPropertyOp16
 70
     1
102
RTVSPropertyOp17
 70
     1
102
RTVSPropertyOp18
 70
     1
102
RTVSPropertyOp19
 70
     1
102
RTVSPropertyOp20
 70
     1
102
RTVSPropertyOp21
 70
     1
102
RTVSPropertyOp22
 70
     1
102
RTVSPropertyOp23
 70
     1
102
RTVSPropertyOp24
 70
     1
102
RTVSPropertyOp25
 70
     1
102
RTVSPropertyOp26
 70
     1
102
RTVSPropertyOp27
 70
     1
102
RTVSPropertyOp28
 70
     1
102
RTVSPropertyOp29
 70
     1
102
RTVSPropertyOp30
 70
     1
102
RTVSPropertyOp31
 70
     1
102
RTVSPropertyOp32
 70
     1
  0
XRECORD
  5
2F55B2
102
{ACAD_REACTORS
330
2F55B1
102
}
330
2F55B1
100
AcDbXrecord
280
     1
102
RTVSPropertyOp0
 70
     1
102
RTVSPropertyOp1
 70
     1
102
RTVSPropertyOp2
 70
     1
102
RTVSPropertyOp3
 70
     1
102
RTVSPropertyOp4
 70
     1
102
RTVSPropertyOp5
 70
     1
102
RTVSPropertyOp6
 70
     1
102
RTVSPropertyOp7
 70
     1
102
RTVSPropertyOp8
 70
     1
102
RTVSPropertyOp9
 70
     1
102
RTVSPropertyOp10
 70
     1
102
RTVSPropertyOp11
 70
     1
102
RTVSPropertyOp12
 70
     1
102
RTVSPropertyOp13
 70
     1
102
RTVSPropertyOp14
 70
     1
102
RTVSPropertyOp15
 70
     1
102
RTVSPropertyOp16
 70
     1
102
RTVSPropertyOp17
 70
     1
102
RTVSPropertyOp18
 70
     1
102
RTVSPropertyOp19
 70
     1
102
RTVSPropertyOp20
 70
     1
102
RTVSPropertyOp21
 70
     1
102
RTVSPropertyOp22
 70
     1
102
RTVSPropertyOp23
 70
     1
102
RTVSPropertyOp24
 70
     1
102
RTVSPropertyOp25
 70
     1
102
RTVSPropertyOp26
 70
     1
102
RTVSPropertyOp27
 70
     1
102
RTVSPropertyOp28
 70
     1
102
RTVSPropertyOp29
 70
     1
102
RTVSPropertyOp30
 70
     1
102
RTVSPropertyOp31
 70
     1
102
RTVSPropertyOp32
 70
     1
  0
XRECORD
  5
2F55CE
102
{ACAD_REACTORS
330
2F55CD
102
}
330
2F55CD
100
AcDbXrecord
280
     1
102
RTVSPropertyOp0
 70
     0
102
RTVSPropertyOp1
 70
     0
102
RTVSPropertyOp2
 70
     0
102
RTVSPropertyOp3
 70
     0
102
RTVSPropertyOp4
 70
     0
102
RTVSPropertyOp5
 70
     0
102
RTVSPropertyOp6
 70
     0
102
RTVSPropertyOp7
 70
     0
102
RTVSPropertyOp8
 70
     0
102
RTVSPropertyOp9
 70
     0
102
RTVSPropertyOp10
 70
     0
102
RTVSPropertyOp11
 70
     0
102
RTVSPropertyOp12
 70
     0
102
RTVSPropertyOp13
 70
     0
102
RTVSPropertyOp14
 70
     2
102
RTVSPropertyOp15
 70
     0
102
RTVSPropertyOp16
 70
     0
102
RTVSPropertyOp17
 70
     0
102
RTVSPropertyOp18
 70
     0
102
RTVSPropertyOp19
 70
     0
102
RTVSPropertyOp20
 70
     0
102
RTVSPropertyOp21
 70
     0
102
RTVSPropertyOp22
 70
     0
102
RTVSPropertyOp23
 70
     0
102
RTVSPropertyOp24
 70
     0
102
RTVSPropertyOp25
 70
     0
102
RTVSPropertyOp26
 70
     0
102
RTVSPropertyOp27
 70
     0
102
RTVSPropertyOp28
 70
     1
102
RTVSPropertyOp29
 70
     1
102
RTVSPropertyOp30
 70
     1
102
RTVSPropertyOp31
 70
     1
102
RTVSPropertyOp32
 70
     1
  0
XRECORD
  5
2F55BE
102
{ACAD_REACTORS
330
2F55BD
102
}
330
2F55BD
100
AcDbXrecord
280
     1
102
RTVSPropertyOp0
 70
     1
102
RTVSPropertyOp1
 70
     1
102
RTVSPropertyOp2
 70
     1
102
RTVSPropertyOp3
 70
     1
102
RTVSPropertyOp4
 70
     1
102
RTVSPropertyOp5
 70
     1
102
RTVSPropertyOp6
 70
     1
102
RTVSPropertyOp7
 70
     1
102
RTVSPropertyOp8
 70
     1
102
RTVSPropertyOp9
 70
     1
102
RTVSPropertyOp10
 70
     1
102
RTVSPropertyOp11
 70
     1
102
RTVSPropertyOp12
 70
     1
102
RTVSPropertyOp13
 70
     1
102
RTVSPropertyOp14
 70
     1
102
RTVSPropertyOp15
 70
     1
102
RTVSPropertyOp16
 70
     1
102
RTVSPropertyOp17
 70
     1
102
RTVSPropertyOp18
 70
     1
102
RTVSPropertyOp19
 70
     1
102
RTVSPropertyOp20
 70
     1
102
RTVSPropertyOp21
 70
     1
102
RTVSPropertyOp22
 70
     1
102
RTVSPropertyOp23
 70
     1
102
RTVSPropertyOp24
 70
     1
102
RTVSPropertyOp25
 70
     1
102
RTVSPropertyOp26
 70
     1
102
RTVSPropertyOp27
 70
     1
102
RTVSPropertyOp28
 70
     1
102
RTVSPropertyOp29
 70
     1
102
RTVSPropertyOp30
 70
     1
102
RTVSPropertyOp31
 70
     1
102
RTVSPropertyOp32
 70
     1
  0
XRECORD
  5
2F55D0
102
{ACAD_REACTORS
330
2F55CF
102
}
330
2F55CF
100
AcDbXrecord
280
     1
102
RTVSPropertyOp0
 70
     0
102
RTVSPropertyOp1
 70
     0
102
RTVSPropertyOp2
 70
     0
102
RTVSPropertyOp3
 70
     0
102
RTVSPropertyOp4
 70
     0
102
RTVSPropertyOp5
 70
     0
102
RTVSPropertyOp6
 70
     0
102
RTVSPropertyOp7
 70
     0
102
RTVSPropertyOp8
 70
     0
102
RTVSPropertyOp9
 70
     0
102
RTVSPropertyOp10
 70
     0
102
RTVSPropertyOp11
 70
     0
102
RTVSPropertyOp12
 70
     0
102
RTVSPropertyOp13
 70
     0
102
RTVSPropertyOp14
 70
     2
102
RTVSPropertyOp15
 70
     0
102
RTVSPropertyOp16
 70
     0
102
RTVSPropertyOp17
 70
     0
102
RTVSPropertyOp18
 70
     0
102
RTVSPropertyOp19
 70
     0
102
RTVSPropertyOp20
 70
     0
102
RTVSPropertyOp21
 70
     0
102
RTVSPropertyOp22
 70
     0
102
RTVSPropertyOp23
 70
     0
102
RTVSPropertyOp24
 70
     0
102
RTVSPropertyOp25
 70
     0
102
RTVSPropertyOp26
 70
     0
102
RTVSPropertyOp27
 70
     0
102
RTVSPropertyOp28
 70
     1
102
RTVSPropertyOp29
 70
     1
102
RTVSPropertyOp30
 70
     1
102
RTVSPropertyOp31
 70
     1
102
RTVSPropertyOp32
 70
     1
  0
XRECORD
  5
2F55B6
102
{ACAD_REACTORS
330
2F55B5
102
}
330
2F55B5
100
AcDbXrecord
280
     1
102
RTVSPropertyOp0
 70
     1
102
RTVSPropertyOp1
 70
     1
102
RTVSPropertyOp2
 70
     1
102
RTVSPropertyOp3
 70
     1
102
RTVSPropertyOp4
 70
     1
102
RTVSPropertyOp5
 70
     1
102
RTVSPropertyOp6
 70
     1
102
RTVSPropertyOp7
 70
     1
102
RTVSPropertyOp8
 70
     1
102
RTVSPropertyOp9
 70
     1
102
RTVSPropertyOp10
 70
     1
102
RTVSPropertyOp11
 70
     1
102
RTVSPropertyOp12
 70
     1
102
RTVSPropertyOp13
 70
     1
102
RTVSPropertyOp14
 70
     1
102
RTVSPropertyOp15
 70
     1
102
RTVSPropertyOp16
 70
     1
102
RTVSPropertyOp17
 70
     1
102
RTVSPropertyOp18
 70
     1
102
RTVSPropertyOp19
 70
     1
102
RTVSPropertyOp20
 70
     1
102
RTVSPropertyOp21
 70
     1
102
RTVSPropertyOp22
 70
     1
102
RTVSPropertyOp23
 70
     1
102
RTVSPropertyOp24
 70
     1
102
RTVSPropertyOp25
 70
     1
102
RTVSPropertyOp26
 70
     1
102
RTVSPropertyOp27
 70
     1
102
RTVSPropertyOp28
 70
     1
102
RTVSPropertyOp29
 70
     1
102
RTVSPropertyOp30
 70
     1
102
RTVSPropertyOp31
 70
     1
102
RTVSPropertyOp32
 70
     1
  0
XRECORD
  5
2F55CC
102
{ACAD_REACTORS
330
2F55CB
102
}
330
2F55CB
100
AcDbXrecord
280
     1
102
RTVSPropertyOp0
 70
     1
102
RTVSPropertyOp1
 70
     1
102
RTVSPropertyOp2
 70
     1
102
RTVSPropertyOp3
 70
     1
102
RTVSPropertyOp4
 70
     1
102
RTVSPropertyOp5
 70
     1
102
RTVSPropertyOp6
 70
     1
102
RTVSPropertyOp7
 70
     1
102
RTVSPropertyOp8
 70
     1
102
RTVSPropertyOp9
 70
     1
102
RTVSPropertyOp10
 70
     1
102
RTVSPropertyOp11
 70
     1
102
RTVSPropertyOp12
 70
     1
102
RTVSPropertyOp13
 70
     1
102
RTVSPropertyOp14
 70
     1
102
RTVSPropertyOp15
 70
     1
102
RTVSPropertyOp16
 70
     1
102
RTVSPropertyOp17
 70
     1
102
RTVSPropertyOp18
 70
     1
102
RTVSPropertyOp19
 70
     1
102
RTVSPropertyOp20
 70
     1
102
RTVSPropertyOp21
 70
     1
102
RTVSPropertyOp22
 70
     1
102
RTVSPropertyOp23
 70
     1
102
RTVSPropertyOp24
 70
     1
102
RTVSPropertyOp25
 70
     1
102
RTVSPropertyOp26
 70
     1
102
RTVSPropertyOp27
 70
     1
102
RTVSPropertyOp28
 70
     1
102
RTVSPropertyOp29
 70
     1
102
RTVSPropertyOp30
 70
     1
102
RTVSPropertyOp31
 70
     1
102
RTVSPropertyOp32
 70
     1
  0
XRECORD
  5
2F55CA
102
{ACAD_REACTORS
330
2F55C9
102
}
330
2F55C9
100
AcDbXrecord
280
     1
102
RTVSPropertyOp0
 70
     1
102
RTVSPropertyOp1
 70
     1
102
RTVSPropertyOp2
 70
     1
102
RTVSPropertyOp3
 70
     1
102
RTVSPropertyOp4
 70
     1
102
RTVSPropertyOp5
 70
     1
102
RTVSPropertyOp6
 70
     1
102
RTVSPropertyOp7
 70
     1
102
RTVSPropertyOp8
 70
     1
102
RTVSPropertyOp9
 70
     1
102
RTVSPropertyOp10
 70
     1
102
RTVSPropertyOp11
 70
     1
102
RTVSPropertyOp12
 70
     1
102
RTVSPropertyOp13
 70
     1
102
RTVSPropertyOp14
 70
     1
102
RTVSPropertyOp15
 70
     1
102
RTVSPropertyOp16
 70
     1
102
RTVSPropertyOp17
 70
     1
102
RTVSPropertyOp18
 70
     1
102
RTVSPropertyOp19
 70
     1
102
RTVSPropertyOp20
 70
     1
102
RTVSPropertyOp21
 70
     1
102
RTVSPropertyOp22
 70
     1
102
RTVSPropertyOp23
 70
     1
102
RTVSPropertyOp24
 70
     1
102
RTVSPropertyOp25
 70
     1
102
RTVSPropertyOp26
 70
     1
102
RTVSPropertyOp27
 70
     1
102
RTVSPropertyOp28
 70
     1
102
RTVSPropertyOp29
 70
     1
102
RTVSPropertyOp30
 70
     1
102
RTVSPropertyOp31
 70
     1
102
RTVSPropertyOp32
 70
     1
  0
XRECORD
  5
2F55C4
102
{ACAD_REACTORS
330
2F55C3
102
}
330
2F55C3
100
AcDbXrecord
280
     1
102
RTVSPropertyOp0
 70
     1
102
RTVSPropertyOp1
 70
     1
102
RTVSPropertyOp2
 70
     1
102
RTVSPropertyOp3
 70
     1
102
RTVSPropertyOp4
 70
     1
102
RTVSPropertyOp5
 70
     1
102
RTVSPropertyOp6
 70
     1
102
RTVSPropertyOp7
 70
     1
102
RTVSPropertyOp8
 70
     1
102
RTVSPropertyOp9
 70
     1
102
RTVSPropertyOp10
 70
     1
102
RTVSPropertyOp11
 70
     1
102
RTVSPropertyOp12
 70
     1
102
RTVSPropertyOp13
 70
     1
102
RTVSPropertyOp14
 70
     1
102
RTVSPropertyOp15
 70
     1
102
RTVSPropertyOp16
 70
     1
102
RTVSPropertyOp17
 70
     1
102
RTVSPropertyOp18
 70
     1
102
RTVSPropertyOp19
 70
     1
102
RTVSPropertyOp20
 70
     1
102
RTVSPropertyOp21
 70
     1
102
RTVSPropertyOp22
 70
     1
102
RTVSPropertyOp23
 70
     1
102
RTVSPropertyOp24
 70
     1
102
RTVSPropertyOp25
 70
     1
102
RTVSPropertyOp26
 70
     1
102
RTVSPropertyOp27
 70
     1
102
RTVSPropertyOp28
 70
     1
102
RTVSPropertyOp29
 70
     1
102
RTVSPropertyOp30
 70
     1
102
RTVSPropertyOp31
 70
     1
102
RTVSPropertyOp32
 70
     1
  0
XRECORD
  5
2F55C6
102
{ACAD_REACTORS
330
2F55C5
102
}
330
2F55C5
100
AcDbXrecord
280
     1
102
RTVSPropertyOp0
 70
     1
102
RTVSPropertyOp1
 70
     1
102
RTVSPropertyOp2
 70
     1
102
RTVSPropertyOp3
 70
     1
102
RTVSPropertyOp4
 70
     1
102
RTVSPropertyOp5
 70
     1
102
RTVSPropertyOp6
 70
     1
102
RTVSPropertyOp7
 70
     1
102
RTVSPropertyOp8
 70
     1
102
RTVSPropertyOp9
 70
     1
102
RTVSPropertyOp10
 70
     1
102
RTVSPropertyOp11
 70
     1
102
RTVSPropertyOp12
 70
     1
102
RTVSPropertyOp13
 70
     1
102
RTVSPropertyOp14
 70
     1
102
RTVSPropertyOp15
 70
     1
102
RTVSPropertyOp16
 70
     1
102
RTVSPropertyOp17
 70
     1
102
RTVSPropertyOp18
 70
     1
102
RTVSPropertyOp19
 70
     1
102
RTVSPropertyOp20
 70
     1
102
RTVSPropertyOp21
 70
     1
102
RTVSPropertyOp22
 70
     1
102
RTVSPropertyOp23
 70
     1
102
RTVSPropertyOp24
 70
     1
102
RTVSPropertyOp25
 70
     1
102
RTVSPropertyOp26
 70
     1
102
RTVSPropertyOp27
 70
     1
102
RTVSPropertyOp28
 70
     1
102
RTVSPropertyOp29
 70
     1
102
RTVSPropertyOp30
 70
     1
102
RTVSPropertyOp31
 70
     1
102
RTVSPropertyOp32
 70
     1
  0
XRECORD
  5
2F55BC
102
{ACAD_REACTORS
330
2F55BB
102
}
330
2F55BB
100
AcDbXrecord
280
     1
102
RTVSPropertyOp0
 70
     1
102
RTVSPropertyOp1
 70
     1
102
RTVSPropertyOp2
 70
     1
102
RTVSPropertyOp3
 70
     1
102
RTVSPropertyOp4
 70
     1
102
RTVSPropertyOp5
 70
     1
102
RTVSPropertyOp6
 70
     1
102
RTVSPropertyOp7
 70
     1
102
RTVSPropertyOp8
 70
     1
102
RTVSPropertyOp9
 70
     1
102
RTVSPropertyOp10
 70
     1
102
RTVSPropertyOp11
 70
     1
102
RTVSPropertyOp12
 70
     1
102
RTVSPropertyOp13
 70
     1
102
RTVSPropertyOp14
 70
     1
102
RTVSPropertyOp15
 70
     1
102
RTVSPropertyOp16
 70
     1
102
RTVSPropertyOp17
 70
     1
102
RTVSPropertyOp18
 70
     1
102
RTVSPropertyOp19
 70
     1
102
RTVSPropertyOp20
 70
     1
102
RTVSPropertyOp21
 70
     1
102
RTVSPropertyOp22
 70
     1
102
RTVSPropertyOp23
 70
     1
102
RTVSPropertyOp24
 70
     1
102
RTVSPropertyOp25
 70
     1
102
RTVSPropertyOp26
 70
     1
102
RTVSPropertyOp27
 70
     1
102
RTVSPropertyOp28
 70
     1
102
RTVSPropertyOp29
 70
     1
102
RTVSPropertyOp30
 70
     1
102
RTVSPropertyOp31
 70
     1
102
RTVSPropertyOp32
 70
     1
  0
XRECORD
  5
2F55B0
102
{ACAD_REACTORS
330
2F55AF
102
}
330
2F55AF
100
AcDbXrecord
280
     1
102
RTVSPropertyOp0
 70
     1
102
RTVSPropertyOp1
 70
     1
102
RTVSPropertyOp2
 70
     1
102
RTVSPropertyOp3
 70
     1
102
RTVSPropertyOp4
 70
     1
102
RTVSPropertyOp5
 70
     1
102
RTVSPropertyOp6
 70
     1
102
RTVSPropertyOp7
 70
     1
102
RTVSPropertyOp8
 70
     1
102
RTVSPropertyOp9
 70
     1
102
RTVSPropertyOp10
 70
     1
102
RTVSPropertyOp11
 70
     1
102
RTVSPropertyOp12
 70
     1
102
RTVSPropertyOp13
 70
     1
102
RTVSPropertyOp14
 70
     1
102
RTVSPropertyOp15
 70
     1
102
RTVSPropertyOp16
 70
     1
102
RTVSPropertyOp17
 70
     1
102
RTVSPropertyOp18
 70
     1
102
RTVSPropertyOp19
 70
     1
102
RTVSPropertyOp20
 70
     1
102
RTVSPropertyOp21
 70
     1
102
RTVSPropertyOp22
 70
     1
102
RTVSPropertyOp23
 70
     1
102
RTVSPropertyOp24
 70
     1
102
RTVSPropertyOp25
 70
     1
102
RTVSPropertyOp26
 70
     1
102
RTVSPropertyOp27
 70
     1
102
RTVSPropertyOp28
 70
     1
102
RTVSPropertyOp29
 70
     1
102
RTVSPropertyOp30
 70
     1
102
RTVSPropertyOp31
 70
     1
102
RTVSPropertyOp32
 70
     1
  0
XRECORD
  5
2F55C8
102
{ACAD_REACTORS
330
2F55C7
102
}
330
2F55C7
100
AcDbXrecord
280
     1
102
RTVSPropertyOp0
 70
     1
102
RTVSPropertyOp1
 70
     1
102
RTVSPropertyOp2
 70
     1
102
RTVSPropertyOp3
 70
     1
102
RTVSPropertyOp4
 70
     1
102
RTVSPropertyOp5
 70
     1
102
RTVSPropertyOp6
 70
     1
102
RTVSPropertyOp7
 70
     1
102
RTVSPropertyOp8
 70
     1
102
RTVSPropertyOp9
 70
     1
102
RTVSPropertyOp10
 70
     1
102
RTVSPropertyOp11
 70
     1
102
RTVSPropertyOp12
 70
     1
102
RTVSPropertyOp13
 70
     1
102
RTVSPropertyOp14
 70
     1
102
RTVSPropertyOp15
 70
     1
102
RTVSPropertyOp16
 70
     1
102
RTVSPropertyOp17
 70
     1
102
RTVSPropertyOp18
 70
     1
102
RTVSPropertyOp19
 70
     1
102
RTVSPropertyOp20
 70
     1
102
RTVSPropertyOp21
 70
     1
102
RTVSPropertyOp22
 70
     1
102
RTVSPropertyOp23
 70
     1
102
RTVSPropertyOp24
 70
     1
102
RTVSPropertyOp25
 70
     1
102
RTVSPropertyOp26
 70
     1
102
RTVSPropertyOp27
 70
     1
102
RTVSPropertyOp28
 70
     1
102
RTVSPropertyOp29
 70
     1
102
RTVSPropertyOp30
 70
     1
102
RTVSPropertyOp31
 70
     1
102
RTVSPropertyOp32
 70
     1
  0
ENDSEC
  0
EOF
