  0
SECTION
  2
HEADER
  9
$ACADVER
  1
AC1015
  9
$ACADMAINTVER
 70
    20
  9
$DWGCODEPAGE
  3
ANSI_1250
  9
$INSBASE
 10
0.0
 20
0.0
 30
0.0
  9
$EXTMIN
 10
5533.130031983747
 20
-2897.277446494445
 30
0.0
  9
$EXTMAX
 10
11058.13003198364
 20
2627.722553505533
 30
0.0
  9
$LIMMIN
 10
0.0
 20
0.0
  9
$LIMMAX
 10
420.0
 20
297.0
  9
$ORTHOMODE
 70
     1
  9
$REGENMODE
 70
     1
  9
$FILLMODE
 70
     1
  9
$QTEXTMODE
 70
     0
  9
$MIRRTEXT
 70
     0
  9
$LTSCALE
 40
1.0
  9
$ATTMODE
 70
     1
  9
$TEXTSIZE
 40
0.2
  9
$TRACEWID
 40
0.05
  9
$TEXTSTYLE
  7
Standard
  9
$CLAYER
  8
AM_0
  9
$CELTYPE
  6
ByLayer
  9
$CECOLOR
 62
   256
  9
$CELTSCALE
 40
1.0
  9
$DISPSILH
 70
     0
  9
$DIMSCALE
 40
1.0
  9
$DIMASZ
 40
1.799999999999999
  9
$DIMEXO
 40
0.0625
  9
$DIMDLI
 40
0.38
  9
$DIMRND
 40
0.0
  9
$DIMDLE
 40
0.0
  9
$DIMEXE
 40
0.18
  9
$DIMTP
 40
0.0
  9
$DIMTM
 40
0.0
  9
$DIMTXT
 40
0.3499999940395355
  9
$DIMCEN
 40
0.09
  9
$DIMTSZ
 40
0.0
  9
$DIMTOL
 70
     0
  9
$DIMLIM
 70
     0
  9
$DIMTIH
 70
     1
  9
$DIMTOH
 70
     1
  9
$DIMSE1
 70
     0
  9
$DIMSE2
 70
     0
  9
$DIMTAD
 70
     0
  9
$DIMZIN
 70
     0
  9
$DIMBLK
  1

  9
$DIMASO
 70
     1
  9
$DIMSHO
 70
     1
  9
$DIMPOST
  1

  9
$DIMAPOST
  1

  9
$DIMALT
 70
     0
  9
$DIMALTD
 70
     2
  9
$DIMALTF
 40
25.4
  9
$DIMLFAC
 40
1.0
  9
$DIMTOFL
 70
     0
  9
$DIMTVP
 40
0.0
  9
$DIMTIX
 70
     0
  9
$DIMSOXD
 70
     0
  9
$DIMSAH
 70
     0
  9
$DIMBLK1
  1

  9
$DIMBLK2
  1

  9
$DIMSTYLE
  2
Standard
  9
$DIMCLRD
 70
     0
  9
$DIMCLRE
 70
     0
  9
$DIMCLRT
 70
     0
  9
$DIMTFAC
 40
1.0
  9
$DIMGAP
 40
0.09
  9
$DIMJUST
 70
     0
  9
$DIMSD1
 70
     0
  9
$DIMSD2
 70
     0
  9
$DIMTOLJ
 70
     1
  9
$DIMTZIN
 70
     0
  9
$DIMALTZ
 70
     0
  9
$DIMALTTZ
 70
     0
  9
$DIMUPT
 70
     0
  9
$DIMDEC
 70
     4
  9
$DIMTDEC
 70
     4
  9
$DIMALTU
 70
     2
  9
$DIMALTTD
 70
     2
  9
$DIMTXSTY
  7
Standard
  9
$DIMAUNIT
 70
     0
  9
$DIMADEC
 70
     0
  9
$DIMALTRND
 40
0.0
  9
$DIMAZIN
 70
     0
  9
$DIMDSEP
 70
    46
  9
$DIMATFIT
 70
     3
  9
$DIMFRAC
 70
     0
  9
$DIMLDRBLK
  1

  9
$DIMLUNIT
 70
     2
  9
$DIMLWD
 70
    -2
  9
$DIMLWE
 70
    -2
  9
$DIMTMOVE
 70
     0
  9
$LUNITS
 70
     2
  9
$LUPREC
 70
     2
  9
$SKETCHINC
 40
0.1
  9
$FILLETRAD
 40
2000.0
  9
$AUNITS
 70
     0
  9
$AUPREC
 70
     0
  9
$MENU
  1
.
  9
$ELEVATION
 40
0.0
  9
$PELEVATION
 40
0.0
  9
$THICKNESS
 40
0.0
  9
$LIMCHECK
 70
     0
  9
$CHAMFERA
 40
0.0
  9
$CHAMFERB
 40
0.0
  9
$CHAMFERC
 40
0.0
  9
$CHAMFERD
 40
0.0
  9
$SKPOLY
 70
     0
  9
$TDCREATE
 40
2458022.872485197
  9
$TDUCREATE
 40
2458022.789151863
  9
$TDUPDATE
 40
2458667.565857465
  9
$TDUUPDATE
 40
2458667.482524132
  9
$TDINDWG
 40
0.0630306250
  9
$TDUSRTIMER
 40
0.0630302894
  9
$USRTIMER
 70
     1
  9
$ANGBASE
 50
0.0
  9
$ANGDIR
 70
     0
  9
$PDMODE
 70
     0
  9
$PDSIZE
 40
0.0
  9
$PLINEWID
 40
0.0
  9
$SPLFRAME
 70
     0
  9
$SPLINETYPE
 70
     6
  9
$SPLINESEGS
 70
     8
  9
$HANDSEED
  5
A019C
  9
$SURFTAB1
 70
     6
  9
$SURFTAB2
 70
     6
  9
$SURFTYPE
 70
     6
  9
$SURFU
 70
     6
  9
$SURFV
 70
     6
  9
$UCSBASE
  2

  9
$UCSNAME
  2

  9
$UCSORG
 10
0.0
 20
0.0
 30
0.0
  9
$UCSXDIR
 10
1.0
 20
0.0
 30
0.0
  9
$UCSYDIR
 10
0.0
 20
1.0
 30
0.0
  9
$UCSORTHOREF
  2

  9
$UCSORTHOVIEW
 70
     0
  9
$UCSORGTOP
 10
0.0
 20
0.0
 30
0.0
  9
$UCSORGBOTTOM
 10
0.0
 20
0.0
 30
0.0
  9
$UCSORGLEFT
 10
0.0
 20
0.0
 30
0.0
  9
$UCSORGRIGHT
 10
0.0
 20
0.0
 30
0.0
  9
$UCSORGFRONT
 10
0.0
 20
0.0
 30
0.0
  9
$UCSORGBACK
 10
0.0
 20
0.0
 30
0.0
  9
$PUCSBASE
  2

  9
$PUCSNAME
  2

  9
$PUCSORG
 10
0.0
 20
0.0
 30
0.0
  9
$PUCSXDIR
 10
1.0
 20
0.0
 30
0.0
  9
$PUCSYDIR
 10
0.0
 20
1.0
 30
0.0
  9
$PUCSORTHOREF
  2

  9
$PUCSORTHOVIEW
 70
     0
  9
$PUCSORGTOP
 10
0.0
 20
0.0
 30
0.0
  9
$PUCSORGBOTTOM
 10
0.0
 20
0.0
 30
0.0
  9
$PUCSORGLEFT
 10
0.0
 20
0.0
 30
0.0
  9
$PUCSORGRIGHT
 10
0.0
 20
0.0
 30
0.0
  9
$PUCSORGFRONT
 10
0.0
 20
0.0
 30
0.0
  9
$PUCSORGBACK
 10
0.0
 20
0.0
 30
0.0
  9
$USERI1
 70
     0
  9
$USERI2
 70
     0
  9
$USERI3
 70
     0
  9
$USERI4
 70
     0
  9
$USERI5
 70
     0
  9
$USERR1
 40
0.0
  9
$USERR2
 40
0.0
  9
$USERR3
 40
0.0
  9
$USERR4
 40
0.0
  9
$USERR5
 40
0.0
  9
$WORLDVIEW
 70
     1
  9
$SHADEDGE
 70
     3
  9
$SHADEDIF
 70
    70
  9
$TILEMODE
 70
     1
  9
$MAXACTVP
 70
    64
  9
$PINSBASE
 10
0.0
 20
0.0
 30
0.0
  9
$PLIMCHECK
 70
     0
  9
$PEXTMIN
 10
0.0
 20
0.0
 30
0.0
  9
$PEXTMAX
 10
420.0
 20
297.0
 30
0.0
  9
$PLIMMIN
 10
0.0
 20
0.0
  9
$PLIMMAX
 10
420.0
 20
297.0
  9
$UNITMODE
 70
     0
  9
$VISRETAIN
 70
     1
  9
$PLINEGEN
 70
     0
  9
$PSLTSCALE
 70
     1
  9
$TREEDEPTH
 70
  3020
  9
$CMLSTYLE
  2
Standard
  9
$CMLJUST
 70
     0
  9
$CMLSCALE
 40
1.0
  9
$PROXYGRAPHICS
 70
     1
  9
$MEASUREMENT
 70
     1
  9
$CELWEIGHT
370
    -1
  9
$ENDCAPS
280
     0
  9
$JOINSTYLE
280
     0
  9
$LWDISPLAY
290
     0
  9
$INSUNITS
 70
     4
  9
$HYPERLINKBASE
  1

  9
$STYLESHEET
  1

  9
$XEDIT
290
     1
  9
$CEPSNTYPE
380
     0
  9
$PSTYLEMODE
290
     1
  9
$FINGERPRINTGUID
  2
{CD7F6C12-59F6-40AB-AF68-AE0AB5D8531B}
  9
$VERSIONGUID
  2
{11C6DE67-EE61-4892-B5BE-0BFFA6FF3F79}
  9
$EXTNAMES
290
     1
  9
$PSVPSCALE
 40
0.0
  9
$OLESTARTUP
290
     0
  0
ENDSEC
  0
SECTION
  2
CLASSES
  0
CLASS
  1
ACDBDICTIONARYWDFLT
  2
AcDbDictionaryWithDefault
  3
ObjectDBX Classes
 90
        0
280
     0
281
     0
  0
CLASS
  1
MATERIAL
  2
AcDbMaterial
  3
ObjectDBX Classes
 90
     1153
280
     0
281
     0
  0
CLASS
  1
VISUALSTYLE
  2
AcDbVisualStyle
  3
ObjectDBX Classes
 90
     4095
280
     0
281
     0
  0
CLASS
  1
SCALE
  2
AcDbScale
  3
ObjectDBX Classes
 90
     1153
280
     0
281
     0
  0
CLASS
  1
TABLESTYLE
  2
AcDbTableStyle
  3
ObjectDBX Classes
 90
     4095
280
     0
281
     0
  0
CLASS
  1
MLEADERSTYLE
  2
AcDbMLeaderStyle
  3
ACDB_MLEADERSTYLE_CLASS
 90
     4095
280
     0
281
     0
  0
CLASS
  1
DICTIONARYVAR
  2
AcDbDictionaryVar
  3
ObjectDBX Classes
 90
        0
280
     0
281
     0
  0
CLASS
  1
ACME_DOCUMENT
  2
AcMeDbDoc
  3
AcMeServices
 90
     1024
280
     0
281
     0
  0
CLASS
  1
AMGSETTINGSOBJ
  2
AmgSettingsObj
  3
"AcadM|Product Description: AutoCAD Mechanical|Company: Autodesk, Inc."
 90
     1024
280
     0
281
     0
  0
CLASS
  1
ACMESCOPE
  2
AcMeScope
  3
AcMeServices
 90
     1024
280
     0
281
     0
  0
CLASS
  1
ACMECOMMANDHISTORY
  2
AcMeCommandHistory
  3
AcMeServices
 90
     1024
280
     0
281
     0
  0
CLASS
  1
ACIMSYSVARMAN
  2
AcImSysVarManager
  3
AcMeServices
 90
     1024
280
     0
281
     0
  0
CLASS
  1
ACIMINTSYSVAR
  2
AcImIntSysVar
  3
AcMeServices
 90
     1024
280
     0
281
     0
  0
CLASS
  1
ACMESTATEMGR
  2
AcMeStateMgr
  3
AcMeServices
 90
     1024
280
     0
281
     0
  0
CLASS
  1
ACDBENTITYCACHE
  2
AcMeEntityCache
  3
AcMeServices
 90
     1024
280
     0
281
     0
  0
CLASS
  1
ACGREFMASTER
  2
AcGrefMaster
  3
AcAttribServices
 90
     1024
280
     0
281
     0
  0
CLASS
  1
AM_DRAWING_MGR
  2
AcDmDwgMgr
  3
AcMechDwgViewMgmt
 90
     1024
280
     0
281
     0
  0
CLASS
  1
AM_DWG_DOCUMENT
  2
AcDmDwgDocument
  3
AcMechDwgViewMgmt
 90
     1024
280
     0
281
     0
  0
CLASS
  1
AM_DWG_SHEET
  2
AcDmSheet
  3
AcMechDwgViewMgmt
 90
     1024
280
     0
281
     0
  0
CLASS
  1
AM_VIEWDIMPARMAP
  2
AcDmViewDimParMap
  3
AcMechDwgViewMgmt
 90
     1024
280
     0
281
     0
  0
CLASS
  1
AMDTINTERNALREACTOR
  2
AmdtInternalReactor
  3
AcMeServices
 90
     1024
280
     0
281
     0
  0
CLASS
  1
ACIMREALSYSVAR
  2
AcImRealSysVar
  3
AcMeServices
 90
     1024
280
     0
281
     0
  0
CLASS
  1
AM_DWGMGR_NAME
  2
AcDmDwgMgrName
  3
AcMechDwgViewMgmt
 90
     1024
280
     0
281
     0
  0
CLASS
  1
ACME_DATABASE
  2
AcMeDbDatabase
  3
AcMeServices
 90
     1024
280
     0
281
     0
  0
CLASS
  1
ACRFINSADJUSTERMGR
  2
AcRfInsAdjusterMgr
  3
AcMeServices
 90
     1024
280
     0
281
     0
  0
CLASS
  1
ACGREFACADMASTER
  2
AcGrefacadMaster
  3
AcGrefServices
 90
     1024
280
     0
281
     0
  0
CLASS
  1
AMDTMENUSTATEMGR
  2
AmdtMenuStateMgr
  3
McadcomServices
 90
     1024
280
     0
281
     0
  0
CLASS
  1
AMDTMCOMMENUSTATE
  2
AmdtMcomMenuState
  3
McadcomServices
 90
     1024
280
     0
281
     0
  0
CLASS
  1
AMIMASTER
  2
AmiMaster
  3
AmiServices
 90
     1024
280
     0
281
     0
  0
CLASS
  1
MAPIAMMOUDLE
  2
MApiAmModule
  3
MApiAmServices
 90
     1024
280
     0
281
     0
  0
CLASS
  1
ACIMSTRSYSVAR
  2
AcImStrSysVar
  3
AcMeServices
 90
     1024
280
     0
281
     0
  0
CLASS
  1
AMDTDMMENUSTATE
  2
AmdtDmMenuState
  3
AcMechDwgViewMgmt
 90
     1024
280
     0
281
     0
  0
CLASS
  1
AMDTAMMENUSTATE
  2
AmdtAmMenuState
  3
DesignerAssemblies
 90
     1024
280
     0
281
     0
  0
CLASS
  1
ACAMPROJECT
  2
AcAmProject
  3
DesignerAssemblies
 90
     1024
280
     0
281
     0
  0
CLASS
  1
ACAMGRCOMPDEF
  2
AcAmGrCompDef
  3
DesignerAssemblies
 90
     1024
280
     0
281
     0
  0
CLASS
  1
ACAMCOMPDEF
  2
AcAmCompDef
  3
DesignerAssemblies
 90
     1024
280
     0
281
     0
  0
CLASS
  1
ACAMCOMPDEFMGR
  2
AcAmCompDefMgr
  3
DesignerAssemblies
 90
     1024
280
     0
281
     0
  0
CLASS
  1
AMCONTEXTMGR
  2
AcAmContextMgr
  3
DesignerAssemblies
 90
     1024
280
     0
281
     0
  0
CLASS
  1
ACAMCONTEXTMODELER
  2
AcAmContextModeler
  3
DesignerAssemblies
 90
     1024
280
     0
281
     0
  0
CLASS
  1
ACMDATADICTIONARY
  2
AcmDataDictionary
  3
"AcmSymBB|Product Description: AutoCAD Mechanical|Company: Autodesk, Inc."
 90
     1024
280
     0
281
     0
  0
CLASS
  1
ACAMGRCOMPDEFSET
  2
AcAmGrCompDefSet
  3
DesignerAssemblies
 90
     1024
280
     0
281
     0
  0
CLASS
  1
AMDTBROWSERDBTAB
  2
AmdtBrowserDbTab
  3
McadcomServices
 90
     1024
280
     0
281
     0
  0
CLASS
  1
CBROWSERAPPOBJECT
  2
CBrowserAppObject
  3
McadcomServices
 90
     1024
280
     0
281
     0
  0
CLASS
  1
DM_PLACEHOLDER
  2
AcDmSelsetPlaceholder
  3
AcMechDwgViewMgmt
 90
     1024
280
     0
281
     0
  0
CLASS
  1
EXACXREFPANELOBJECT
  2
ExAcXREFPanelObject
  3
EXAC_ESW
 90
     1025
280
     0
281
     0
  0
CLASS
  1
NPOCOLLECTION
  2
AcDbImpNonPersistentObjectsCollection
  3
ObjectDBX Classes
 90
     1153
280
     0
281
     0
  0
CLASS
  1
ACMSTANDARDISO
  2
AcmStandardISO
  3
"Amdt_StdImp|Product Description: AutoCAD Mechanical|Company: Autodesk, Inc."
 90
     1024
280
     0
281
     0
  0
CLASS
  1
AMDTEDGESTANDARDISO13715
  2
AmdtEdgeStdISO13715
  3
"Amdt_StdImp|Product Description: AutoCAD Mechanical|Company: Autodesk, Inc."
 90
     1024
280
     0
281
     0
  0
CLASS
  1
ACMSURFSTANDARDISO2002
  2
AcmSurfTextStdISO2002
  3
"Amdt_StdImp|Product Description: AutoCAD Mechanical|Company: Autodesk, Inc."
 90
     1024
280
     0
281
     0
  0
CLASS
  1
ACMFCFSTANDARDISO
  2
AcmFCFStdISO
  3
"Amdt_StdImp|Product Description: AutoCAD Mechanical|Company: Autodesk, Inc."
 90
     1024
280
     0
281
     0
  0
CLASS
  1
ACMWELDSTANDARDISO
  2
AcmWeldingStdISO
  3
"Amdt_StdImp|Product Description: AutoCAD Mechanical|Company: Autodesk, Inc."
 90
     1024
280
     0
281
     0
  0
CLASS
  1
ACMIDSTANDARDISO
  2
AcmIdStdISO
  3
"Amdt_StdImp|Product Description: AutoCAD Mechanical|Company: Autodesk, Inc."
 90
     1024
280
     0
281
     0
  0
CLASS
  1
ACMDATUMSTANDARDISO
  2
AcmDatumStdISO
  3
"Amdt_StdImp|Product Description: AutoCAD Mechanical|Company: Autodesk, Inc."
 90
     1024
280
     0
281
     0
  0
CLASS
  1
ACMBOMSTANDARDISO
  2
AcmBOMStdISO
  3
"Amdt_StdImp|Product Description: AutoCAD Mechanical|Company: Autodesk, Inc."
 90
     1024
280
     0
281
     0
  0
CLASS
  1
ACMDETAILSTANDARDISO
  2
AmdtDetailSymStdISO
  3
"Amdt_StdImp|Product Description: AutoCAD Mechanical|Company: Autodesk, Inc."
 90
     1024
280
     0
281
     0
  0
CLASS
  1
ACMSECTIONSTANDARDISO2001
  2
AmdtSectionSymStdISO2001
  3
"Amdt_StdImp|Product Description: AutoCAD Mechanical|Company: Autodesk, Inc."
 90
     1024
280
     0
281
     0
  0
CLASS
  1
ACMCENTERLINESTANDARDISO
  2
AmdtCenterLineStdISO
  3
"Amdt_StdImp|Product Description: AutoCAD Mechanical|Company: Autodesk, Inc."
 90
     1024
280
     0
281
     0
  0
CLASS
  1
ACMTHREADLINESTANDARDISO
  2
AmdtThreadLineStdISO
  3
"Amdt_StdImp|Product Description: AutoCAD Mechanical|Company: Autodesk, Inc."
 90
     1024
280
     0
281
     0
  0
CLASS
  1
ACMNOTESTANDARDISO
  2
AmdtNoteStdISO
  3
"Amdt_StdImp|Product Description: AutoCAD Mechanical|Company: Autodesk, Inc."
 90
     1024
280
     0
281
     0
  0
CLASS
  1
ACMTAPERSTANDARDISO
  2
AcmTaperStdISO
  3
"Amdt_StdImp|Product Description: AutoCAD Mechanical|Company: Autodesk, Inc."
 90
     1024
280
     0
281
     0
  0
CLASS
  1
ACMANOOTATIONVIEWSTANDARDISO
  2
AmdtAnViewStdISO
  3
"Amdt_StdImp|Product Description: AutoCAD Mechanical|Company: Autodesk, Inc."
 90
     1024
280
     0
281
     0
  0
CLASS
  1
ACAMGLAYSTD
  2
AcAmgLayStd
  3
"AmgLay|Product Description: AutoCAD Mechanical|Company: Autodesk, Inc."
 90
     1024
280
     0
281
     0
  0
CLASS
  1
ACAMGDIMSTD
  2
AcAmgDimStd
  3
"AmgDim|Product Description: AutoCAD Mechanical|Company: Autodesk, Inc."
 90
     1024
280
     0
281
     0
  0
CLASS
  1
AMGOBJPROPCFG
  2
AmgObjPropCfg
  3
"AmgLay|Product Description: AutoCAD Mechanical|Company: Autodesk, Inc."
 90
     1025
280
     0
281
     0
  0
CLASS
  1
ACAMGHOLECHARTSTDISO
  2
AcAmgHoleChartStdISO
  3
AmgDim|Product Description: AutoCAD Mechanical|Company: Autodesk, Inc.
 90
     1024
280
     0
281
     0
  0
CLASS
  1
ACAMGTITLESTD
  2
AcAmgTitleStd
  3
"AmgTitle|Product Description: AutoCAD Mechanical|Company: Autodesk, Inc."
 90
     4095
280
     0
281
     0
  0
CLASS
  1
AMDTNOTETEMPLATEDB
  2
AmdtNoteTemplateDB
  3
AcmSymBB|Product Description: AutoCAD Mechanical|Company: Autodesk, Inc.
 90
     1024
280
     0
281
     0
  0
CLASS
  1
ACAMGFILTERDAT
  2
AcAmgFilterDat
  3
"AcadM|Product Description: AutoCAD Mechanical|Company: Autodesk, Inc."
 90
    33792
280
     0
281
     0
  0
CLASS
  1
CAMSSTRUCTBTNSTATE
  2
StructBtnState
  3
DesignerAssemblies
 90
     1024
280
     0
281
     0
  0
CLASS
  1
SORTENTSTABLE
  2
AcDbSortentsTable
  3
ObjectDBX Classes
 90
        0
280
     0
281
     0
  0
CLASS
  1
CELLSTYLEMAP
  2
AcDbCellStyleMap
  3
ObjectDBX Classes
 90
     1152
280
     0
281
     0
  0
CLASS
  1
ACDBPLACEHOLDER
  2
AcDbPlaceHolder
  3
ObjectDBX Classes
 90
        0
280
     0
281
     0
  0
CLASS
  1
LAYOUT
  2
AcDbLayout
  3
ObjectDBX Classes
 90
        0
280
     0
281
     0
  0
ENDSEC
  0
SECTION
  2
TABLES
  0
TABLE
  2
VPORT
  5
8
330
0
100
AcDbSymbolTable
 70
     1
  0
VPORT
  5
57
330
8
100
AcDbSymbolTableRecord
100
AcDbViewportTableRecord
  2
*Active
 70
     0
 10
0.0
 20
0.0
 11
1.0
 21
1.0
 12
8295.451556394437
 22
-134.7774240711051
 13
0.0
 23
0.0
 14
1.0
 24
1.0
 15
0.0
 25
0.0
 16
0.0
 26
0.0
 36
1.0
 17
0.0
 27
0.0
 37
0.0
 40
5566.487803557962
 41
2.837064676616915
 42
50.0
 43
0.0
 44
0.0
 50
0.0
 51
0.0
 71
     0
 72
   100
 73
     1
 74
     1
 75
     0
 76
     0
 77
     0
 78
     0
281
     0
 65
     0
110
0.0
120
0.0
130
0.0
111
1.0
121
0.0
131
0.0
112
0.0
122
1.0
132
0.0
 79
     0
146
0.0
  0
ENDTAB
  0
TABLE
  2
LTYPE
  5
5
330
0
100
AcDbSymbolTable
 70
    14
  0
LTYPE
  5
5B
330
5
100
AcDbSymbolTableRecord
100
AcDbLinetypeTableRecord
  2
ByBlock
 70
     0
  3

 72
    65
 73
     0
 40
0.0
  0
LTYPE
  5
5C
330
5
100
AcDbSymbolTableRecord
100
AcDbLinetypeTableRecord
  2
ByLayer
 70
     0
  3

 72
    65
 73
     0
 40
0.0
  0
LTYPE
  5
5D
330
5
100
AcDbSymbolTableRecord
100
AcDbLinetypeTableRecord
  2
Continuous
 70
     0
  3
Solid line
 72
    65
 73
     0
 40
0.0
  0
LTYPE
  5
86
330
5
100
AcDbSymbolTableRecord
100
AcDbLinetypeTableRecord
  2
CENTER
 70
     0
  3
Center ____ _ ____ _ ____ _ ____ _ ____ _ ____
 72
    65
 73
     4
 40
50.8
 49
31.75
 74
     0
 49
-6.349999999999997
 74
     0
 49
6.349999999999997
 74
     0
 49
-6.349999999999997
 74
     0
  0
LTYPE
  5
93
330
5
100
AcDbSymbolTableRecord
100
AcDbLinetypeTableRecord
  2
HIDDEN
 70
     0
  3
Hidden __ __ __ __ __ __ __ __ __ __ __ __ __ _
 72
    65
 73
     2
 40
9.524999999999996
 49
6.349999999999997
 74
     0
 49
-3.174999999999998
 74
     0
  0
LTYPE
  5
97
330
5
100
AcDbSymbolTableRecord
100
AcDbLinetypeTableRecord
  2
PHANTOM2
 70
     0
  3
Phantom (.5x) ___ _ _ ___ _ _ ___ _ _ ___ _ _
 72
    65
 73
     6
 40
31.75
 49
15.875
 74
     0
 49
-3.174999999999998
 74
     0
 49
3.174999999999998
 74
     0
 49
-3.174999999999998
 74
     0
 49
3.174999999999998
 74
     0
 49
-3.174999999999998
 74
     0
  0
LTYPE
  5
86755
330
5
100
AcDbSymbolTableRecord
100
AcDbLinetypeTableRecord
  2
AM_ISO02W050
 70
     0
  3
__ __ __ __ __ __ __ __ __ __ __ __ __ __ __
 72
    65
 73
     2
 40
7.5
 49
6.0
 74
     0
 49
-1.5
 74
     0
  0
LTYPE
  5
86756
330
5
100
AcDbSymbolTableRecord
100
AcDbLinetypeTableRecord
  2
AM_ISO08W050
 70
     0
  3
____ . ____ . ____ . ____ . ____ . ____ . ____
 72
    65
 73
     4
 40
18.0
 49
12.0
 74
     0
 49
-1.5
 74
     0
 49
3.0
 74
     0
 49
-1.5
 74
     0
  0
LTYPE
  5
86757
330
5
100
AcDbSymbolTableRecord
100
AcDbLinetypeTableRecord
  2
AM_ISO09W050
 70
     0
  3
_____ . . _____ . . _____ . . ____ .. ____
 72
    65
 73
     6
 40
22.5
 49
12.0
 74
     0
 49
-1.5
 74
     0
 49
3.0
 74
     0
 49
-1.5
 74
     0
 49
3.0
 74
     0
 49
-1.5
 74
     0
  0
LTYPE
  5
86758
330
5
100
AcDbSymbolTableRecord
100
AcDbLinetypeTableRecord
  2
Amconstr
 70
     0
  3
_______________________
 72
    65
 73
     2
 40
9999.0
 49
9999.0
 74
     0
 49
0.0
 74
     0
  0
LTYPE
  5
86759
330
5
100
AcDbSymbolTableRecord
100
AcDbLinetypeTableRecord
  2
AM_ISO08W050x2
 70
     0
  3
__ . __ . __ . __ . __ . __
 72
    65
 73
     4
 40
9.0
 49
6.0
 74
     0
 49
-0.75
 74
     0
 49
1.5
 74
     0
 49
-0.75
 74
     0
  0
LTYPE
  5
8675A
330
5
100
AcDbSymbolTableRecord
100
AcDbLinetypeTableRecord
  2
AM_ISO02W050x2
 70
     0
  3
 _ _ _ _ _ _ _ _ _ _ _ _
 72
    65
 73
     2
 40
3.75
 49
3.0
 74
     0
 49
-0.75
 74
     0
  0
LTYPE
  5
8675D
330
5
100
AcDbSymbolTableRecord
100
AcDbLinetypeTableRecord
  2
Amzigzag
 70
     0
  3
/\/-/\/-/\/-/\/-/\/-/\/
 72
    65
 73
     2
 40
11.0001
 49
0.0001
 74
     4
 75
   136
340
8675C
 46
0.04
 50
0.0
 44
0.0
 45
0.0
 49
-11.0
 74
     0
  0
LTYPE
  5
8676C
330
5
100
AcDbSymbolTableRecord
100
AcDbLinetypeTableRecord
  2
ACISOWELD
 70
     0
  3
_ _ _ _ _
 72
    65
 73
     2
 40
2.0
 49
2.0
 74
     0
 49
-1.0
 74
     0
  0
LTYPE
  5
8676D
330
5
100
AcDbSymbolTableRecord
100
AcDbLinetypeTableRecord
  2
ACISOTGB
 70
     0
  3
__ . . __ . .
 72
    65
 73
     6
 40
9.0
 49
4.0
 74
     0
 49
-1.0
 74
     0
 49
1.0
 74
     0
 49
-1.0
 74
     0
 49
1.0
 74
     0
 49
-1.0
 74
     0
  0
LTYPE
  5
8676E
330
5
100
AcDbSymbolTableRecord
100
AcDbLinetypeTableRecord
  2
ACISOTGL
 70
     0
  3
_ _ _ _ _
 72
    65
 73
     2
 40
3.0
 49
2.0
 74
     0
 49
-1.0
 74
     0
  0
ENDTAB
  0
TABLE
  2
LAYER
  5
2
102
{ACAD_XDICTIONARY
360
8686F
102
}
330
0
100
AcDbSymbolTable
 70
     4
  0
LAYER
  5
54
330
2
100
AcDbSymbolTableRecord
100
AcDbLayerTableRecord
  2
0
 70
     0
 62
     7
  6
Continuous
370
    -3
390
F
  0
LAYER
  5
C4
330
2
100
AcDbSymbolTableRecord
100
AcDbLayerTableRecord
  2
Widoczne (ISO)
 70
     0
 62
     7
  6
Continuous
370
    50
390
F
  0
LAYER
  5
86799
330
2
100
AcDbSymbolTableRecord
100
AcDbLayerTableRecord
  2
Defpoints
 70
     0
 62
     7
  6
Continuous
290
     0
370
    -3
390
F
  0
LAYER
  5
9F24B
330
2
100
AcDbSymbolTableRecord
100
AcDbLayerTableRecord
  2
AM_0
 70
     0
 62
     7
  6
Continuous
370
    50
390
F
1001
AcAecLayerStandard
1000

1000

  0
ENDTAB
  0
TABLE
  2
STYLE
  5
3
330
0
100
AcDbSymbolTable
 70
     3
  0
STYLE
  5
55
330
3
100
AcDbSymbolTableRecord
100
AcDbTextStyleTableRecord
  2
Standard
 70
     0
 40
0.0
 41
1.0
 50
0.0
 71
     0
 42
0.2
  3
tahoma.ttf
  4

1001
ACAD
1000
Tahoma
1071
      256
  0
STYLE
  5
8675C
330
3
100
AcDbSymbolTableRecord
100
AcDbTextStyleTableRecord
  2

 70
     1
 40
0.0
 41
1.0
 50
0.0
 71
     0
 42
0.2
  3
genltshp.shx
  4

  0
STYLE
  5
8676B
330
3
100
AcDbSymbolTableRecord
100
AcDbTextStyleTableRecord
  2
ACISOGDT
 70
     0
 40
0.0
 41
1.0
 50
0.0
 71
     0
 42
0.2
  3
amgdt.shx
  4

  0
ENDTAB
  0
TABLE
  2
VIEW
  5
6
330
0
100
AcDbSymbolTable
 70
     0
  0
ENDTAB
  0
TABLE
  2
UCS
  5
7
330
0
100
AcDbSymbolTable
 70
     0
  0
ENDTAB
  0
TABLE
  2
APPID
  5
9
330
0
100
AcDbSymbolTable
 70
    28
  0
APPID
  5
56
330
9
100
AcDbSymbolTableRecord
100
AcDbRegAppTableRecord
  2
ACAD
 70
     0
  0
APPID
  5
5E
330
9
100
AcDbSymbolTableRecord
100
AcDbRegAppTableRecord
  2
AcadAnnotative
 70
     0
  0
APPID
  5
15C
330
9
100
AcDbSymbolTableRecord
100
AcDbRegAppTableRecord
  2
AcadAnnoPO
 70
     0
  0
APPID
  5
866EB
330
9
100
AcDbSymbolTableRecord
100
AcDbRegAppTableRecord
  2
MCAD_NO_VIS
 70
     0
  0
APPID
  5
866EC
330
9
100
AcDbSymbolTableRecord
100
AcDbRegAppTableRecord
  2
ACAD_TEMP_GRAPHIC
 70
     0
  0
APPID
  5
86717
330
9
100
AcDbSymbolTableRecord
100
AcDbRegAppTableRecord
  2
AD_DRAW
 70
     0
  0
APPID
  5
8671A
330
9
100
AcDbSymbolTableRecord
100
AcDbRegAppTableRecord
  2
ACATTRIBSERVICES
 70
     0
  0
APPID
  5
86733
330
9
100
AcDbSymbolTableRecord
100
AcDbRegAppTableRecord
  2
DESIGNERASSEMBLIES
 70
     0
  0
APPID
  5
86738
330
9
100
AcDbSymbolTableRecord
100
AcDbRegAppTableRecord
  2
ACADM_DIM_EDIT
 70
     0
  0
APPID
  5
86739
330
9
100
AcDbSymbolTableRecord
100
AcDbRegAppTableRecord
  2
AMDT_DM_ADJ
 70
     0
  0
APPID
  5
86752
330
9
100
AcDbSymbolTableRecord
100
AcDbRegAppTableRecord
  2
ACAD_DSTYLE_DIMJAG
 70
     0
  0
APPID
  5
86753
330
9
100
AcDbSymbolTableRecord
100
AcDbRegAppTableRecord
  2
ACAD_DSTYLE_DIMBREAK
 70
     0
  0
APPID
  5
86793
330
9
100
AcDbSymbolTableRecord
100
AcDbRegAppTableRecord
  2
AcAecLayerStandard
 70
     0
  0
APPID
  5
867B1
330
9
100
AcDbSymbolTableRecord
100
AcDbRegAppTableRecord
  2
ACAD_DSTYLE_DIMINSPECT
 70
     0
  0
APPID
  5
867C6
330
9
100
AcDbSymbolTableRecord
100
AcDbRegAppTableRecord
  2
GENIUS_GENDTOL_13
 70
     0
  0
APPID
  5
867C7
330
9
100
AcDbSymbolTableRecord
100
AcDbRegAppTableRecord
  2
ACAD_EXEMPT_FROM_CAD_STANDARDS
 70
     0
  0
APPID
  5
86BBD
330
9
100
AcDbSymbolTableRecord
100
AcDbRegAppTableRecord
  2
ACAD_PSEXT
 70
     0
  0
APPID
  5
86BBE
330
9
100
AcDbSymbolTableRecord
100
AcDbRegAppTableRecord
  2
GENIUS_GENODEF_13
 70
     0
  0
APPID
  5
86BBF
330
9
100
AcDbSymbolTableRecord
100
AcDbRegAppTableRecord
  2
GENIUS_GENOBJ-N-HTC_13
 70
     0
  0
APPID
  5
86BC0
330
9
100
AcDbSymbolTableRecord
100
AcDbRegAppTableRecord
  2
GENIUS_GENHATCH_13
 70
     0
  0
APPID
  5
9EE9E
330
9
100
AcDbSymbolTableRecord
100
AcDbRegAppTableRecord
  2
GENIUS_GENOBJ-N-FIL_13
 70
     0
  0
APPID
  5
9EF44
330
9
100
AcDbSymbolTableRecord
100
AcDbRegAppTableRecord
  2
ACAD_MLEADERVER
 70
     0
  0
APPID
  5
9EF4A
330
9
100
AcDbSymbolTableRecord
100
AcDbRegAppTableRecord
  2
ACAD_DSTYLE_DIMARC_LENGTH_SYMBOL
 70
     0
  0
APPID
  5
9EF4B
330
9
100
AcDbSymbolTableRecord
100
AcDbRegAppTableRecord
  2
ACAD_DSTYLE_DIM_LINETYPE
 70
     0
  0
APPID
  5
9EF4C
330
9
100
AcDbSymbolTableRecord
100
AcDbRegAppTableRecord
  2
ACAD_DSTYLE_DIM_EXT1_LINETYPE
 70
     0
  0
APPID
  5
9EF4D
330
9
100
AcDbSymbolTableRecord
100
AcDbRegAppTableRecord
  2
ACAD_DSTYLE_DIM_EXT2_LINETYPE
 70
     0
  0
APPID
  5
9F26E
330
9
100
AcDbSymbolTableRecord
100
AcDbRegAppTableRecord
  2
GENIUS_GENREC_14
 70
     0
  0
APPID
  5
9F26F
330
9
100
AcDbSymbolTableRecord
100
AcDbRegAppTableRecord
  2
GENIUS_GENOBJ-N-REC_13
 70
     0
  0
ENDTAB
  0
TABLE
  2
DIMSTYLE
  5
A
330
0
100
AcDbSymbolTable
 70
     8
100
AcDbDimStyleTable
 71
     1
340
58
  0
DIMSTYLE
105
58
330
A
100
AcDbSymbolTableRecord
100
AcDbDimStyleTableRecord
  2
Standard
 70
     0
340
55
  0
DIMSTYLE
105
86751
102
{ACAD_REACTORS
330
9F205
102
}
330
A
100
AcDbSymbolTableRecord
100
AcDbDimStyleTableRecord
  2
AM_ISO
 70
     0
  4
"
 41
3.5
 42
1.0
 43
10.0
 44
1.0
 47
0.1
 48
0.1
 73
     0
 74
     0
 77
     1
 78
     8
 79
     2
140
3.5
141
0.0
143
0.0393701
146
0.71
147
1.5
172
     1
176
   256
177
   256
178
     2
271
     2
272
     3
274
     4
283
     0
284
     8
340
55
371
    -1
372
    -1
1001
ACAD_DSTYLE_DIMJAG
1070
   388
1040
1.5
1001
ACAD_DSTYLE_DIMBREAK
1070
   391
1040
3.75
1001
ACAD_DSTYLE_DIMARC_LENGTH_SYMBOL
1070
   379
1070
     1
1001
ACAD_DSTYLE_DIM_LINETYPE
1070
   380
1005
5B
1001
ACAD_DSTYLE_DIM_EXT1_LINETYPE
1070
   381
1005
5B
1001
ACAD_DSTYLE_DIM_EXT2_LINETYPE
1070
   382
1005
5B
  0
DIMSTYLE
105
8675E
330
A
100
AcDbSymbolTableRecord
100
AcDbDimStyleTableRecord
  2
AM_ISO$3
 70
     0
  4
"
 41
3.5
 42
1.0
 43
10.0
 44
1.0
 47
0.1
 48
0.1
 73
     0
 77
     1
 78
     8
 79
     2
140
3.5
141
0.0
143
0.0393701
146
0.71
147
1.5
176
   256
177
   256
178
     2
271
     2
272
     3
274
     4
283
     0
284
     8
288
     1
289
     0
340
55
371
    -1
372
    -1
1001
ACAD_DSTYLE_DIMBREAK
1070
   391
1040
3.75
1001
ACAD_DSTYLE_DIMJAG
1070
   388
1040
1.5
1001
ACAD_DSTYLE_DIMARC_LENGTH_SYMBOL
1070
   379
1070
     1
1001
ACAD_DSTYLE_DIM_LINETYPE
1070
   380
1005
5B
1001
ACAD_DSTYLE_DIM_EXT1_LINETYPE
1070
   381
1005
5B
1001
ACAD_DSTYLE_DIM_EXT2_LINETYPE
1070
   382
1005
5B
  0
DIMSTYLE
105
8675F
330
A
100
AcDbSymbolTableRecord
100
AcDbDimStyleTableRecord
  2
AM_ISO$4
 70
     0
  4
"
 41
3.5
 42
1.0
 43
10.0
 44
1.0
 47
0.1
 48
0.1
 73
     0
 77
     1
 78
     8
 79
     2
140
3.5
141
0.0
143
0.0393701
146
0.71
147
1.5
176
   256
177
   256
178
     2
271
     2
272
     3
274
     4
283
     0
284
     8
288
     1
289
     0
340
55
371
    -1
372
    -1
1001
ACAD_DSTYLE_DIMBREAK
1070
   391
1040
3.75
1001
ACAD_DSTYLE_DIMJAG
1070
   388
1040
1.5
1001
ACAD_DSTYLE_DIMARC_LENGTH_SYMBOL
1070
   379
1070
     1
1001
ACAD_DSTYLE_DIM_LINETYPE
1070
   380
1005
5B
1001
ACAD_DSTYLE_DIM_EXT1_LINETYPE
1070
   381
1005
5B
1001
ACAD_DSTYLE_DIM_EXT2_LINETYPE
1070
   382
1005
5B
  0
DIMSTYLE
105
86760
330
A
100
AcDbSymbolTableRecord
100
AcDbDimStyleTableRecord
  2
AM_ISO$6
 70
     0
  4
"
 41
3.5
 42
1.0
 43
10.0
 44
1.0
 47
0.1
 48
0.1
 73
     0
 74
     0
 78
     8
 79
     2
140
3.5
141
0.0
143
0.0393701
146
0.71
147
1.5
172
     1
176
   256
177
   256
178
     2
271
     2
272
     3
274
     4
283
     0
284
     8
340
55
371
    -1
372
    -1
1001
ACAD_DSTYLE_DIMBREAK
1070
   391
1040
3.75
1001
ACAD_DSTYLE_DIMJAG
1070
   388
1040
1.5
1001
ACAD_DSTYLE_DIMARC_LENGTH_SYMBOL
1070
   379
1070
     1
1001
ACAD_DSTYLE_DIM_LINETYPE
1070
   380
1005
5B
1001
ACAD_DSTYLE_DIM_EXT1_LINETYPE
1070
   381
1005
5B
1001
ACAD_DSTYLE_DIM_EXT2_LINETYPE
1070
   382
1005
5B
  0
DIMSTYLE
105
86761
330
A
100
AcDbSymbolTableRecord
100
AcDbDimStyleTableRecord
  2
AM_ISO$7
 70
     0
  4
"
 41
3.5
 42
1.0
 43
10.0
 44
1.0
 47
0.1
 48
0.1
 73
     0
 74
     0
 77
     1
 78
     8
 79
     2
140
3.5
141
0.0
143
0.0393701
146
0.71
147
1.5
172
     1
176
   256
177
   256
178
     2
271
     2
272
     3
274
     4
283
     0
284
     8
340
55
371
    -1
372
    -1
1001
ACAD_DSTYLE_DIMBREAK
1070
   391
1040
3.75
1001
ACAD_DSTYLE_DIMJAG
1070
   388
1040
1.5
1001
ACAD_DSTYLE_DIMARC_LENGTH_SYMBOL
1070
   379
1070
     1
1001
ACAD_DSTYLE_DIM_LINETYPE
1070
   380
1005
5B
1001
ACAD_DSTYLE_DIM_EXT1_LINETYPE
1070
   381
1005
5B
1001
ACAD_DSTYLE_DIM_EXT2_LINETYPE
1070
   382
1005
5B
  0
DIMSTYLE
105
86762
330
A
100
AcDbSymbolTableRecord
100
AcDbDimStyleTableRecord
  2
AM_ISO$SF
 70
     0
  4
"
 41
3.5
 42
1.0
 43
10.0
 44
1.0
 47
0.1
 48
0.1
 73
     0
 74
     0
 75
     1
 76
     1
 77
     1
 78
     8
 79
     2
140
3.5
141
0.0
143
0.0393701
146
0.71
147
1.5
172
     1
176
   256
177
   256
178
     2
271
     2
272
     3
274
     4
283
     0
284
     8
340
55
371
    -1
372
    -1
1001
ACAD_DSTYLE_DIMBREAK
1070
   391
1040
3.75
1001
ACAD_DSTYLE_DIMJAG
1070
   388
1040
1.5
1001
ACAD_DSTYLE_DIMARC_LENGTH_SYMBOL
1070
   379
1070
     1
1001
ACAD_DSTYLE_DIM_LINETYPE
1070
   380
1005
5B
1001
ACAD_DSTYLE_DIM_EXT1_LINETYPE
1070
   381
1005
5B
1001
ACAD_DSTYLE_DIM_EXT2_LINETYPE
1070
   382
1005
5B
  0
DIMSTYLE
105
86767
330
A
100
AcDbSymbolTableRecord
100
AcDbDimStyleTableRecord
  2
AM_ISO$SH
 70
     0
  4
"
 41
3.5
 42
1.0
 43
10.0
 44
1.0
 47
0.1
 48
0.1
 73
     0
 74
     0
 75
     1
 76
     1
 77
     1
 78
     8
 79
     2
140
3.5
141
0.0
143
0.0393701
144
2.0
146
0.71
147
1.5
172
     1
173
     1
176
   256
177
   256
178
     2
271
     2
272
     3
274
     4
283
     0
284
     8
340
55
343
86763
371
    -1
372
    -1
1001
ACAD_DSTYLE_DIMBREAK
1070
   391
1040
3.75
1001
ACAD_DSTYLE_DIMJAG
1070
   388
1040
1.5
1001
ACAD_DSTYLE_DIMARC_LENGTH_SYMBOL
1070
   379
1070
     1
1001
ACAD_DSTYLE_DIM_LINETYPE
1070
   380
1005
5B
1001
ACAD_DSTYLE_DIM_EXT1_LINETYPE
1070
   381
1005
5B
1001
ACAD_DSTYLE_DIM_EXT2_LINETYPE
1070
   382
1005
5B
  0
ENDTAB
  0
TABLE
  2
BLOCK_RECORD
  5
1
330
0
100
AcDbSymbolTable
 70
     7
  0
BLOCK_RECORD
  5
6C
102
{ACAD_XDICTIONARY
360
8680A
102
}
330
1
100
AcDbSymbolTableRecord
100
AcDbBlockTableRecord
  2
*Model_Space
340
6F
  0
BLOCK_RECORD
  5
68
330
1
100
AcDbSymbolTableRecord
100
AcDbBlockTableRecord
  2
*Paper_Space
340
6B
  0
BLOCK_RECORD
  5
70
330
1
100
AcDbSymbolTableRecord
100
AcDbBlockTableRecord
  2
*Paper_Space0
340
73
  0
BLOCK_RECORD
  5
86763
330
1
100
AcDbSymbolTableRecord
100
AcDbBlockTableRecord
  2
GENAXEH
340
0
  0
BLOCK_RECORD
  5
9F263
102
{ACAD_XDICTIONARY
360
9F264
102
}
330
1
100
AcDbSymbolTableRecord
100
AcDbBlockTableRecord
  2
gggr
340
0
310
2800000020000000200000000100080000000000000400000000000000000000000000000000000000000000000080000080000000808000800000008000800080800000C0C0C000C0DCC000F0CAA6000020400000206000002080000020A0000020C0000020E00000400000004020000040400000406000004080000040A0
310
000040C0000040E00000600000006020000060400000606000006080000060A0000060C0000060E00000800000008020000080400000806000008080000080A0000080C0000080E00000A0000000A0200000A0400000A0600000A0800000A0A00000A0C00000A0E00000C0000000C0200000C0400000C0600000C0800000C0
310
A00000C0C00000C0E00000E0000000E0200000E0400000E0600000E0800000E0A00000E0C00000E0E00040000000400020004000400040006000400080004000A0004000C0004000E00040200000402020004020400040206000402080004020A0004020C0004020E000404000004040200040404000404060004040800040
310
40A0004040C0004040E00040600000406020004060400040606000406080004060A0004060C0004060E00040800000408020004080400040806000408080004080A0004080C0004080E00040A0000040A0200040A0400040A0600040A0800040A0A00040A0C00040A0E00040C0000040C0200040C0400040C0600040C08000
310
40C0A00040C0C00040C0E00040E0000040E0200040E0400040E0600040E0800040E0A00040E0C00040E0E00080000000800020008000400080006000800080008000A0008000C0008000E00080200000802020008020400080206000802080008020A0008020C0008020E00080400000804020008040400080406000804080
310
008040A0008040C0008040E00080600000806020008060400080606000806080008060A0008060C0008060E00080800000808020008080400080806000808080008080A0008080C0008080E00080A0000080A0200080A0400080A0600080A0800080A0A00080A0C00080A0E00080C0000080C0200080C0400080C0600080C0
310
800080C0A00080C0C00080C0E00080E0000080E0200080E0400080E0600080E0800080E0A00080E0C00080E0E000C0000000C0002000C0004000C0006000C0008000C000A000C000C000C000E000C0200000C0202000C0204000C0206000C0208000C020A000C020C000C020E000C0400000C0402000C0404000C0406000C0
310
408000C040A000C040C000C040E000C0600000C0602000C0604000C0606000C0608000C060A000C060C000C060E000C0800000C0802000C0804000C0806000C0808000C080A000C080C000C080E000C0A00000C0A02000C0A04000C0A06000C0A08000C0A0A000C0A0C000C0A0E000C0C00000C0C02000C0C04000C0C06000
310
C0C08000C0C0A000F0FBFF00A4A0A000808080000000FF0000FF000000FFFF00FF000000FF00FF00FFFF0000FFFFFF0049494949494949494949494949494949494949494949494949494949494949494949494949494949494949494949494949494949494949494949494949494949494949494949494949494949494949
310
49494949494949494949494949494949494949494949494949494949494949494949494949494949494949494949494949494949494949494949494949494949494949494949494949494949494949494949494949494949494949494949494949494949494949494949494949494949494949494949494949494949494949
310
49494949494949494949494949494949494949494949494949494949494949494949494949494949494949494949494949494949494949494949494949494949494949494949494949494949494949494949494949494949494949494949494949494949494949494949494949494949494949494949494949494949494949
310
49494949494949494949494949494949494949494949494949494949494949494949494949494949494949494949494949494949FEFEFEFEF9FEFEFEFEFEFEFEFEFEFEFEFEFEFEFEFEFEFEFEFEF9FEFEFEFE4949FE494949F94949494949494949494949494949494949494949F9494949FE4949FE494949F9494949494949
310
4949494949494949494949494949F9494949FE4949FE494949F94949494949494949494949494949494949494949F9494949FE4949FE494949F94949494949494949494949494949494949494949F9494949FE4949FE494949F94949494949494949494949494949494949494949F9494949FE4949FE494949F94949494949
310
494949494949494949494949494949F9494949FE4949FEFEFEFEF9FEFEFEFEFEFEFEFEFEFEFEFEFEFEFEFEFEFEFEFEF9FEFEFEFE494949494949494949494949494949494949494949494949494949494949494949494949494949494949494949494949494949494949494949494949494949494949494949494949494949
310
49494949494949494949494949494949494949494949494949494949494949494949494949494949494949494949494949494949494949494949494949494949494949494949494949494949494949494949494949494949494949494949494949494949494949494949494949494949494949494949494949494949494949
310
49494949494949494949494949494949494949494949494949494949494949494949494949494949494949494949494949494949494949494949494949494949494949494949494949494949494949494949494949494949494949494949494949494949494949494949494949494949494949494949494949494949494949
310
4949494949494949494949494949494949494949494949494949494949494949494949494949494949494949494949494949494949494949
102
{BLKREFS
331
A0144
331
A00E5
331
A00E6
331
A00E7
331
A00E8
331
A00E9
331
A00EA
331
A00EB
331
A00EC
331
A00ED
331
A00EE
331
A00EF
331
A00F0
331
A00F1
331
A00F2
331
A00F3
331
A00F4
331
A00F5
331
A00F6
331
A00F7
331
A00F8
331
A00F9
331
A00FA
331
A00FB
331
A00FC
331
A00FD
331
A00FE
331
A00FF
331
A0100
331
A0101
331
A0102
331
A0103
331
A0104
331
9FFD1
331
9FFD2
331
9FFD3
331
9FFD4
331
9FFD5
331
9FFD6
331
9FFD7
331
9FFD8
331
9FFD9
331
9FFDA
331
9FFDB
331
9FFDC
331
9FFDD
331
9FFDE
331
9FFDF
331
9FFE0
331
9FFE1
331
9FFE2
331
9FFE3
331
9FFE4
331
9FFE5
331
9FFE6
331
9FFE7
331
9FFE8
331
9FFE9
331
9FFEA
331
9FFEB
331
9FFEC
331
9FFED
331
9FFEE
331
9FFEF
331
9FFF0
331
9FFF1
331
9FFF2
331
9FFF3
331
9FFF4
331
9FFF5
331
9FFF6
331
9FFF7
331
9FFF8
331
9FFF9
331
9FFFA
331
9FFFB
331
9FFFC
331
9FFFD
331
9FFFE
331
9FFFF
331
A0000
331
A0001
331
A0002
331
A0003
331
A0004
331
A0005
331
A0006
331
A0007
331
A0008
331
A0009
331
A000A
331
A000B
331
A000C
331
A000D
331
A000E
331
A000F
331
A0010
331
A0011
331
A0012
331
A0013
331
A0014
331
A0015
331
A0016
331
A0017
331
A0018
331
A0019
331
A001A
331
A001B
331
A001C
331
A001D
331
A001E
331
A001F
331
A0020
331
A0021
331
A0022
331
A0023
331
A0024
331
A0025
331
A0026
331
A0027
331
A0028
331
A0029
331
A002A
331
A002B
331
A002C
331
A002D
331
A002E
331
A002F
331
A0030
331
A0031
331
A0032
331
A0033
331
A0034
331
A0035
331
A0036
331
A0037
331
A0038
331
A0039
331
A003A
331
A003B
331
A003C
331
A003D
331
A003E
331
A003F
331
A0040
331
A0041
331
A0042
331
A0043
331
A0044
331
A0045
331
A0046
331
A0047
331
A0048
331
A0049
331
A004A
331
A004B
331
A004C
331
A004D
331
A004E
331
A004F
331
A0050
331
A0051
331
A0052
331
A0053
331
A0054
331
A0055
331
A0056
331
A0057
331
A0058
331
A0059
331
A005A
331
A005B
331
A005C
331
A005D
331
A005E
331
A005F
331
A0060
331
A0061
331
A0062
331
A0063
331
A0064
331
A0065
331
A0066
331
A0067
331
A0068
331
A0069
331
A006A
331
A006B
331
A006C
331
A006D
331
A006E
331
A006F
331
A0070
331
A0071
331
A0072
331
A0073
331
A0074
331
A0075
331
A0076
331
A0077
331
A0078
331
A0079
331
A007A
331
A007B
331
A007C
331
A007D
331
A007E
331
A007F
331
A0080
331
A0081
331
A0082
331
A0083
331
A0084
331
A0085
331
A0086
331
A0087
331
A0088
331
A0089
331
A008A
331
A008B
331
A008C
331
A008D
331
A008E
331
A008F
331
A0090
331
A0091
331
A0092
331
A0093
331
A0094
331
A0095
331
A0096
331
A0097
331
A0098
331
A0099
331
A009A
331
A009B
331
A009C
331
A009D
331
A009E
331
A009F
331
A00A0
331
A00A1
331
A00A2
331
A00A3
331
A00A4
331
A00A5
331
A00A6
331
9FEE1
331
9FEE2
331
9FEE3
331
9FEE4
331
9FEE5
331
9FEE6
331
9FEE7
331
9FEE8
331
9FEE9
331
9FEEA
331
9FEEB
331
9FEEC
331
9FEED
331
9FEEE
331
9FEEF
331
9FEF0
331
9FEF1
331
9FEF2
331
9FEF3
331
9FEF4
331
9FEF5
331
9FEF6
331
9FEF7
331
9FEF8
331
9FEF9
331
9FEFA
331
9FEFB
331
9FEFC
331
9FEFD
331
9FEFE
331
9FEFF
331
9FF00
331
9FF01
331
9FF02
331
9FF03
331
9FF04
331
9FF05
331
9FF06
331
9FF07
331
9FF08
331
9FF09
331
9FF0A
331
9FF0B
331
9FF0C
331
9FF0D
331
9FF0E
331
9FF0F
331
9FF10
331
9FF11
331
9FF12
331
9FF13
331
9FF14
331
9FF15
331
9FF16
331
9FF17
331
9FF18
331
9FF19
331
9FF1A
331
9FF1B
331
9FF1C
331
9FF1D
331
9FF1E
331
9FF1F
331
9FF20
331
9FF21
331
9FF22
331
9FF23
331
9FF24
331
9FF25
331
9FF26
331
9FF27
331
9FF28
331
9FF29
331
9FF2A
331
9FF2B
331
9FF2C
331
9FF2D
331
9FF2E
331
9FF2F
331
9FF30
331
9FF31
331
9FF32
331
9FF33
331
9FF34
331
9FF35
331
9FF36
331
9FF37
331
9FF38
331
9FF39
331
9FF3A
331
9FF3B
331
9FF3C
331
9FF3D
331
9FF3E
331
9FF3F
331
9FF40
331
9FF41
331
9FF42
331
9FF43
331
9FF44
331
9FF45
331
9FF46
331
9FF47
331
9FF48
331
9FF49
331
9FF4A
331
9FF4B
331
9FF4C
331
9FF4D
331
9FF4E
331
9FF4F
331
9FF50
331
9FF51
331
9FF52
331
9FF53
331
9FF54
331
9FF55
331
9FF56
331
9FF57
331
9FF58
331
9FF59
331
9FF5A
331
9FF5B
331
9FF5C
331
9FF5D
331
9FF5E
331
9FF5F
331
9FF60
331
9FF61
331
9FF62
331
9FF63
331
9FF64
331
9FF65
331
9FF66
331
9FF67
331
9FF68
331
9FF69
331
9FF6A
331
9FF6B
331
9FF6C
331
9FF6D
331
9FF6E
331
9FF6F
331
9FF70
331
9FF71
331
9FF72
331
9FF73
331
9FF74
331
9FF75
331
9FF76
331
9FF77
331
9FF78
331
9FF79
331
9FF7A
331
9FF7B
331
9FF7C
331
9FF7D
331
9FF7E
331
9FF7F
331
9FF80
331
9FF81
331
9FF82
331
9FF83
331
9FF84
331
9FF85
331
9FF86
331
9FF87
331
9FF88
331
9FF89
331
9FF8A
331
9FF8B
331
9FF8C
331
9FF8D
331
9FF8E
331
9FF8F
331
9FF90
331
9FF91
331
9FF92
331
9FF93
331
9FF94
331
9FF95
331
9FF96
331
9FF97
331
9FF98
331
9FF99
331
9FF9A
331
9FF9B
331
9FF9C
331
9FF9D
331
9FF9E
331
9FF9F
331
9FFA0
331
9FFA1
331
9FFA2
331
9FFA3
331
9FFA4
331
9FFA5
331
9FFA6
331
9FFA7
331
9FFA8
331
9FFA9
331
9FFAA
331
9FFAB
331
9FFAC
331
9FFAD
331
9FFAE
331
9FFAF
331
9FFB0
331
9FFB1
331
9FFB2
331
9FFB3
331
9FFB4
331
9FFB5
331
9FFB6
331
9FFB7
331
9FFB8
331
9FFB9
331
9FFBA
331
9FFBB
331
9FFBC
331
9FFBD
331
9FFBE
331
9FFBF
331
9FFC0
331
9FFC1
331
9FFC2
331
9FFC3
331
9FFC4
331
9FFC5
331
9FFC6
331
9FFC7
331
9FFC8
331
9FFC9
331
9FFCA
331
9FFCB
331
9FFCC
331
9FFCD
331
9FFCE
331
9FFCF
331
9FFD0
331
A00A7
331
A00A8
331
A00A9
331
A00AA
331
A00AB
331
A00AC
331
A00AD
331
A00AE
331
A00AF
331
A00B0
331
A00B1
331
A00B2
331
A00B3
331
A00B4
331
A00B5
331
A00B6
331
A00B7
331
A00B8
331
A00B9
331
A00BA
331
A00BB
331
A00BC
331
A00BD
331
A00BE
331
A00BF
331
A00C0
331
A00C1
331
A00C2
331
A00C3
331
A00C4
331
A00C5
331
A00C6
331
A00C7
331
A00C8
331
A00C9
331
A00CA
331
A00CB
331
A00CC
331
A00CD
331
A00CE
331
A00CF
331
A00D0
331
A00D1
331
A00D2
331
A00D3
331
A00D4
331
A00D5
331
A00D6
331
A00D7
331
A00D8
331
A00D9
331
A00DA
331
A00DB
331
A00DC
331
A00DD
331
A00DE
331
A00DF
331
A00E0
331
A00E1
331
A00E2
331
A00E3
331
A00E4
331
9FE67
331
9FE68
331
9FE69
331
9FE6A
331
9FE6B
331
9FE6C
331
9FE6D
331
9FE6E
331
9FE6F
331
9FE70
331
9FE71
331
9FE72
331
9FE73
331
9FE74
331
9FE75
331
9FE76
331
9FE77
331
9FE78
331
9FE79
331
9FE7A
331
9FE7B
331
9FE7C
331
9FE7D
331
9FE7E
331
9FE7F
331
9FE80
331
9FE81
331
9FE82
331
9FE83
331
9FE84
331
9FE85
331
9FE86
331
9FE87
331
9FE88
331
9FE89
331
9FE8A
331
9FE8B
331
9FE8C
331
9FE8D
331
9FE8E
331
9FE8F
331
9FE90
331
9FE91
331
9FE92
331
9FE93
331
9FE94
331
9FE95
331
9FE96
331
9FE97
331
9FE98
331
9FE99
331
9FE9A
331
9FE9B
331
9FE9C
331
9FE9D
331
9FE9E
331
9FE9F
331
9FEA0
331
9FEA1
331
9FEA2
331
9FEA3
331
9FEA4
331
9FEA5
331
9FEA6
331
9FEA7
331
9FEA8
331
9FEA9
331
9FEAA
331
9FEAB
331
9FEAC
331
9FEAD
331
9FEAE
331
9FEAF
331
9FEB0
331
9FEB1
331
9FEB2
331
9FEB3
331
9FEB4
331
9FEB5
331
9FEB6
331
9FEB7
331
9FEB8
331
9FEB9
331
9FEBA
331
9FEBB
331
9FEBC
331
9FEBD
331
9FEBE
331
9FEBF
331
9FEC0
331
9FEC1
331
9FEC2
331
9FEC3
331
9FEC4
331
9FEC5
331
9FEC6
331
9FEC7
331
9FEC8
331
9FEC9
331
9FECA
331
9FECB
331
9FECC
331
9FECD
331
9FECE
331
9FECF
331
9FED0
331
9FED1
331
9FED2
331
9FED3
331
9FED4
331
9FED5
331
9FED6
331
9FED7
331
9FED8
331
9FED9
331
9FEDA
331
9FEDB
331
9FEDC
331
9FEDD
331
9FEDE
331
9FEDF
331
9FEE0
102
}
1001
ACAD
1000
DesignCenter Data
1002
{
1070
     1
1070
     4
1002
}
  0
BLOCK_RECORD
  5
9FCDC
330
1
100
AcDbSymbolTableRecord
100
AcDbBlockTableRecord
  2
sdasddd
340
0
310
2800000020000000200000000100080000000000000400000000000000000000000000000000000000000000000080000080000000808000800000008000800080800000C0C0C000C0DCC000F0CAA6000020400000206000002080000020A0000020C0000020E00000400000004020000040400000406000004080000040A0
310
000040C0000040E00000600000006020000060400000606000006080000060A0000060C0000060E00000800000008020000080400000806000008080000080A0000080C0000080E00000A0000000A0200000A0400000A0600000A0800000A0A00000A0C00000A0E00000C0000000C0200000C0400000C0600000C0800000C0
310
A00000C0C00000C0E00000E0000000E0200000E0400000E0600000E0800000E0A00000E0C00000E0E00040000000400020004000400040006000400080004000A0004000C0004000E00040200000402020004020400040206000402080004020A0004020C0004020E000404000004040200040404000404060004040800040
310
40A0004040C0004040E00040600000406020004060400040606000406080004060A0004060C0004060E00040800000408020004080400040806000408080004080A0004080C0004080E00040A0000040A0200040A0400040A0600040A0800040A0A00040A0C00040A0E00040C0000040C0200040C0400040C0600040C08000
310
40C0A00040C0C00040C0E00040E0000040E0200040E0400040E0600040E0800040E0A00040E0C00040E0E00080000000800020008000400080006000800080008000A0008000C0008000E00080200000802020008020400080206000802080008020A0008020C0008020E00080400000804020008040400080406000804080
310
008040A0008040C0008040E00080600000806020008060400080606000806080008060A0008060C0008060E00080800000808020008080400080806000808080008080A0008080C0008080E00080A0000080A0200080A0400080A0600080A0800080A0A00080A0C00080A0E00080C0000080C0200080C0400080C0600080C0
310
800080C0A00080C0C00080C0E00080E0000080E0200080E0400080E0600080E0800080E0A00080E0C00080E0E000C0000000C0002000C0004000C0006000C0008000C000A000C000C000C000E000C0200000C0202000C0204000C0206000C0208000C020A000C020C000C020E000C0400000C0402000C0404000C0406000C0
310
408000C040A000C040C000C040E000C0600000C0602000C0604000C0606000C0608000C060A000C060C000C060E000C0800000C0802000C0804000C0806000C0808000C080A000C080C000C080E000C0A00000C0A02000C0A04000C0A06000C0A08000C0A0A000C0A0C000C0A0E000C0C00000C0C02000C0C04000C0C06000
310
C0C08000C0C0A000F0FBFF00A4A0A000808080000000FF0000FF000000FFFF00FF000000FF00FF00FFFF0000FFFFFF0049494949494949494949494949494949494949494949494949494949494949494949494949494949494949494949494949494949494949494949494949494949494949494949494949494949494949
310
49494949494949494949494949494949494949494949494949494949494949494949494949494949494949494949494949494949494949494949494949494949494949494949494949494949494949494949494949494949494949494949494949494949494949494949494949494949494949494949494949494949494949
310
49494949494949494949494949494949494949494949494949494949494949494949494949494949494949494949494949494949494949494949494949494949494949494949494949494949494949494949494949494949494949494949494949494949494949494949494949494949494949FEFEFEFEFEFEFEFEFEFEFEFE
310
FEFEFEFEFEFEFEFEFEFEFEFEFEFEFEFEFEFE49494949494949494949494949494949494949494949494949494949494949FE49494949494949494949494949494949494949494949494949494949494949FE49494949494949494949494949494949494949494949494949494949494949FE49494949494949494949494949
310
494949494949494949494949494949494949FE49494949494949494949494949494949494949494949494949494949494949FE49494949494949494949494949494949494949494949494949494949494949FE49494949494949494949494949494949494949494949494949494949494949FE494949494949494949494949
310
49494949494949494949494949494949494949FE49494949494949494949494949494949494949494949494949494949494949FE49494949494949494949494949494949494949494949494949494949494949FE4949FEFEFEFEFEFEFEFEFEFEFEFEFEFEFEFEFEFEFEFEFEFEFEFEFEFEFEFEFEFE4949494949494949494949
310
49494949494949494949494949494949494949494949494949494949494949494949494949494949494949494949494949494949494949494949494949494949494949494949494949494949494949494949494949494949494949494949494949494949494949494949494949494949494949494949494949494949494949
310
49494949494949494949494949494949494949494949494949494949494949494949494949494949494949494949494949494949494949494949494949494949494949494949494949494949494949494949494949494949494949494949494949494949494949494949494949494949494949494949494949494949494949
310
4949494949494949494949494949494949494949494949494949494949494949494949494949494949494949494949494949494949494949
102
{BLKREFS
331
A0108
331
A0109
331
A010A
331
A010B
331
A010C
331
A010D
331
A010E
331
A010F
331
A0110
331
A0111
331
A0112
331
A0113
331
A0114
331
A0115
331
A0116
331
A0117
331
A0118
331
A0119
331
A011A
331
A011B
331
A011C
331
A011D
331
A011E
331
A011F
331
A0120
331
A0121
331
A0122
331
A0123
331
A0124
331
A0125
102
}
1001
ACAD
1000
DesignCenter Data
1002
{
1070
     1
1070
     4
1002
}
  0
BLOCK_RECORD
  5
9FD70
330
1
100
AcDbSymbolTableRecord
100
AcDbBlockTableRecord
  2
sdffffr
340
0
310
2800000020000000200000000100080000000000000400000000000000000000000000000000000000000000000080000080000000808000800000008000800080800000C0C0C000C0DCC000F0CAA6000020400000206000002080000020A0000020C0000020E00000400000004020000040400000406000004080000040A0
310
000040C0000040E00000600000006020000060400000606000006080000060A0000060C0000060E00000800000008020000080400000806000008080000080A0000080C0000080E00000A0000000A0200000A0400000A0600000A0800000A0A00000A0C00000A0E00000C0000000C0200000C0400000C0600000C0800000C0
310
A00000C0C00000C0E00000E0000000E0200000E0400000E0600000E0800000E0A00000E0C00000E0E00040000000400020004000400040006000400080004000A0004000C0004000E00040200000402020004020400040206000402080004020A0004020C0004020E000404000004040200040404000404060004040800040
310
40A0004040C0004040E00040600000406020004060400040606000406080004060A0004060C0004060E00040800000408020004080400040806000408080004080A0004080C0004080E00040A0000040A0200040A0400040A0600040A0800040A0A00040A0C00040A0E00040C0000040C0200040C0400040C0600040C08000
310
40C0A00040C0C00040C0E00040E0000040E0200040E0400040E0600040E0800040E0A00040E0C00040E0E00080000000800020008000400080006000800080008000A0008000C0008000E00080200000802020008020400080206000802080008020A0008020C0008020E00080400000804020008040400080406000804080
310
008040A0008040C0008040E00080600000806020008060400080606000806080008060A0008060C0008060E00080800000808020008080400080806000808080008080A0008080C0008080E00080A0000080A0200080A0400080A0600080A0800080A0A00080A0C00080A0E00080C0000080C0200080C0400080C0600080C0
310
800080C0A00080C0C00080C0E00080E0000080E0200080E0400080E0600080E0800080E0A00080E0C00080E0E000C0000000C0002000C0004000C0006000C0008000C000A000C000C000C000E000C0200000C0202000C0204000C0206000C0208000C020A000C020C000C020E000C0400000C0402000C0404000C0406000C0
310
408000C040A000C040C000C040E000C0600000C0602000C0604000C0606000C0608000C060A000C060C000C060E000C0800000C0802000C0804000C0806000C0808000C080A000C080C000C080E000C0A00000C0A02000C0A04000C0A06000C0A08000C0A0A000C0A0C000C0A0E000C0C00000C0C02000C0C04000C0C06000
310
C0C08000C0C0A000F0FBFF00A4A0A000808080000000FF0000FF000000FFFF00FF000000FF00FF00FFFF0000FFFFFF0049494949494949494949494949494949494949494949494949494949494949494949494949494949494949494949494949494949494949494949494949494949494949494949494949494949494949
310
49494949494949494949494949494949494949494949494949494949494949494949494949494949494949494949494949494949494949494949494949494949494949494949494949494949494949494949494949494949494949494949494949494949494949494949494949494949494949494949494949494949494949
310
49494949494949494949494949494949494949494949494949494949494949494949494949494949494949494949494949494949494949494949494949494949494949494949494949494949494949494949494949494949494949494949494949494949494949494949494949494949494949FEFEFEFEFEFEFEFEFEFEFEFE
310
FEFEFEFEFEFEFEFEFEFEFEFEFEFEFEFEFEFE4949FE49494949494949494949494949494949494949494949494949494949494949FE49494949494949494949494949494949494949494949494949494949494949FE49494949494949494949494949494949494949494949494949494949494949FE49494949494949494949
310
494949494949494949494949494949494949494949FE49494949494949494949494949494949494949494949494949494949494949FE49494949494949494949494949494949494949494949494949494949494949FE49494949494949494949494949494949494949494949494949494949494949FE494949494949494949
310
49494949494949494949494949494949494949494949FE49494949494949494949494949494949494949494949494949494949494949FE49494949494949494949494949494949494949494949494949494949494949FEFEFEFEFEFEFEFEFEFEFEFEFEFEFEFEFEFEFEFEFEFEFEFEFEFEFEFEFEFE4949494949494949494949
310
49494949494949494949494949494949494949494949494949494949494949494949494949494949494949494949494949494949494949494949494949494949494949494949494949494949494949494949494949494949494949494949494949494949494949494949494949494949494949494949494949494949494949
310
49494949494949494949494949494949494949494949494949494949494949494949494949494949494949494949494949494949494949494949494949494949494949494949494949494949494949494949494949494949494949494949494949494949494949494949494949494949494949494949494949494949494949
310
4949494949494949494949494949494949494949494949494949494949494949494949494949494949494949494949494949494949494949
102
{BLKREFS
331
A0127
331
A0128
331
A0129
331
A012A
331
A012B
331
A012C
331
A012D
331
A012E
331
A012F
331
A0130
331
A0131
331
A0132
331
A0133
331
A0134
331
A0135
331
A0136
331
A0137
331
A0138
331
A0139
331
A013A
331
A013B
331
A013C
331
A013D
331
A013E
331
A013F
331
A0140
331
A0141
331
A0142
331
A0143
331
A0126
102
}
1001
ACAD
1000
DesignCenter Data
1002
{
1070
     1
1070
     4
1002
}
  0
BLOCK_RECORD
  5
9FE64
330
1
100
AcDbSymbolTableRecord
100
AcDbBlockTableRecord
  2
qweqweee
340
0
310
2800000020000000200000000100080000000000000400000000000000000000000000000000000000000000000080000080000000808000800000008000800080800000C0C0C000C0DCC000F0CAA6000020400000206000002080000020A0000020C0000020E00000400000004020000040400000406000004080000040A0
310
000040C0000040E00000600000006020000060400000606000006080000060A0000060C0000060E00000800000008020000080400000806000008080000080A0000080C0000080E00000A0000000A0200000A0400000A0600000A0800000A0A00000A0C00000A0E00000C0000000C0200000C0400000C0600000C0800000C0
310
A00000C0C00000C0E00000E0000000E0200000E0400000E0600000E0800000E0A00000E0C00000E0E00040000000400020004000400040006000400080004000A0004000C0004000E00040200000402020004020400040206000402080004020A0004020C0004020E000404000004040200040404000404060004040800040
310
40A0004040C0004040E00040600000406020004060400040606000406080004060A0004060C0004060E00040800000408020004080400040806000408080004080A0004080C0004080E00040A0000040A0200040A0400040A0600040A0800040A0A00040A0C00040A0E00040C0000040C0200040C0400040C0600040C08000
310
40C0A00040C0C00040C0E00040E0000040E0200040E0400040E0600040E0800040E0A00040E0C00040E0E00080000000800020008000400080006000800080008000A0008000C0008000E00080200000802020008020400080206000802080008020A0008020C0008020E00080400000804020008040400080406000804080
310
008040A0008040C0008040E00080600000806020008060400080606000806080008060A0008060C0008060E00080800000808020008080400080806000808080008080A0008080C0008080E00080A0000080A0200080A0400080A0600080A0800080A0A00080A0C00080A0E00080C0000080C0200080C0400080C0600080C0
310
800080C0A00080C0C00080C0E00080E0000080E0200080E0400080E0600080E0800080E0A00080E0C00080E0E000C0000000C0002000C0004000C0006000C0008000C000A000C000C000C000E000C0200000C0202000C0204000C0206000C0208000C020A000C020C000C020E000C0400000C0402000C0404000C0406000C0
310
408000C040A000C040C000C040E000C0600000C0602000C0604000C0606000C0608000C060A000C060C000C060E000C0800000C0802000C0804000C0806000C0808000C080A000C080C000C080E000C0A00000C0A02000C0A04000C0A06000C0A08000C0A0A000C0A0C000C0A0E000C0C00000C0C02000C0C04000C0C06000
310
C0C08000C0C0A000F0FBFF00A4A0A000808080000000FF0000FF000000FFFF00FF000000FF00FF00FFFF0000FFFFFF00494949494949494949494949494949494949494949494949494949494949494949FEFEFEFEFEFEFEFEFEFEFEFEFEFEFEFEFEFEFEFEFEFEFEFEFEFEFEFEFE494949FEFEFEFEFEFEFEFEFEFEFEFEFEFE
310
FEFEFEFEFEFEFEFEFEFEFEFEFEFEFEFE4949FEFEFEFEFEFEFEFEFEFEFEFEFEFEFEFEFEFEFEFEFEFEFEFEFEFEFEFEFEFE4949FEFEFEFEFEFEFEFEFEFEFEFEFEFEFEFEFEFEFEFEFEFEFEFEFEFEFEFEFEFE4949FEFEFEFEFEFEFEFEFEFEFEFEFEFEFEFEFEFEFEFEFEFEFEFEFEFEFEFEFEFE4949FEFEFEFEFEFEFEFEFEFEFEFEFE
310
FEFEFEFEFEFEFEFEFEFEFEFEFEFEFEFEFE4949FEFEFEFEFEFEFEFEFEFEFEFEFEFEFEFEFEFEFEFEFEFEFEFEFEFEFEFEFEFE4949FEFEFEFEFEFEFEFEFEFEFEFEFEFEFEFEFEFEFEFEFEFEFEFEFEFEFEFEFEFE4949FEFEFEFEFEFEFEFEFEFEFEFEFEFEFEFEFEFEFEFEFEFEFEFEFEFEFEFEFEFE4949FEFEFEFEFEFEFEFEFEFEFEFE
310
FEFEFEFEFEFEFEFEFEFEFEFEFEFEFEFEFEFE4949FEFEFEFEFEFEFEFEFEFEFEFEFEFEFEFEFEFEFEFEFEFEFEFEFEFEFEFEFEFE4949FEFEFEFEFEFEFEFEFEFEFEFEFEFEFEFEFEFEFEFEFEFEFEFEFEFEFEFEFEFE4949FEFEFEFEFEFEFEFEFEFEFEFEFEFEFEFEFEFEFEFEFEFEFEFEFEFEFEFEFEFE4949FEFEFEFEFEFEFEFEFEFEFE
310
FEFEFEFEFEFEFEFEFEFEFEFEFEFEFEFEFEFEFE4949FEFEFEFEFEFEFEFEFEFEFEFEFEFEFEFEFEFEFEFEFEFEFEFEFEFEFEFEFEFE4949FEFEFEFEFEFEFEFEFEFEFEFEFEFEFEFEFEFEFEFEFEFEFEFEFEFEFEFEFEFE4949FEFEFEFEFEFEFEFEFEFEFEFEFEFEFEFEFEFEFEFEFEFEFEFEFEFEFEFEFEFE4949FEFEFEFEFEFEFEFEFEFE
310
FEFEFEFEFEFEFEFEFEFEFEFEFEFEFEFEFEFEFEFE4949FEFEFEFEFEFEFEFEFEFEFEFEFEFEFEFEFEFEFEFEFEFEFEFEFEFEFEFEFEFE4949FEFEFEFEFEFEFEFEFEFEFEFEFEFEFEFEFEFEFEFEFEFEFEFEFEFEFEFEFEFE4949FEFEFEFEFEFEFEFEFEFEFEFEFEFEFEFEFEFEFEFEFEFEFEFEFEFEFEFEFEFE4949FEFEFEFEFEFEFEFEFE
310
FEFEFEFEFEFEFEFEFEFEFEFEFEFEFEFEFEFEFEFEFE4949FEFEFEFEFEFEFEFEFEFEFEFEFEFEFEFEFEFEFEFEFEFEFEFEFEFEFEFEFEFE4949FEFEFEFEFEFEFEFEFEFEFEFEFEFEFEFEFEFEFEFEFEFEFEFEFEFEFEFEFEFE4949FEFEFEFEFEFEFEFEFEFEFEFEFEFEFEFEFEFEFEFEFEFEFEFEFEFEFEFEFEFE4949FEFEFEFEFEFEFEFE
310
FEFEFEFEFEFEFEFEFEFEFEFEFEFEFEFEFEFEFEFEFEFE4949FEFEFEFEFEFEFEFEFEFEFEFEFEFEFEFEFEFEFEFEFEFEFEFEFEFEFEFEFEFE4949FEFEFEFEFEFEFEFEFEFEFEFEFEFEFEFEFEFEFEFEFEFEFEFEFEFEFEFEFEFE4949FEFEFEFEFEFEFEFEFEFEFEFEFEFEFEFEFEFEFEFEFEFEFEFEFEFEFEFEFEFE4949FEFEFEFEFEFEFE
310
FEFEFEFEFEFEFEFEFEFEFEFEFEFEFEFEFEFEFEFEFEFE49494949494949494949494949494949494949494949494949494949494949494949
102
{BLKREFS
331
A0145
102
}
1001
ACAD
1000
DesignCenter Data
1002
{
1070
     1
1070
     4
1002
}
  0
ENDTAB
  0
ENDSEC
  0
SECTION
  2
BLOCKS
  0
BLOCK
  5
6D
330
6C
100
AcDbEntity
  8
0
100
AcDbBlockBegin
  2
*Model_Space
 70
     0
 10
0.0
 20
0.0
 30
0.0
  3
*Model_Space
  1

  0
ENDBLK
  5
6E
330
6C
100
AcDbEntity
  8
0
100
AcDbBlockEnd
  0
BLOCK
  5
69
330
68
100
AcDbEntity
 67
     1
  8
0
100
AcDbBlockBegin
  2
*Paper_Space
 70
     0
 10
0.0
 20
0.0
 30
0.0
  3
*Paper_Space
  1

  0
ENDBLK
  5
6A
330
68
100
AcDbEntity
 67
     1
  8
0
100
AcDbBlockEnd
  0
BLOCK
  5
71
330
70
100
AcDbEntity
 67
     1
  8
0
100
AcDbBlockBegin
  2
*Paper_Space0
 70
     0
 10
0.0
 20
0.0
 30
0.0
  3
*Paper_Space0
  1

  0
ENDBLK
  5
72
330
70
100
AcDbEntity
 67
     1
  8
0
100
AcDbBlockEnd
  0
BLOCK
  5
86765
330
86763
100
AcDbEntity
  8
0
100
AcDbBlockBegin
  2
GENAXEH
 70
     0
 10
0.0
 20
0.0
 30
0.0
  3
GENAXEH
  1

  0
LINE
  5
86764
330
86763
100
AcDbEntity
  8
0
100
AcDbLine
 10
-1.0
 20
0.0
 30
0.0
 11
1.0
 21
0.0
 31
0.0
  0
ENDBLK
  5
86766
330
86763
100
AcDbEntity
  8
0
100
AcDbBlockEnd
  0
BLOCK
  5
9F266
330
9F263
100
AcDbEntity
  8
0
 62
     4
100
AcDbBlockBegin
  2
gggr
 70
     0
 10
0.0
 20
0.0
 30
0.0
  3
gggr
  1

  0
LINE
  5
9F267
330
9F263
100
AcDbEntity
  8
0
 62
     4
100
AcDbLine
 10
17916.25157304843
 20
957.0037572179572
 30
0.0
 11
18007.25157304843
 21
957.0037572179572
 31
0.0
  0
LINE
  5
9F268
330
9F263
100
AcDbEntity
  8
0
 62
     4
100
AcDbLine
 10
18007.25157304843
 20
957.0037572179572
 30
0.0
 11
18007.25157304843
 21
932.0037572179572
 31
0.0
  0
LINE
  5
9F269
330
9F263
100
AcDbEntity
  8
0
 62
     4
100
AcDbLine
 10
18007.25157304843
 20
932.0037572179572
 30
0.0
 11
17916.25157304843
 21
932.0037572179572
 31
0.0
  0
LINE
  5
9F26A
330
9F263
100
AcDbEntity
  8
0
 62
     4
100
AcDbLine
 10
17916.25157304843
 20
932.0037572179572
 30
0.0
 11
17916.25157304843
 21
957.0037572179572
 31
0.0
  0
ENDBLK
  5
9F26B
330
9F263
100
AcDbEntity
  8
0
 62
     4
100
AcDbBlockEnd
  0
BLOCK
  5
9FCDD
330
9FCDC
100
AcDbEntity
  8
0
100
AcDbBlockBegin
  2
sdasddd
 70
     0
 10
0.0
 20
0.0
 30
0.0
  3
sdasddd
  1

  0
LINE
  5
9FCDF
330
9FCDC
100
AcDbEntity
  8
0
 62
     4
100
AcDbLine
 10
15457.10791085669
 20
-1149.618889543066
 30
0.0
 11
15457.10791085669
 21
-1174.618889543066
 31
0.0
  0
LINE
  5
9FCE0
330
9FCDC
100
AcDbEntity
  8
0
 62
     4
100
AcDbLine
 10
15457.10791085669
 20
-1174.618889543066
 30
0.0
 11
15397.40937876067
 21
-1174.618889543066
 31
0.0
  0
LINE
  5
9FCE1
330
9FCDC
100
AcDbEntity
  8
0
 62
     4
100
AcDbLine
 10
15457.10791085669
 20
-1149.618889543066
 30
0.0
 11
15397.40937876067
 21
-1149.618889543066
 31
0.0
  0
ENDBLK
  5
9FCDE
330
9FCDC
100
AcDbEntity
  8
0
100
AcDbBlockEnd
  0
BLOCK
  5
9FD71
330
9FD70
100
AcDbEntity
  8
0
100
AcDbBlockBegin
  2
sdffffr
 70
     0
 10
0.0
 20
0.0
 30
0.0
  3
sdffffr
  1

  0
LINE
  5
9FD73
330
9FD70
100
AcDbEntity
  8
0
 62
     4
100
AcDbLine
 10
16861.10791085669
 20
-1124.618889543066
 30
0.0
 11
16922.40937876056
 21
-1124.618889543066
 31
0.0
  0
LINE
  5
9FD74
330
9FD70
100
AcDbEntity
  8
0
 62
     4
100
AcDbLine
 10
16922.40937876056
 20
-1149.618889543066
 30
0.0
 11
16861.10791085669
 21
-1149.618889543066
 31
0.0
  0
LINE
  5
9FD75
330
9FD70
100
AcDbEntity
  8
0
 62
     4
100
AcDbLine
 10
16861.10791085669
 20
-1149.618889543066
 30
0.0
 11
16861.10791085669
 21
-1124.618889543066
 31
0.0
  0
ENDBLK
  5
9FD72
330
9FD70
100
AcDbEntity
  8
0
100
AcDbBlockEnd
  0
BLOCK
  5
9FE65
330
9FE64
100
AcDbEntity
  8
0
100
AcDbBlockBegin
  2
qweqweee
 70
     0
 10
0.0
 20
0.0
 30
0.0
  3
qweqweee
  1

  0
INSERT
  5
9FE67
330
9FE64
100
AcDbEntity
  8
0
 62
     7
100
AcDbBlockReference
  2
gggr
 10
-2485.143662191742
 20
-2231.622646761023
 30
0.0
  0
INSERT
  5
9FE68
330
9FE64
100
AcDbEntity
  8
0
 62
     7
100
AcDbBlockReference
  2
gggr
 10
-2420.143662191742
 20
-2256.622646761023
 30
0.0
  0
INSERT
  5
9FE69
330
9FE64
100
AcDbEntity
  8
0
 62
     7
100
AcDbBlockReference
  2
gggr
 10
-2485.143662191742
 20
-2281.622646761023
 30
0.0
  0
INSERT
  5
9FE6A
330
9FE64
100
AcDbEntity
  8
0
 62
     7
100
AcDbBlockReference
  2
gggr
 10
-2420.143662191742
 20
-2306.622646761023
 30
0.0
  0
INSERT
  5
9FE6B
330
9FE64
100
AcDbEntity
  8
0
 62
     7
100
AcDbBlockReference
  2
gggr
 10
-2485.143662191742
 20
-2331.622646761023
 30
0.0
  0
INSERT
  5
9FE6C
330
9FE64
100
AcDbEntity
  8
0
 62
     7
100
AcDbBlockReference
  2
gggr
 10
-2420.143662191742
 20
-2356.622646761023
 30
0.0
  0
INSERT
  5
9FE6D
330
9FE64
100
AcDbEntity
  8
0
 62
     7
100
AcDbBlockReference
  2
gggr
 10
-2485.143662191742
 20
-2381.622646761023
 30
0.0
  0
INSERT
  5
9FE6E
330
9FE64
100
AcDbEntity
  8
0
 62
     7
100
AcDbBlockReference
  2
gggr
 10
-2420.143662191742
 20
-2406.622646761023
 30
0.0
  0
INSERT
  5
9FE6F
330
9FE64
100
AcDbEntity
  8
0
 62
     7
100
AcDbBlockReference
  2
gggr
 10
-2485.143662191742
 20
-2431.622646761023
 30
0.0
  0
INSERT
  5
9FE70
330
9FE64
100
AcDbEntity
  8
0
 62
     7
100
AcDbBlockReference
  2
gggr
 10
-2420.143662191742
 20
-2456.622646761023
 30
0.0
  0
INSERT
  5
9FE71
330
9FE64
100
AcDbEntity
  8
0
 62
     7
100
AcDbBlockReference
  2
gggr
 10
-2485.143662191742
 20
-2481.622646761023
 30
0.0
  0
INSERT
  5
9FE72
330
9FE64
100
AcDbEntity
  8
0
 62
     7
100
AcDbBlockReference
  2
gggr
 10
-2420.143662191742
 20
-2506.622646761023
 30
0.0
  0
INSERT
  5
9FE73
330
9FE64
100
AcDbEntity
  8
0
 62
     7
100
AcDbBlockReference
  2
gggr
 10
-2485.143662191742
 20
-2531.622646761023
 30
0.0
  0
INSERT
  5
9FE74
330
9FE64
100
AcDbEntity
  8
0
 62
     7
100
AcDbBlockReference
  2
gggr
 10
-2420.143662191742
 20
-2556.622646761023
 30
0.0
  0
INSERT
  5
9FE75
330
9FE64
100
AcDbEntity
  8
0
 62
     7
100
AcDbBlockReference
  2
gggr
 10
-2485.143662191742
 20
-2581.622646761023
 30
0.0
  0
INSERT
  5
9FE76
330
9FE64
100
AcDbEntity
  8
0
 62
     7
100
AcDbBlockReference
  2
gggr
 10
-2420.143662191742
 20
-2606.622646761023
 30
0.0
  0
INSERT
  5
9FE77
330
9FE64
100
AcDbEntity
  8
0
 62
     7
100
AcDbBlockReference
  2
gggr
 10
-2485.143662191742
 20
-2631.622646761023
 30
0.0
  0
INSERT
  5
9FE78
330
9FE64
100
AcDbEntity
  8
0
 62
     7
100
AcDbBlockReference
  2
gggr
 10
-2420.143662191742
 20
-2656.622646761023
 30
0.0
  0
INSERT
  5
9FE79
330
9FE64
100
AcDbEntity
  8
0
 62
     7
100
AcDbBlockReference
  2
gggr
 10
-2485.143662191742
 20
-2681.622646761023
 30
0.0
  0
INSERT
  5
9FE7A
330
9FE64
100
AcDbEntity
  8
0
 62
     7
100
AcDbBlockReference
  2
gggr
 10
-2420.143662191742
 20
-2706.622646761023
 30
0.0
  0
INSERT
  5
9FE7B
330
9FE64
100
AcDbEntity
  8
0
 62
     7
100
AcDbBlockReference
  2
gggr
 10
-2485.143662191742
 20
-2731.622646761023
 30
0.0
  0
INSERT
  5
9FE7C
330
9FE64
100
AcDbEntity
  8
0
 62
     7
100
AcDbBlockReference
  2
gggr
 10
-2420.143662191742
 20
-2756.622646761023
 30
0.0
  0
INSERT
  5
9FE7D
330
9FE64
100
AcDbEntity
  8
0
 62
     7
100
AcDbBlockReference
  2
gggr
 10
-2485.143662191742
 20
-2781.622646761023
 30
0.0
  0
INSERT
  5
9FE7E
330
9FE64
100
AcDbEntity
  8
0
 62
     7
100
AcDbBlockReference
  2
gggr
 10
-2420.143662191742
 20
-2806.622646761023
 30
0.0
  0
INSERT
  5
9FE7F
330
9FE64
100
AcDbEntity
  8
0
 62
     7
100
AcDbBlockReference
  2
gggr
 10
-2485.143662191742
 20
-2831.622646761023
 30
0.0
  0
INSERT
  5
9FE80
330
9FE64
100
AcDbEntity
  8
0
 62
     7
100
AcDbBlockReference
  2
gggr
 10
-2420.143662191742
 20
-2856.622646761023
 30
0.0
  0
INSERT
  5
9FE81
330
9FE64
100
AcDbEntity
  8
0
 62
     7
100
AcDbBlockReference
  2
gggr
 10
-2485.143662191742
 20
-2881.622646761023
 30
0.0
  0
INSERT
  5
9FE82
330
9FE64
100
AcDbEntity
  8
0
 62
     7
100
AcDbBlockReference
  2
gggr
 10
-2420.143662191742
 20
-2906.622646761023
 30
0.0
  0
INSERT
  5
9FE83
330
9FE64
100
AcDbEntity
  8
0
 62
     7
100
AcDbBlockReference
  2
gggr
 10
-2355.143662191742
 20
-2231.622646761023
 30
0.0
  0
INSERT
  5
9FE84
330
9FE64
100
AcDbEntity
  8
0
 62
     7
100
AcDbBlockReference
  2
gggr
 10
-2290.143662191742
 20
-2256.622646761023
 30
0.0
  0
INSERT
  5
9FE85
330
9FE64
100
AcDbEntity
  8
0
 62
     7
100
AcDbBlockReference
  2
gggr
 10
-2355.143662191742
 20
-2281.622646761023
 30
0.0
  0
INSERT
  5
9FE86
330
9FE64
100
AcDbEntity
  8
0
 62
     7
100
AcDbBlockReference
  2
gggr
 10
-2290.143662191742
 20
-2306.622646761023
 30
0.0
  0
INSERT
  5
9FE87
330
9FE64
100
AcDbEntity
  8
0
 62
     7
100
AcDbBlockReference
  2
gggr
 10
-2355.143662191742
 20
-2331.622646761023
 30
0.0
  0
INSERT
  5
9FE88
330
9FE64
100
AcDbEntity
  8
0
 62
     7
100
AcDbBlockReference
  2
gggr
 10
-2290.143662191742
 20
-2356.622646761023
 30
0.0
  0
INSERT
  5
9FE89
330
9FE64
100
AcDbEntity
  8
0
 62
     7
100
AcDbBlockReference
  2
gggr
 10
-2355.143662191742
 20
-2381.622646761023
 30
0.0
  0
INSERT
  5
9FE8A
330
9FE64
100
AcDbEntity
  8
0
 62
     7
100
AcDbBlockReference
  2
gggr
 10
-2290.143662191742
 20
-2406.622646761023
 30
0.0
  0
INSERT
  5
9FE8B
330
9FE64
100
AcDbEntity
  8
0
 62
     7
100
AcDbBlockReference
  2
gggr
 10
-2355.143662191742
 20
-2431.622646761023
 30
0.0
  0
INSERT
  5
9FE8C
330
9FE64
100
AcDbEntity
  8
0
 62
     7
100
AcDbBlockReference
  2
gggr
 10
-2290.143662191742
 20
-2456.622646761023
 30
0.0
  0
INSERT
  5
9FE8D
330
9FE64
100
AcDbEntity
  8
0
 62
     7
100
AcDbBlockReference
  2
gggr
 10
-2355.143662191742
 20
-2481.622646761023
 30
0.0
  0
INSERT
  5
9FE8E
330
9FE64
100
AcDbEntity
  8
0
 62
     7
100
AcDbBlockReference
  2
gggr
 10
-2290.143662191742
 20
-2506.622646761023
 30
0.0
  0
INSERT
  5
9FE8F
330
9FE64
100
AcDbEntity
  8
0
 62
     7
100
AcDbBlockReference
  2
gggr
 10
-2355.143662191742
 20
-2531.622646761023
 30
0.0
  0
INSERT
  5
9FE90
330
9FE64
100
AcDbEntity
  8
0
 62
     7
100
AcDbBlockReference
  2
gggr
 10
-2290.143662191742
 20
-2556.622646761023
 30
0.0
  0
INSERT
  5
9FE91
330
9FE64
100
AcDbEntity
  8
0
 62
     7
100
AcDbBlockReference
  2
gggr
 10
-2355.143662191742
 20
-2581.622646761023
 30
0.0
  0
INSERT
  5
9FE92
330
9FE64
100
AcDbEntity
  8
0
 62
     7
100
AcDbBlockReference
  2
gggr
 10
-2290.143662191742
 20
-2606.622646761023
 30
0.0
  0
INSERT
  5
9FE93
330
9FE64
100
AcDbEntity
  8
0
 62
     7
100
AcDbBlockReference
  2
gggr
 10
-2355.143662191742
 20
-2631.622646761023
 30
0.0
  0
INSERT
  5
9FE94
330
9FE64
100
AcDbEntity
  8
0
 62
     7
100
AcDbBlockReference
  2
gggr
 10
-2290.143662191742
 20
-2656.622646761023
 30
0.0
  0
INSERT
  5
9FE95
330
9FE64
100
AcDbEntity
  8
0
 62
     7
100
AcDbBlockReference
  2
gggr
 10
-2355.143662191742
 20
-2681.622646761023
 30
0.0
  0
INSERT
  5
9FE96
330
9FE64
100
AcDbEntity
  8
0
 62
     7
100
AcDbBlockReference
  2
gggr
 10
-2290.143662191742
 20
-2706.622646761023
 30
0.0
  0
INSERT
  5
9FE97
330
9FE64
100
AcDbEntity
  8
0
 62
     7
100
AcDbBlockReference
  2
gggr
 10
-2355.143662191742
 20
-2731.622646761023
 30
0.0
  0
INSERT
  5
9FE98
330
9FE64
100
AcDbEntity
  8
0
 62
     7
100
AcDbBlockReference
  2
gggr
 10
-2290.143662191742
 20
-2756.622646761023
 30
0.0
  0
INSERT
  5
9FE99
330
9FE64
100
AcDbEntity
  8
0
 62
     7
100
AcDbBlockReference
  2
gggr
 10
-2355.143662191742
 20
-2781.622646761023
 30
0.0
  0
INSERT
  5
9FE9A
330
9FE64
100
AcDbEntity
  8
0
 62
     7
100
AcDbBlockReference
  2
gggr
 10
-2290.143662191742
 20
-2806.622646761023
 30
0.0
  0
INSERT
  5
9FE9B
330
9FE64
100
AcDbEntity
  8
0
 62
     7
100
AcDbBlockReference
  2
gggr
 10
-2355.143662191742
 20
-2831.622646761023
 30
0.0
  0
INSERT
  5
9FE9C
330
9FE64
100
AcDbEntity
  8
0
 62
     7
100
AcDbBlockReference
  2
gggr
 10
-2290.143662191742
 20
-2856.622646761023
 30
0.0
  0
INSERT
  5
9FE9D
330
9FE64
100
AcDbEntity
  8
0
 62
     7
100
AcDbBlockReference
  2
gggr
 10
-2355.143662191742
 20
-2881.622646761023
 30
0.0
  0
INSERT
  5
9FE9E
330
9FE64
100
AcDbEntity
  8
0
 62
     7
100
AcDbBlockReference
  2
gggr
 10
-2290.143662191742
 20
-2906.622646761023
 30
0.0
  0
INSERT
  5
9FE9F
330
9FE64
100
AcDbEntity
  8
0
 62
     7
100
AcDbBlockReference
  2
gggr
 10
-2225.143662191742
 20
-2231.622646761023
 30
0.0
  0
INSERT
  5
9FEA0
330
9FE64
100
AcDbEntity
  8
0
 62
     7
100
AcDbBlockReference
  2
gggr
 10
-2160.143662191742
 20
-2256.622646761023
 30
0.0
  0
INSERT
  5
9FEA1
330
9FE64
100
AcDbEntity
  8
0
 62
     7
100
AcDbBlockReference
  2
gggr
 10
-2225.143662191742
 20
-2281.622646761023
 30
0.0
  0
INSERT
  5
9FEA2
330
9FE64
100
AcDbEntity
  8
0
 62
     7
100
AcDbBlockReference
  2
gggr
 10
-2160.143662191742
 20
-2306.622646761023
 30
0.0
  0
INSERT
  5
9FEA3
330
9FE64
100
AcDbEntity
  8
0
 62
     7
100
AcDbBlockReference
  2
gggr
 10
-2225.143662191742
 20
-2331.622646761023
 30
0.0
  0
INSERT
  5
9FEA4
330
9FE64
100
AcDbEntity
  8
0
 62
     7
100
AcDbBlockReference
  2
gggr
 10
-2160.143662191742
 20
-2356.622646761023
 30
0.0
  0
INSERT
  5
9FEA5
330
9FE64
100
AcDbEntity
  8
0
 62
     7
100
AcDbBlockReference
  2
gggr
 10
-2225.143662191742
 20
-2381.622646761023
 30
0.0
  0
INSERT
  5
9FEA6
330
9FE64
100
AcDbEntity
  8
0
 62
     7
100
AcDbBlockReference
  2
gggr
 10
-2160.143662191742
 20
-2406.622646761023
 30
0.0
  0
INSERT
  5
9FEA7
330
9FE64
100
AcDbEntity
  8
0
 62
     7
100
AcDbBlockReference
  2
gggr
 10
-2225.143662191742
 20
-2431.622646761023
 30
0.0
  0
INSERT
  5
9FEA8
330
9FE64
100
AcDbEntity
  8
0
 62
     7
100
AcDbBlockReference
  2
gggr
 10
-2160.143662191742
 20
-2456.622646761023
 30
0.0
  0
INSERT
  5
9FEA9
330
9FE64
100
AcDbEntity
  8
0
 62
     7
100
AcDbBlockReference
  2
gggr
 10
-2225.143662191742
 20
-2481.622646761023
 30
0.0
  0
INSERT
  5
9FEAA
330
9FE64
100
AcDbEntity
  8
0
 62
     7
100
AcDbBlockReference
  2
gggr
 10
-2160.143662191742
 20
-2506.622646761023
 30
0.0
  0
INSERT
  5
9FEAB
330
9FE64
100
AcDbEntity
  8
0
 62
     7
100
AcDbBlockReference
  2
gggr
 10
-2225.143662191742
 20
-2531.622646761023
 30
0.0
  0
INSERT
  5
9FEAC
330
9FE64
100
AcDbEntity
  8
0
 62
     7
100
AcDbBlockReference
  2
gggr
 10
-2160.143662191742
 20
-2556.622646761023
 30
0.0
  0
INSERT
  5
9FEAD
330
9FE64
100
AcDbEntity
  8
0
 62
     7
100
AcDbBlockReference
  2
gggr
 10
-2225.143662191742
 20
-2581.622646761023
 30
0.0
  0
INSERT
  5
9FEAE
330
9FE64
100
AcDbEntity
  8
0
 62
     7
100
AcDbBlockReference
  2
gggr
 10
-2160.143662191742
 20
-2606.622646761023
 30
0.0
  0
INSERT
  5
9FEAF
330
9FE64
100
AcDbEntity
  8
0
 62
     7
100
AcDbBlockReference
  2
gggr
 10
-2225.143662191742
 20
-2631.622646761023
 30
0.0
  0
INSERT
  5
9FEB0
330
9FE64
100
AcDbEntity
  8
0
 62
     7
100
AcDbBlockReference
  2
gggr
 10
-2160.143662191742
 20
-2656.622646761023
 30
0.0
  0
INSERT
  5
9FEB1
330
9FE64
100
AcDbEntity
  8
0
 62
     7
100
AcDbBlockReference
  2
gggr
 10
-2225.143662191742
 20
-2681.622646761023
 30
0.0
  0
INSERT
  5
9FEB2
330
9FE64
100
AcDbEntity
  8
0
 62
     7
100
AcDbBlockReference
  2
gggr
 10
-2160.143662191742
 20
-2706.622646761023
 30
0.0
  0
INSERT
  5
9FEB3
330
9FE64
100
AcDbEntity
  8
0
 62
     7
100
AcDbBlockReference
  2
gggr
 10
-2225.143662191742
 20
-2731.622646761023
 30
0.0
  0
INSERT
  5
9FEB4
330
9FE64
100
AcDbEntity
  8
0
 62
     7
100
AcDbBlockReference
  2
gggr
 10
-2160.143662191742
 20
-2756.622646761023
 30
0.0
  0
INSERT
  5
9FEB5
330
9FE64
100
AcDbEntity
  8
0
 62
     7
100
AcDbBlockReference
  2
gggr
 10
-2225.143662191742
 20
-2781.622646761023
 30
0.0
  0
INSERT
  5
9FEB6
330
9FE64
100
AcDbEntity
  8
0
 62
     7
100
AcDbBlockReference
  2
gggr
 10
-2160.143662191742
 20
-2806.622646761023
 30
0.0
  0
INSERT
  5
9FEB7
330
9FE64
100
AcDbEntity
  8
0
 62
     7
100
AcDbBlockReference
  2
gggr
 10
-2225.143662191742
 20
-2831.622646761023
 30
0.0
  0
INSERT
  5
9FEB8
330
9FE64
100
AcDbEntity
  8
0
 62
     7
100
AcDbBlockReference
  2
gggr
 10
-2160.143662191742
 20
-2856.622646761023
 30
0.0
  0
INSERT
  5
9FEB9
330
9FE64
100
AcDbEntity
  8
0
 62
     7
100
AcDbBlockReference
  2
gggr
 10
-2225.143662191742
 20
-2881.622646761023
 30
0.0
  0
INSERT
  5
9FEBA
330
9FE64
100
AcDbEntity
  8
0
 62
     7
100
AcDbBlockReference
  2
gggr
 10
-2160.143662191742
 20
-2906.622646761023
 30
0.0
  0
INSERT
  5
9FEBB
330
9FE64
100
AcDbEntity
  8
0
 62
     7
100
AcDbBlockReference
  2
gggr
 10
-2095.143662191742
 20
-2231.622646761023
 30
0.0
  0
INSERT
  5
9FEBC
330
9FE64
100
AcDbEntity
  8
0
 62
     7
100
AcDbBlockReference
  2
gggr
 10
-2030.143662191742
 20
-2256.622646761023
 30
0.0
  0
INSERT
  5
9FEBD
330
9FE64
100
AcDbEntity
  8
0
 62
     7
100
AcDbBlockReference
  2
gggr
 10
-2095.143662191742
 20
-2281.622646761023
 30
0.0
  0
INSERT
  5
9FEBE
330
9FE64
100
AcDbEntity
  8
0
 62
     7
100
AcDbBlockReference
  2
gggr
 10
-2030.143662191742
 20
-2306.622646761023
 30
0.0
  0
INSERT
  5
9FEBF
330
9FE64
100
AcDbEntity
  8
0
 62
     7
100
AcDbBlockReference
  2
gggr
 10
-2095.143662191742
 20
-2331.622646761023
 30
0.0
  0
INSERT
  5
9FEC0
330
9FE64
100
AcDbEntity
  8
0
 62
     7
100
AcDbBlockReference
  2
gggr
 10
-2030.143662191742
 20
-2356.622646761023
 30
0.0
  0
INSERT
  5
9FEC1
330
9FE64
100
AcDbEntity
  8
0
 62
     7
100
AcDbBlockReference
  2
gggr
 10
-2095.143662191742
 20
-2381.622646761023
 30
0.0
  0
INSERT
  5
9FEC2
330
9FE64
100
AcDbEntity
  8
0
 62
     7
100
AcDbBlockReference
  2
gggr
 10
-2030.143662191742
 20
-2406.622646761023
 30
0.0
  0
INSERT
  5
9FEC3
330
9FE64
100
AcDbEntity
  8
0
 62
     7
100
AcDbBlockReference
  2
gggr
 10
-2095.143662191742
 20
-2431.622646761023
 30
0.0
  0
INSERT
  5
9FEC4
330
9FE64
100
AcDbEntity
  8
0
 62
     7
100
AcDbBlockReference
  2
gggr
 10
-2030.143662191742
 20
-2456.622646761023
 30
0.0
  0
INSERT
  5
9FEC5
330
9FE64
100
AcDbEntity
  8
0
 62
     7
100
AcDbBlockReference
  2
gggr
 10
-2095.143662191742
 20
-2481.622646761023
 30
0.0
  0
INSERT
  5
9FEC6
330
9FE64
100
AcDbEntity
  8
0
 62
     7
100
AcDbBlockReference
  2
gggr
 10
-2030.143662191742
 20
-2506.622646761023
 30
0.0
  0
INSERT
  5
9FEC7
330
9FE64
100
AcDbEntity
  8
0
 62
     7
100
AcDbBlockReference
  2
gggr
 10
-2095.143662191742
 20
-2531.622646761023
 30
0.0
  0
INSERT
  5
9FEC8
330
9FE64
100
AcDbEntity
  8
0
 62
     7
100
AcDbBlockReference
  2
gggr
 10
-2030.143662191742
 20
-2556.622646761023
 30
0.0
  0
INSERT
  5
9FEC9
330
9FE64
100
AcDbEntity
  8
0
 62
     7
100
AcDbBlockReference
  2
gggr
 10
-2095.143662191742
 20
-2581.622646761023
 30
0.0
  0
INSERT
  5
9FECA
330
9FE64
100
AcDbEntity
  8
0
 62
     7
100
AcDbBlockReference
  2
gggr
 10
-2030.143662191742
 20
-2606.622646761023
 30
0.0
  0
INSERT
  5
9FECB
330
9FE64
100
AcDbEntity
  8
0
 62
     7
100
AcDbBlockReference
  2
gggr
 10
-2095.143662191742
 20
-2631.622646761023
 30
0.0
  0
INSERT
  5
9FECC
330
9FE64
100
AcDbEntity
  8
0
 62
     7
100
AcDbBlockReference
  2
gggr
 10
-2030.143662191742
 20
-2656.622646761023
 30
0.0
  0
INSERT
  5
9FECD
330
9FE64
100
AcDbEntity
  8
0
 62
     7
100
AcDbBlockReference
  2
gggr
 10
-2095.143662191742
 20
-2681.622646761023
 30
0.0
  0
INSERT
  5
9FECE
330
9FE64
100
AcDbEntity
  8
0
 62
     7
100
AcDbBlockReference
  2
gggr
 10
-2030.143662191742
 20
-2706.622646761023
 30
0.0
  0
INSERT
  5
9FECF
330
9FE64
100
AcDbEntity
  8
0
 62
     7
100
AcDbBlockReference
  2
gggr
 10
-2095.143662191742
 20
-2731.622646761023
 30
0.0
  0
INSERT
  5
9FED0
330
9FE64
100
AcDbEntity
  8
0
 62
     7
100
AcDbBlockReference
  2
gggr
 10
-2030.143662191742
 20
-2756.622646761023
 30
0.0
  0
INSERT
  5
9FED1
330
9FE64
100
AcDbEntity
  8
0
 62
     7
100
AcDbBlockReference
  2
gggr
 10
-2095.143662191742
 20
-2781.622646761023
 30
0.0
  0
INSERT
  5
9FED2
330
9FE64
100
AcDbEntity
  8
0
 62
     7
100
AcDbBlockReference
  2
gggr
 10
-2030.143662191742
 20
-2806.622646761023
 30
0.0
  0
INSERT
  5
9FED3
330
9FE64
100
AcDbEntity
  8
0
 62
     7
100
AcDbBlockReference
  2
gggr
 10
-2095.143662191742
 20
-2831.622646761023
 30
0.0
  0
INSERT
  5
9FED4
330
9FE64
100
AcDbEntity
  8
0
 62
     7
100
AcDbBlockReference
  2
gggr
 10
-2030.143662191742
 20
-2856.622646761023
 30
0.0
  0
INSERT
  5
9FED5
330
9FE64
100
AcDbEntity
  8
0
 62
     7
100
AcDbBlockReference
  2
gggr
 10
-2095.143662191742
 20
-2881.622646761023
 30
0.0
  0
INSERT
  5
9FED6
330
9FE64
100
AcDbEntity
  8
0
 62
     7
100
AcDbBlockReference
  2
gggr
 10
-2030.143662191742
 20
-2906.622646761023
 30
0.0
  0
INSERT
  5
9FED7
330
9FE64
100
AcDbEntity
  8
0
 62
     7
100
AcDbBlockReference
  2
gggr
 10
-1965.143662191742
 20
-2231.622646761023
 30
0.0
  0
INSERT
  5
9FED8
330
9FE64
100
AcDbEntity
  8
0
 62
     7
100
AcDbBlockReference
  2
gggr
 10
-1900.143662191742
 20
-2256.622646761023
 30
0.0
  0
INSERT
  5
9FED9
330
9FE64
100
AcDbEntity
  8
0
 62
     7
100
AcDbBlockReference
  2
gggr
 10
-1965.143662191742
 20
-2281.622646761023
 30
0.0
  0
INSERT
  5
9FEDA
330
9FE64
100
AcDbEntity
  8
0
 62
     7
100
AcDbBlockReference
  2
gggr
 10
-1900.143662191742
 20
-2306.622646761023
 30
0.0
  0
INSERT
  5
9FEDB
330
9FE64
100
AcDbEntity
  8
0
 62
     7
100
AcDbBlockReference
  2
gggr
 10
-1965.143662191742
 20
-2331.622646761023
 30
0.0
  0
INSERT
  5
9FEDC
330
9FE64
100
AcDbEntity
  8
0
 62
     7
100
AcDbBlockReference
  2
gggr
 10
-1900.143662191742
 20
-2356.622646761023
 30
0.0
  0
INSERT
  5
9FEDD
330
9FE64
100
AcDbEntity
  8
0
 62
     7
100
AcDbBlockReference
  2
gggr
 10
-1965.143662191742
 20
-2381.622646761023
 30
0.0
  0
INSERT
  5
9FEDE
330
9FE64
100
AcDbEntity
  8
0
 62
     7
100
AcDbBlockReference
  2
gggr
 10
-1900.143662191742
 20
-2406.622646761023
 30
0.0
  0
INSERT
  5
9FEDF
330
9FE64
100
AcDbEntity
  8
0
 62
     7
100
AcDbBlockReference
  2
gggr
 10
-1965.143662191742
 20
-2431.622646761023
 30
0.0
  0
INSERT
  5
9FEE0
330
9FE64
100
AcDbEntity
  8
0
 62
     7
100
AcDbBlockReference
  2
gggr
 10
-1900.143662191742
 20
-2456.622646761023
 30
0.0
  0
INSERT
  5
9FEE1
330
9FE64
100
AcDbEntity
  8
0
 62
     7
100
AcDbBlockReference
  2
gggr
 10
-1965.143662191742
 20
-2481.622646761023
 30
0.0
  0
INSERT
  5
9FEE2
330
9FE64
100
AcDbEntity
  8
0
 62
     7
100
AcDbBlockReference
  2
gggr
 10
-1900.143662191742
 20
-2506.622646761023
 30
0.0
  0
INSERT
  5
9FEE3
330
9FE64
100
AcDbEntity
  8
0
 62
     7
100
AcDbBlockReference
  2
gggr
 10
-1965.143662191742
 20
-2531.622646761023
 30
0.0
  0
INSERT
  5
9FEE4
330
9FE64
100
AcDbEntity
  8
0
 62
     7
100
AcDbBlockReference
  2
gggr
 10
-1900.143662191742
 20
-2556.622646761023
 30
0.0
  0
INSERT
  5
9FEE5
330
9FE64
100
AcDbEntity
  8
0
 62
     7
100
AcDbBlockReference
  2
gggr
 10
-1965.143662191742
 20
-2581.622646761023
 30
0.0
  0
INSERT
  5
9FEE6
330
9FE64
100
AcDbEntity
  8
0
 62
     7
100
AcDbBlockReference
  2
gggr
 10
-1900.143662191742
 20
-2606.622646761023
 30
0.0
  0
INSERT
  5
9FEE7
330
9FE64
100
AcDbEntity
  8
0
 62
     7
100
AcDbBlockReference
  2
gggr
 10
-1965.143662191742
 20
-2631.622646761023
 30
0.0
  0
INSERT
  5
9FEE8
330
9FE64
100
AcDbEntity
  8
0
 62
     7
100
AcDbBlockReference
  2
gggr
 10
-1900.143662191742
 20
-2656.622646761023
 30
0.0
  0
INSERT
  5
9FEE9
330
9FE64
100
AcDbEntity
  8
0
 62
     7
100
AcDbBlockReference
  2
gggr
 10
-1965.143662191742
 20
-2681.622646761023
 30
0.0
  0
INSERT
  5
9FEEA
330
9FE64
100
AcDbEntity
  8
0
 62
     7
100
AcDbBlockReference
  2
gggr
 10
-1900.143662191742
 20
-2706.622646761023
 30
0.0
  0
INSERT
  5
9FEEB
330
9FE64
100
AcDbEntity
  8
0
 62
     7
100
AcDbBlockReference
  2
gggr
 10
-1965.143662191742
 20
-2731.622646761023
 30
0.0
  0
INSERT
  5
9FEEC
330
9FE64
100
AcDbEntity
  8
0
 62
     7
100
AcDbBlockReference
  2
gggr
 10
-1900.143662191742
 20
-2756.622646761023
 30
0.0
  0
INSERT
  5
9FEED
330
9FE64
100
AcDbEntity
  8
0
 62
     7
100
AcDbBlockReference
  2
gggr
 10
-1965.143662191742
 20
-2781.622646761023
 30
0.0
  0
INSERT
  5
9FEEE
330
9FE64
100
AcDbEntity
  8
0
 62
     7
100
AcDbBlockReference
  2
gggr
 10
-1900.143662191742
 20
-2806.622646761023
 30
0.0
  0
INSERT
  5
9FEEF
330
9FE64
100
AcDbEntity
  8
0
 62
     7
100
AcDbBlockReference
  2
gggr
 10
-1965.143662191742
 20
-2831.622646761023
 30
0.0
  0
INSERT
  5
9FEF0
330
9FE64
100
AcDbEntity
  8
0
 62
     7
100
AcDbBlockReference
  2
gggr
 10
-1900.143662191742
 20
-2856.622646761023
 30
0.0
  0
INSERT
  5
9FEF1
330
9FE64
100
AcDbEntity
  8
0
 62
     7
100
AcDbBlockReference
  2
gggr
 10
-1965.143662191742
 20
-2881.622646761023
 30
0.0
  0
INSERT
  5
9FEF2
330
9FE64
100
AcDbEntity
  8
0
 62
     7
100
AcDbBlockReference
  2
gggr
 10
-1900.143662191742
 20
-2906.622646761023
 30
0.0
  0
INSERT
  5
9FEF3
330
9FE64
100
AcDbEntity
  8
0
 62
     7
100
AcDbBlockReference
  2
gggr
 10
-1835.143662191742
 20
-2231.622646761023
 30
0.0
  0
INSERT
  5
9FEF4
330
9FE64
100
AcDbEntity
  8
0
 62
     7
100
AcDbBlockReference
  2
gggr
 10
-1770.143662191742
 20
-2256.622646761023
 30
0.0
  0
INSERT
  5
9FEF5
330
9FE64
100
AcDbEntity
  8
0
 62
     7
100
AcDbBlockReference
  2
gggr
 10
-1835.143662191742
 20
-2281.622646761023
 30
0.0
  0
INSERT
  5
9FEF6
330
9FE64
100
AcDbEntity
  8
0
 62
     7
100
AcDbBlockReference
  2
gggr
 10
-1770.143662191742
 20
-2306.622646761023
 30
0.0
  0
INSERT
  5
9FEF7
330
9FE64
100
AcDbEntity
  8
0
 62
     7
100
AcDbBlockReference
  2
gggr
 10
-1835.143662191742
 20
-2331.622646761023
 30
0.0
  0
INSERT
  5
9FEF8
330
9FE64
100
AcDbEntity
  8
0
 62
     7
100
AcDbBlockReference
  2
gggr
 10
-1770.143662191742
 20
-2356.622646761023
 30
0.0
  0
INSERT
  5
9FEF9
330
9FE64
100
AcDbEntity
  8
0
 62
     7
100
AcDbBlockReference
  2
gggr
 10
-1835.143662191742
 20
-2381.622646761023
 30
0.0
  0
INSERT
  5
9FEFA
330
9FE64
100
AcDbEntity
  8
0
 62
     7
100
AcDbBlockReference
  2
gggr
 10
-1770.143662191742
 20
-2406.622646761023
 30
0.0
  0
INSERT
  5
9FEFB
330
9FE64
100
AcDbEntity
  8
0
 62
     7
100
AcDbBlockReference
  2
gggr
 10
-1835.143662191742
 20
-2431.622646761023
 30
0.0
  0
INSERT
  5
9FEFC
330
9FE64
100
AcDbEntity
  8
0
 62
     7
100
AcDbBlockReference
  2
gggr
 10
-1770.143662191742
 20
-2456.622646761023
 30
0.0
  0
INSERT
  5
9FEFD
330
9FE64
100
AcDbEntity
  8
0
 62
     7
100
AcDbBlockReference
  2
gggr
 10
-1835.143662191742
 20
-2481.622646761023
 30
0.0
  0
INSERT
  5
9FEFE
330
9FE64
100
AcDbEntity
  8
0
 62
     7
100
AcDbBlockReference
  2
gggr
 10
-1770.143662191742
 20
-2506.622646761023
 30
0.0
  0
INSERT
  5
9FEFF
330
9FE64
100
AcDbEntity
  8
0
 62
     7
100
AcDbBlockReference
  2
gggr
 10
-1835.143662191742
 20
-2531.622646761023
 30
0.0
  0
INSERT
  5
9FF00
330
9FE64
100
AcDbEntity
  8
0
 62
     7
100
AcDbBlockReference
  2
gggr
 10
-1770.143662191742
 20
-2556.622646761023
 30
0.0
  0
INSERT
  5
9FF01
330
9FE64
100
AcDbEntity
  8
0
 62
     7
100
AcDbBlockReference
  2
gggr
 10
-1835.143662191742
 20
-2581.622646761023
 30
0.0
  0
INSERT
  5
9FF02
330
9FE64
100
AcDbEntity
  8
0
 62
     7
100
AcDbBlockReference
  2
gggr
 10
-1770.143662191742
 20
-2606.622646761023
 30
0.0
  0
INSERT
  5
9FF03
330
9FE64
100
AcDbEntity
  8
0
 62
     7
100
AcDbBlockReference
  2
gggr
 10
-1835.143662191742
 20
-2631.622646761023
 30
0.0
  0
INSERT
  5
9FF04
330
9FE64
100
AcDbEntity
  8
0
 62
     7
100
AcDbBlockReference
  2
gggr
 10
-1770.143662191742
 20
-2656.622646761023
 30
0.0
  0
INSERT
  5
9FF05
330
9FE64
100
AcDbEntity
  8
0
 62
     7
100
AcDbBlockReference
  2
gggr
 10
-1835.143662191742
 20
-2681.622646761023
 30
0.0
  0
INSERT
  5
9FF06
330
9FE64
100
AcDbEntity
  8
0
 62
     7
100
AcDbBlockReference
  2
gggr
 10
-1770.143662191742
 20
-2706.622646761023
 30
0.0
  0
INSERT
  5
9FF07
330
9FE64
100
AcDbEntity
  8
0
 62
     7
100
AcDbBlockReference
  2
gggr
 10
-1835.143662191742
 20
-2731.622646761023
 30
0.0
  0
INSERT
  5
9FF08
330
9FE64
100
AcDbEntity
  8
0
 62
     7
100
AcDbBlockReference
  2
gggr
 10
-1770.143662191742
 20
-2756.622646761023
 30
0.0
  0
INSERT
  5
9FF09
330
9FE64
100
AcDbEntity
  8
0
 62
     7
100
AcDbBlockReference
  2
gggr
 10
-1835.143662191742
 20
-2781.622646761023
 30
0.0
  0
INSERT
  5
9FF0A
330
9FE64
100
AcDbEntity
  8
0
 62
     7
100
AcDbBlockReference
  2
gggr
 10
-1770.143662191742
 20
-2806.622646761023
 30
0.0
  0
INSERT
  5
9FF0B
330
9FE64
100
AcDbEntity
  8
0
 62
     7
100
AcDbBlockReference
  2
gggr
 10
-1835.143662191742
 20
-2831.622646761023
 30
0.0
  0
INSERT
  5
9FF0C
330
9FE64
100
AcDbEntity
  8
0
 62
     7
100
AcDbBlockReference
  2
gggr
 10
-1770.143662191742
 20
-2856.622646761023
 30
0.0
  0
INSERT
  5
9FF0D
330
9FE64
100
AcDbEntity
  8
0
 62
     7
100
AcDbBlockReference
  2
gggr
 10
-1835.143662191742
 20
-2881.622646761023
 30
0.0
  0
INSERT
  5
9FF0E
330
9FE64
100
AcDbEntity
  8
0
 62
     7
100
AcDbBlockReference
  2
gggr
 10
-1770.143662191742
 20
-2906.622646761023
 30
0.0
  0
INSERT
  5
9FF0F
330
9FE64
100
AcDbEntity
  8
0
 62
     7
100
AcDbBlockReference
  2
gggr
 10
-1705.143662191742
 20
-2231.622646761023
 30
0.0
  0
INSERT
  5
9FF10
330
9FE64
100
AcDbEntity
  8
0
 62
     7
100
AcDbBlockReference
  2
gggr
 10
-1705.143662191742
 20
-2281.622646761023
 30
0.0
  0
INSERT
  5
9FF11
330
9FE64
100
AcDbEntity
  8
0
 62
     7
100
AcDbBlockReference
  2
gggr
 10
-1705.143662191742
 20
-2331.622646761023
 30
0.0
  0
INSERT
  5
9FF12
330
9FE64
100
AcDbEntity
  8
0
 62
     7
100
AcDbBlockReference
  2
gggr
 10
-1705.143662191742
 20
-2381.622646761023
 30
0.0
  0
INSERT
  5
9FF13
330
9FE64
100
AcDbEntity
  8
0
 62
     7
100
AcDbBlockReference
  2
gggr
 10
-1705.143662191742
 20
-2431.622646761023
 30
0.0
  0
INSERT
  5
9FF14
330
9FE64
100
AcDbEntity
  8
0
 62
     7
100
AcDbBlockReference
  2
gggr
 10
-1705.143662191742
 20
-2481.622646761023
 30
0.0
  0
INSERT
  5
9FF15
330
9FE64
100
AcDbEntity
  8
0
 62
     7
100
AcDbBlockReference
  2
gggr
 10
-1705.143662191742
 20
-2531.622646761023
 30
0.0
  0
INSERT
  5
9FF16
330
9FE64
100
AcDbEntity
  8
0
 62
     7
100
AcDbBlockReference
  2
gggr
 10
-1705.143662191742
 20
-2581.622646761023
 30
0.0
  0
INSERT
  5
9FF17
330
9FE64
100
AcDbEntity
  8
0
 62
     7
100
AcDbBlockReference
  2
gggr
 10
-1705.143662191742
 20
-2631.622646761023
 30
0.0
  0
INSERT
  5
9FF18
330
9FE64
100
AcDbEntity
  8
0
 62
     7
100
AcDbBlockReference
  2
gggr
 10
-1705.143662191742
 20
-2681.622646761023
 30
0.0
  0
INSERT
  5
9FF19
330
9FE64
100
AcDbEntity
  8
0
 62
     7
100
AcDbBlockReference
  2
gggr
 10
-1705.143662191742
 20
-2731.622646761023
 30
0.0
  0
INSERT
  5
9FF1A
330
9FE64
100
AcDbEntity
  8
0
 62
     7
100
AcDbBlockReference
  2
gggr
 10
-1705.143662191742
 20
-2781.622646761023
 30
0.0
  0
INSERT
  5
9FF1B
330
9FE64
100
AcDbEntity
  8
0
 62
     7
100
AcDbBlockReference
  2
gggr
 10
-1705.143662191742
 20
-2831.622646761023
 30
0.0
  0
INSERT
  5
9FF1C
330
9FE64
100
AcDbEntity
  8
0
 62
     7
100
AcDbBlockReference
  2
gggr
 10
-1705.143662191742
 20
-2881.622646761023
 30
0.0
  0
INSERT
  5
9FF1D
330
9FE64
100
AcDbEntity
  8
0
 62
     7
100
AcDbBlockReference
  2
gggr
 10
-2485.143662191742
 20
-2931.622646761023
 30
0.0
  0
INSERT
  5
9FF1E
330
9FE64
100
AcDbEntity
  8
0
 62
     7
100
AcDbBlockReference
  2
gggr
 10
-2355.143662191742
 20
-2931.622646761023
 30
0.0
  0
INSERT
  5
9FF1F
330
9FE64
100
AcDbEntity
  8
0
 62
     7
100
AcDbBlockReference
  2
gggr
 10
-2225.143662191742
 20
-2931.622646761023
 30
0.0
  0
INSERT
  5
9FF20
330
9FE64
100
AcDbEntity
  8
0
 62
     7
100
AcDbBlockReference
  2
gggr
 10
-2095.143662191742
 20
-2931.622646761023
 30
0.0
  0
INSERT
  5
9FF21
330
9FE64
100
AcDbEntity
  8
0
 62
     7
100
AcDbBlockReference
  2
gggr
 10
-1965.143662191742
 20
-2931.622646761023
 30
0.0
  0
INSERT
  5
9FF22
330
9FE64
100
AcDbEntity
  8
0
 62
     7
100
AcDbBlockReference
  2
gggr
 10
-1835.143662191742
 20
-2931.622646761023
 30
0.0
  0
INSERT
  5
9FF23
330
9FE64
100
AcDbEntity
  8
0
 62
     7
100
AcDbBlockReference
  2
gggr
 10
-1705.143662191742
 20
-2931.622646761023
 30
0.0
  0
INSERT
  5
9FF24
330
9FE64
100
AcDbEntity
  8
0
 62
     7
100
AcDbBlockReference
  2
gggr
 10
-2420.143662191742
 20
-2956.622646761023
 30
0.0
  0
INSERT
  5
9FF25
330
9FE64
100
AcDbEntity
  8
0
 62
     7
100
AcDbBlockReference
  2
gggr
 10
-2290.143662191742
 20
-2956.622646761023
 30
0.0
  0
INSERT
  5
9FF26
330
9FE64
100
AcDbEntity
  8
0
 62
     7
100
AcDbBlockReference
  2
gggr
 10
-2160.143662191742
 20
-2956.622646761023
 30
0.0
  0
INSERT
  5
9FF27
330
9FE64
100
AcDbEntity
  8
0
 62
     7
100
AcDbBlockReference
  2
gggr
 10
-2030.143662191742
 20
-2956.622646761023
 30
0.0
  0
INSERT
  5
9FF28
330
9FE64
100
AcDbEntity
  8
0
 62
     7
100
AcDbBlockReference
  2
gggr
 10
-1900.143662191742
 20
-2956.622646761023
 30
0.0
  0
INSERT
  5
9FF29
330
9FE64
100
AcDbEntity
  8
0
 62
     7
100
AcDbBlockReference
  2
gggr
 10
-1770.143662191742
 20
-2956.622646761023
 30
0.0
  0
INSERT
  5
9FF2A
330
9FE64
100
AcDbEntity
  8
0
 62
     7
100
AcDbBlockReference
  2
gggr
 10
-2485.143662191742
 20
-2981.622646761023
 30
0.0
  0
INSERT
  5
9FF2B
330
9FE64
100
AcDbEntity
  8
0
 62
     7
100
AcDbBlockReference
  2
gggr
 10
-2355.143662191742
 20
-2981.622646761023
 30
0.0
  0
INSERT
  5
9FF2C
330
9FE64
100
AcDbEntity
  8
0
 62
     7
100
AcDbBlockReference
  2
gggr
 10
-2225.143662191742
 20
-2981.622646761023
 30
0.0
  0
INSERT
  5
9FF2D
330
9FE64
100
AcDbEntity
  8
0
 62
     7
100
AcDbBlockReference
  2
gggr
 10
-2095.143662191742
 20
-2981.622646761023
 30
0.0
  0
INSERT
  5
9FF2E
330
9FE64
100
AcDbEntity
  8
0
 62
     7
100
AcDbBlockReference
  2
gggr
 10
-1965.143662191742
 20
-2981.622646761023
 30
0.0
  0
INSERT
  5
9FF2F
330
9FE64
100
AcDbEntity
  8
0
 62
     7
100
AcDbBlockReference
  2
gggr
 10
-1835.143662191742
 20
-2981.622646761023
 30
0.0
  0
INSERT
  5
9FF30
330
9FE64
100
AcDbEntity
  8
0
 62
     7
100
AcDbBlockReference
  2
gggr
 10
-1705.143662191742
 20
-2981.622646761023
 30
0.0
  0
INSERT
  5
9FF31
330
9FE64
100
AcDbEntity
  8
0
 62
     7
100
AcDbBlockReference
  2
gggr
 10
-2420.143662191742
 20
-3006.622646761023
 30
0.0
  0
INSERT
  5
9FF32
330
9FE64
100
AcDbEntity
  8
0
 62
     7
100
AcDbBlockReference
  2
gggr
 10
-2290.143662191742
 20
-3006.622646761023
 30
0.0
  0
INSERT
  5
9FF33
330
9FE64
100
AcDbEntity
  8
0
 62
     7
100
AcDbBlockReference
  2
gggr
 10
-2160.143662191742
 20
-3006.622646761023
 30
0.0
  0
INSERT
  5
9FF34
330
9FE64
100
AcDbEntity
  8
0
 62
     7
100
AcDbBlockReference
  2
gggr
 10
-2030.143662191742
 20
-3006.622646761023
 30
0.0
  0
INSERT
  5
9FF35
330
9FE64
100
AcDbEntity
  8
0
 62
     7
100
AcDbBlockReference
  2
gggr
 10
-1900.143662191742
 20
-3006.622646761023
 30
0.0
  0
INSERT
  5
9FF36
330
9FE64
100
AcDbEntity
  8
0
 62
     7
100
AcDbBlockReference
  2
gggr
 10
-1770.143662191742
 20
-3006.622646761023
 30
0.0
  0
INSERT
  5
9FF37
330
9FE64
100
AcDbEntity
  8
0
 62
     7
100
AcDbBlockReference
  2
gggr
 10
-2485.143662191742
 20
-3031.622646761023
 30
0.0
  0
INSERT
  5
9FF38
330
9FE64
100
AcDbEntity
  8
0
 62
     7
100
AcDbBlockReference
  2
gggr
 10
-2355.143662191742
 20
-3031.622646761023
 30
0.0
  0
INSERT
  5
9FF39
330
9FE64
100
AcDbEntity
  8
0
 62
     7
100
AcDbBlockReference
  2
gggr
 10
-2225.143662191742
 20
-3031.622646761023
 30
0.0
  0
INSERT
  5
9FF3A
330
9FE64
100
AcDbEntity
  8
0
 62
     7
100
AcDbBlockReference
  2
gggr
 10
-2095.143662191742
 20
-3031.622646761023
 30
0.0
  0
INSERT
  5
9FF3B
330
9FE64
100
AcDbEntity
  8
0
 62
     7
100
AcDbBlockReference
  2
gggr
 10
-1965.143662191742
 20
-3031.622646761023
 30
0.0
  0
INSERT
  5
9FF3C
330
9FE64
100
AcDbEntity
  8
0
 62
     7
100
AcDbBlockReference
  2
gggr
 10
-1835.143662191742
 20
-3031.622646761023
 30
0.0
  0
INSERT
  5
9FF3D
330
9FE64
100
AcDbEntity
  8
0
 62
     7
100
AcDbBlockReference
  2
gggr
 10
-1705.143662191742
 20
-3031.622646761023
 30
0.0
  0
INSERT
  5
9FF3E
330
9FE64
100
AcDbEntity
  8
0
 62
     7
100
AcDbBlockReference
  2
gggr
 10
-2420.143662191742
 20
-3056.622646761023
 30
0.0
  0
INSERT
  5
9FF3F
330
9FE64
100
AcDbEntity
  8
0
 62
     7
100
AcDbBlockReference
  2
gggr
 10
-2290.143662191742
 20
-3056.622646761023
 30
0.0
  0
INSERT
  5
9FF40
330
9FE64
100
AcDbEntity
  8
0
 62
     7
100
AcDbBlockReference
  2
gggr
 10
-2160.143662191742
 20
-3056.622646761023
 30
0.0
  0
INSERT
  5
9FF41
330
9FE64
100
AcDbEntity
  8
0
 62
     7
100
AcDbBlockReference
  2
gggr
 10
-2030.143662191742
 20
-3056.622646761023
 30
0.0
  0
INSERT
  5
9FF42
330
9FE64
100
AcDbEntity
  8
0
 62
     7
100
AcDbBlockReference
  2
gggr
 10
-1900.143662191742
 20
-3056.622646761023
 30
0.0
  0
INSERT
  5
9FF43
330
9FE64
100
AcDbEntity
  8
0
 62
     7
100
AcDbBlockReference
  2
gggr
 10
-1770.143662191742
 20
-3056.622646761023
 30
0.0
  0
INSERT
  5
9FF44
330
9FE64
100
AcDbEntity
  8
0
 62
     7
100
AcDbBlockReference
  2
gggr
 10
-2485.143662191742
 20
-3081.622646761023
 30
0.0
  0
INSERT
  5
9FF45
330
9FE64
100
AcDbEntity
  8
0
 62
     7
100
AcDbBlockReference
  2
gggr
 10
-2355.143662191742
 20
-3081.622646761023
 30
0.0
  0
INSERT
  5
9FF46
330
9FE64
100
AcDbEntity
  8
0
 62
     7
100
AcDbBlockReference
  2
gggr
 10
-2225.143662191742
 20
-3081.622646761023
 30
0.0
  0
INSERT
  5
9FF47
330
9FE64
100
AcDbEntity
  8
0
 62
     7
100
AcDbBlockReference
  2
gggr
 10
-2095.143662191742
 20
-3081.622646761023
 30
0.0
  0
INSERT
  5
9FF48
330
9FE64
100
AcDbEntity
  8
0
 62
     7
100
AcDbBlockReference
  2
gggr
 10
-1965.143662191742
 20
-3081.622646761023
 30
0.0
  0
INSERT
  5
9FF49
330
9FE64
100
AcDbEntity
  8
0
 62
     7
100
AcDbBlockReference
  2
gggr
 10
-1835.143662191742
 20
-3081.622646761023
 30
0.0
  0
INSERT
  5
9FF4A
330
9FE64
100
AcDbEntity
  8
0
 62
     7
100
AcDbBlockReference
  2
gggr
 10
-1705.143662191742
 20
-3081.622646761023
 30
0.0
  0
INSERT
  5
9FF4B
330
9FE64
100
AcDbEntity
  8
0
 62
     7
100
AcDbBlockReference
  2
gggr
 10
-1640.143662191742
 20
-2256.622646761023
 30
0.0
  0
INSERT
  5
9FF4C
330
9FE64
100
AcDbEntity
  8
0
 62
     7
100
AcDbBlockReference
  2
gggr
 10
-1640.143662191742
 20
-2306.622646761023
 30
0.0
  0
INSERT
  5
9FF4D
330
9FE64
100
AcDbEntity
  8
0
 62
     7
100
AcDbBlockReference
  2
gggr
 10
-1640.143662191742
 20
-2356.622646761023
 30
0.0
  0
INSERT
  5
9FF4E
330
9FE64
100
AcDbEntity
  8
0
 62
     7
100
AcDbBlockReference
  2
gggr
 10
-1640.143662191742
 20
-2406.622646761023
 30
0.0
  0
INSERT
  5
9FF4F
330
9FE64
100
AcDbEntity
  8
0
 62
     7
100
AcDbBlockReference
  2
gggr
 10
-1640.143662191742
 20
-2456.622646761023
 30
0.0
  0
INSERT
  5
9FF50
330
9FE64
100
AcDbEntity
  8
0
 62
     7
100
AcDbBlockReference
  2
gggr
 10
-1640.143662191742
 20
-2506.622646761023
 30
0.0
  0
INSERT
  5
9FF51
330
9FE64
100
AcDbEntity
  8
0
 62
     7
100
AcDbBlockReference
  2
gggr
 10
-1640.143662191742
 20
-2556.622646761023
 30
0.0
  0
INSERT
  5
9FF52
330
9FE64
100
AcDbEntity
  8
0
 62
     7
100
AcDbBlockReference
  2
gggr
 10
-1640.143662191742
 20
-2606.622646761023
 30
0.0
  0
INSERT
  5
9FF53
330
9FE64
100
AcDbEntity
  8
0
 62
     7
100
AcDbBlockReference
  2
gggr
 10
-1640.143662191742
 20
-2656.622646761023
 30
0.0
  0
INSERT
  5
9FF54
330
9FE64
100
AcDbEntity
  8
0
 62
     7
100
AcDbBlockReference
  2
gggr
 10
-1640.143662191742
 20
-2706.622646761023
 30
0.0
  0
INSERT
  5
9FF55
330
9FE64
100
AcDbEntity
  8
0
 62
     7
100
AcDbBlockReference
  2
gggr
 10
-1640.143662191742
 20
-2756.622646761023
 30
0.0
  0
INSERT
  5
9FF56
330
9FE64
100
AcDbEntity
  8
0
 62
     7
100
AcDbBlockReference
  2
gggr
 10
-1640.143662191742
 20
-2806.622646761023
 30
0.0
  0
INSERT
  5
9FF57
330
9FE64
100
AcDbEntity
  8
0
 62
     7
100
AcDbBlockReference
  2
gggr
 10
-1640.143662191742
 20
-2856.622646761023
 30
0.0
  0
INSERT
  5
9FF58
330
9FE64
100
AcDbEntity
  8
0
 62
     7
100
AcDbBlockReference
  2
gggr
 10
-1640.143662191742
 20
-2906.622646761023
 30
0.0
  0
INSERT
  5
9FF59
330
9FE64
100
AcDbEntity
  8
0
 62
     7
100
AcDbBlockReference
  2
gggr
 10
-1640.143662191742
 20
-2956.622646761023
 30
0.0
  0
INSERT
  5
9FF5A
330
9FE64
100
AcDbEntity
  8
0
 62
     7
100
AcDbBlockReference
  2
gggr
 10
-1640.143662191742
 20
-3006.622646761023
 30
0.0
  0
INSERT
  5
9FF5B
330
9FE64
100
AcDbEntity
  8
0
 62
     7
100
AcDbBlockReference
  2
gggr
 10
-1640.143662191742
 20
-3056.622646761023
 30
0.0
  0
INSERT
  5
9FF5C
330
9FE64
100
AcDbEntity
  8
0
 62
     7
100
AcDbBlockReference
  2
gggr
 10
-1575.143662191742
 20
-2231.622646761023
 30
0.0
  0
INSERT
  5
9FF5D
330
9FE64
100
AcDbEntity
  8
0
 62
     7
100
AcDbBlockReference
  2
gggr
 10
-1575.143662191742
 20
-2281.622646761023
 30
0.0
  0
INSERT
  5
9FF5E
330
9FE64
100
AcDbEntity
  8
0
 62
     7
100
AcDbBlockReference
  2
gggr
 10
-1575.143662191742
 20
-2331.622646761023
 30
0.0
  0
INSERT
  5
9FF5F
330
9FE64
100
AcDbEntity
  8
0
 62
     7
100
AcDbBlockReference
  2
gggr
 10
-1575.143662191742
 20
-2381.622646761023
 30
0.0
  0
INSERT
  5
9FF60
330
9FE64
100
AcDbEntity
  8
0
 62
     7
100
AcDbBlockReference
  2
gggr
 10
-1575.143662191742
 20
-2431.622646761023
 30
0.0
  0
INSERT
  5
9FF61
330
9FE64
100
AcDbEntity
  8
0
 62
     7
100
AcDbBlockReference
  2
gggr
 10
-1575.143662191742
 20
-2481.622646761023
 30
0.0
  0
INSERT
  5
9FF62
330
9FE64
100
AcDbEntity
  8
0
 62
     7
100
AcDbBlockReference
  2
gggr
 10
-1575.143662191742
 20
-2531.622646761023
 30
0.0
  0
INSERT
  5
9FF63
330
9FE64
100
AcDbEntity
  8
0
 62
     7
100
AcDbBlockReference
  2
gggr
 10
-1575.143662191742
 20
-2581.622646761023
 30
0.0
  0
INSERT
  5
9FF64
330
9FE64
100
AcDbEntity
  8
0
 62
     7
100
AcDbBlockReference
  2
gggr
 10
-1575.143662191742
 20
-2631.622646761023
 30
0.0
  0
INSERT
  5
9FF65
330
9FE64
100
AcDbEntity
  8
0
 62
     7
100
AcDbBlockReference
  2
gggr
 10
-1575.143662191742
 20
-2681.622646761023
 30
0.0
  0
INSERT
  5
9FF66
330
9FE64
100
AcDbEntity
  8
0
 62
     7
100
AcDbBlockReference
  2
gggr
 10
-1575.143662191742
 20
-2731.622646761023
 30
0.0
  0
INSERT
  5
9FF67
330
9FE64
100
AcDbEntity
  8
0
 62
     7
100
AcDbBlockReference
  2
gggr
 10
-1575.143662191742
 20
-2781.622646761023
 30
0.0
  0
INSERT
  5
9FF68
330
9FE64
100
AcDbEntity
  8
0
 62
     7
100
AcDbBlockReference
  2
gggr
 10
-1575.143662191742
 20
-2831.622646761023
 30
0.0
  0
INSERT
  5
9FF69
330
9FE64
100
AcDbEntity
  8
0
 62
     7
100
AcDbBlockReference
  2
gggr
 10
-1575.143662191742
 20
-2881.622646761023
 30
0.0
  0
INSERT
  5
9FF6A
330
9FE64
100
AcDbEntity
  8
0
 62
     7
100
AcDbBlockReference
  2
gggr
 10
-1575.143662191742
 20
-2931.622646761023
 30
0.0
  0
INSERT
  5
9FF6B
330
9FE64
100
AcDbEntity
  8
0
 62
     7
100
AcDbBlockReference
  2
gggr
 10
-1575.143662191742
 20
-2981.622646761023
 30
0.0
  0
INSERT
  5
9FF6C
330
9FE64
100
AcDbEntity
  8
0
 62
     7
100
AcDbBlockReference
  2
gggr
 10
-1575.143662191742
 20
-3031.622646761023
 30
0.0
  0
INSERT
  5
9FF6D
330
9FE64
100
AcDbEntity
  8
0
 62
     7
100
AcDbBlockReference
  2
gggr
 10
-1575.143662191742
 20
-3081.622646761023
 30
0.0
  0
INSERT
  5
9FF6E
330
9FE64
100
AcDbEntity
  8
0
 62
     7
100
AcDbBlockReference
  2
gggr
 10
-1510.143662191742
 20
-2256.622646761023
 30
0.0
  0
INSERT
  5
9FF6F
330
9FE64
100
AcDbEntity
  8
0
 62
     7
100
AcDbBlockReference
  2
gggr
 10
-1510.143662191742
 20
-2306.622646761023
 30
0.0
  0
INSERT
  5
9FF70
330
9FE64
100
AcDbEntity
  8
0
 62
     7
100
AcDbBlockReference
  2
gggr
 10
-1510.143662191742
 20
-2356.622646761023
 30
0.0
  0
INSERT
  5
9FF71
330
9FE64
100
AcDbEntity
  8
0
 62
     7
100
AcDbBlockReference
  2
gggr
 10
-1510.143662191742
 20
-2406.622646761023
 30
0.0
  0
INSERT
  5
9FF72
330
9FE64
100
AcDbEntity
  8
0
 62
     7
100
AcDbBlockReference
  2
gggr
 10
-1510.143662191742
 20
-2456.622646761023
 30
0.0
  0
INSERT
  5
9FF73
330
9FE64
100
AcDbEntity
  8
0
 62
     7
100
AcDbBlockReference
  2
gggr
 10
-1510.143662191742
 20
-2506.622646761023
 30
0.0
  0
INSERT
  5
9FF74
330
9FE64
100
AcDbEntity
  8
0
 62
     7
100
AcDbBlockReference
  2
gggr
 10
-1510.143662191742
 20
-2556.622646761023
 30
0.0
  0
INSERT
  5
9FF75
330
9FE64
100
AcDbEntity
  8
0
 62
     7
100
AcDbBlockReference
  2
gggr
 10
-1510.143662191742
 20
-2606.622646761023
 30
0.0
  0
INSERT
  5
9FF76
330
9FE64
100
AcDbEntity
  8
0
 62
     7
100
AcDbBlockReference
  2
gggr
 10
-1510.143662191742
 20
-2656.622646761023
 30
0.0
  0
INSERT
  5
9FF77
330
9FE64
100
AcDbEntity
  8
0
 62
     7
100
AcDbBlockReference
  2
gggr
 10
-1510.143662191742
 20
-2706.622646761023
 30
0.0
  0
INSERT
  5
9FF78
330
9FE64
100
AcDbEntity
  8
0
 62
     7
100
AcDbBlockReference
  2
gggr
 10
-1510.143662191742
 20
-2756.622646761023
 30
0.0
  0
INSERT
  5
9FF79
330
9FE64
100
AcDbEntity
  8
0
 62
     7
100
AcDbBlockReference
  2
gggr
 10
-1510.143662191742
 20
-2806.622646761023
 30
0.0
  0
INSERT
  5
9FF7A
330
9FE64
100
AcDbEntity
  8
0
 62
     7
100
AcDbBlockReference
  2
gggr
 10
-1510.143662191742
 20
-2856.622646761023
 30
0.0
  0
INSERT
  5
9FF7B
330
9FE64
100
AcDbEntity
  8
0
 62
     7
100
AcDbBlockReference
  2
gggr
 10
-1510.143662191742
 20
-2906.622646761023
 30
0.0
  0
INSERT
  5
9FF7C
330
9FE64
100
AcDbEntity
  8
0
 62
     7
100
AcDbBlockReference
  2
gggr
 10
-1510.143662191742
 20
-2956.622646761023
 30
0.0
  0
INSERT
  5
9FF7D
330
9FE64
100
AcDbEntity
  8
0
 62
     7
100
AcDbBlockReference
  2
gggr
 10
-1510.143662191742
 20
-3006.622646761023
 30
0.0
  0
INSERT
  5
9FF7E
330
9FE64
100
AcDbEntity
  8
0
 62
     7
100
AcDbBlockReference
  2
gggr
 10
-1510.143662191742
 20
-3056.622646761023
 30
0.0
  0
INSERT
  5
9FF7F
330
9FE64
100
AcDbEntity
  8
0
 62
     7
100
AcDbBlockReference
  2
gggr
 10
-1445.143662191742
 20
-2231.622646761023
 30
0.0
  0
INSERT
  5
9FF80
330
9FE64
100
AcDbEntity
  8
0
 62
     7
100
AcDbBlockReference
  2
gggr
 10
-1445.143662191742
 20
-2281.622646761023
 30
0.0
  0
INSERT
  5
9FF81
330
9FE64
100
AcDbEntity
  8
0
 62
     7
100
AcDbBlockReference
  2
gggr
 10
-1445.143662191742
 20
-2331.622646761023
 30
0.0
  0
INSERT
  5
9FF82
330
9FE64
100
AcDbEntity
  8
0
 62
     7
100
AcDbBlockReference
  2
gggr
 10
-1445.143662191742
 20
-2381.622646761023
 30
0.0
  0
INSERT
  5
9FF83
330
9FE64
100
AcDbEntity
  8
0
 62
     7
100
AcDbBlockReference
  2
gggr
 10
-1445.143662191742
 20
-2431.622646761023
 30
0.0
  0
INSERT
  5
9FF84
330
9FE64
100
AcDbEntity
  8
0
 62
     7
100
AcDbBlockReference
  2
gggr
 10
-1445.143662191742
 20
-2481.622646761023
 30
0.0
  0
INSERT
  5
9FF85
330
9FE64
100
AcDbEntity
  8
0
 62
     7
100
AcDbBlockReference
  2
gggr
 10
-1445.143662191742
 20
-2531.622646761023
 30
0.0
  0
INSERT
  5
9FF86
330
9FE64
100
AcDbEntity
  8
0
 62
     7
100
AcDbBlockReference
  2
gggr
 10
-1445.143662191742
 20
-2581.622646761023
 30
0.0
  0
INSERT
  5
9FF87
330
9FE64
100
AcDbEntity
  8
0
 62
     7
100
AcDbBlockReference
  2
gggr
 10
-1445.143662191742
 20
-2631.622646761023
 30
0.0
  0
INSERT
  5
9FF88
330
9FE64
100
AcDbEntity
  8
0
 62
     7
100
AcDbBlockReference
  2
gggr
 10
-1445.143662191742
 20
-2681.622646761023
 30
0.0
  0
INSERT
  5
9FF89
330
9FE64
100
AcDbEntity
  8
0
 62
     7
100
AcDbBlockReference
  2
gggr
 10
-1445.143662191742
 20
-2731.622646761023
 30
0.0
  0
INSERT
  5
9FF8A
330
9FE64
100
AcDbEntity
  8
0
 62
     7
100
AcDbBlockReference
  2
gggr
 10
-1445.143662191742
 20
-2781.622646761023
 30
0.0
  0
INSERT
  5
9FF8B
330
9FE64
100
AcDbEntity
  8
0
 62
     7
100
AcDbBlockReference
  2
gggr
 10
-1445.143662191742
 20
-2831.622646761023
 30
0.0
  0
INSERT
  5
9FF8C
330
9FE64
100
AcDbEntity
  8
0
 62
     7
100
AcDbBlockReference
  2
gggr
 10
-1445.143662191742
 20
-2881.622646761023
 30
0.0
  0
INSERT
  5
9FF8D
330
9FE64
100
AcDbEntity
  8
0
 62
     7
100
AcDbBlockReference
  2
gggr
 10
-1445.143662191742
 20
-2931.622646761023
 30
0.0
  0
INSERT
  5
9FF8E
330
9FE64
100
AcDbEntity
  8
0
 62
     7
100
AcDbBlockReference
  2
gggr
 10
-1445.143662191742
 20
-2981.622646761023
 30
0.0
  0
INSERT
  5
9FF8F
330
9FE64
100
AcDbEntity
  8
0
 62
     7
100
AcDbBlockReference
  2
gggr
 10
-1445.143662191742
 20
-3031.622646761023
 30
0.0
  0
INSERT
  5
9FF90
330
9FE64
100
AcDbEntity
  8
0
 62
     7
100
AcDbBlockReference
  2
gggr
 10
-1445.143662191742
 20
-3081.622646761023
 30
0.0
  0
INSERT
  5
9FF91
330
9FE64
100
AcDbEntity
  8
0
 62
     7
100
AcDbBlockReference
  2
gggr
 10
-1380.143662191742
 20
-2256.622646761023
 30
0.0
  0
INSERT
  5
9FF92
330
9FE64
100
AcDbEntity
  8
0
 62
     7
100
AcDbBlockReference
  2
gggr
 10
-1380.143662191742
 20
-2306.622646761023
 30
0.0
  0
INSERT
  5
9FF93
330
9FE64
100
AcDbEntity
  8
0
 62
     7
100
AcDbBlockReference
  2
gggr
 10
-1380.143662191742
 20
-2356.622646761023
 30
0.0
  0
INSERT
  5
9FF94
330
9FE64
100
AcDbEntity
  8
0
 62
     7
100
AcDbBlockReference
  2
gggr
 10
-1380.143662191742
 20
-2406.622646761023
 30
0.0
  0
INSERT
  5
9FF95
330
9FE64
100
AcDbEntity
  8
0
 62
     7
100
AcDbBlockReference
  2
gggr
 10
-1380.143662191742
 20
-2456.622646761023
 30
0.0
  0
INSERT
  5
9FF96
330
9FE64
100
AcDbEntity
  8
0
 62
     7
100
AcDbBlockReference
  2
gggr
 10
-1380.143662191742
 20
-2506.622646761023
 30
0.0
  0
INSERT
  5
9FF97
330
9FE64
100
AcDbEntity
  8
0
 62
     7
100
AcDbBlockReference
  2
gggr
 10
-1380.143662191742
 20
-2556.622646761023
 30
0.0
  0
INSERT
  5
9FF98
330
9FE64
100
AcDbEntity
  8
0
 62
     7
100
AcDbBlockReference
  2
gggr
 10
-1380.143662191742
 20
-2606.622646761023
 30
0.0
  0
INSERT
  5
9FF99
330
9FE64
100
AcDbEntity
  8
0
 62
     7
100
AcDbBlockReference
  2
gggr
 10
-1380.143662191742
 20
-2656.622646761023
 30
0.0
  0
INSERT
  5
9FF9A
330
9FE64
100
AcDbEntity
  8
0
 62
     7
100
AcDbBlockReference
  2
gggr
 10
-1380.143662191742
 20
-2706.622646761023
 30
0.0
  0
INSERT
  5
9FF9B
330
9FE64
100
AcDbEntity
  8
0
 62
     7
100
AcDbBlockReference
  2
gggr
 10
-1380.143662191742
 20
-2756.622646761023
 30
0.0
  0
INSERT
  5
9FF9C
330
9FE64
100
AcDbEntity
  8
0
 62
     7
100
AcDbBlockReference
  2
gggr
 10
-1380.143662191742
 20
-2806.622646761023
 30
0.0
  0
INSERT
  5
9FF9D
330
9FE64
100
AcDbEntity
  8
0
 62
     7
100
AcDbBlockReference
  2
gggr
 10
-1380.143662191742
 20
-2856.622646761023
 30
0.0
  0
INSERT
  5
9FF9E
330
9FE64
100
AcDbEntity
  8
0
 62
     7
100
AcDbBlockReference
  2
gggr
 10
-1380.143662191742
 20
-2906.622646761023
 30
0.0
  0
INSERT
  5
9FF9F
330
9FE64
100
AcDbEntity
  8
0
 62
     7
100
AcDbBlockReference
  2
gggr
 10
-1380.143662191742
 20
-2956.622646761023
 30
0.0
  0
INSERT
  5
9FFA0
330
9FE64
100
AcDbEntity
  8
0
 62
     7
100
AcDbBlockReference
  2
gggr
 10
-1380.143662191742
 20
-3006.622646761023
 30
0.0
  0
INSERT
  5
9FFA1
330
9FE64
100
AcDbEntity
  8
0
 62
     7
100
AcDbBlockReference
  2
gggr
 10
-1380.143662191742
 20
-3056.622646761023
 30
0.0
  0
INSERT
  5
9FFA2
330
9FE64
100
AcDbEntity
  8
0
 62
     7
100
AcDbBlockReference
  2
gggr
 10
-1315.143662191742
 20
-2231.622646761023
 30
0.0
  0
INSERT
  5
9FFA3
330
9FE64
100
AcDbEntity
  8
0
 62
     7
100
AcDbBlockReference
  2
gggr
 10
-1315.143662191742
 20
-2281.622646761023
 30
0.0
  0
INSERT
  5
9FFA4
330
9FE64
100
AcDbEntity
  8
0
 62
     7
100
AcDbBlockReference
  2
gggr
 10
-1315.143662191742
 20
-2331.622646761023
 30
0.0
  0
INSERT
  5
9FFA5
330
9FE64
100
AcDbEntity
  8
0
 62
     7
100
AcDbBlockReference
  2
gggr
 10
-1315.143662191742
 20
-2381.622646761023
 30
0.0
  0
INSERT
  5
9FFA6
330
9FE64
100
AcDbEntity
  8
0
 62
     7
100
AcDbBlockReference
  2
gggr
 10
-1315.143662191742
 20
-2431.622646761023
 30
0.0
  0
INSERT
  5
9FFA7
330
9FE64
100
AcDbEntity
  8
0
 62
     7
100
AcDbBlockReference
  2
gggr
 10
-1315.143662191742
 20
-2481.622646761023
 30
0.0
  0
INSERT
  5
9FFA8
330
9FE64
100
AcDbEntity
  8
0
 62
     7
100
AcDbBlockReference
  2
gggr
 10
-1315.143662191742
 20
-2531.622646761023
 30
0.0
  0
INSERT
  5
9FFA9
330
9FE64
100
AcDbEntity
  8
0
 62
     7
100
AcDbBlockReference
  2
gggr
 10
-1315.143662191742
 20
-2581.622646761023
 30
0.0
  0
INSERT
  5
9FFAA
330
9FE64
100
AcDbEntity
  8
0
 62
     7
100
AcDbBlockReference
  2
gggr
 10
-1315.143662191742
 20
-2631.622646761023
 30
0.0
  0
INSERT
  5
9FFAB
330
9FE64
100
AcDbEntity
  8
0
 62
     7
100
AcDbBlockReference
  2
gggr
 10
-1315.143662191742
 20
-2681.622646761023
 30
0.0
  0
INSERT
  5
9FFAC
330
9FE64
100
AcDbEntity
  8
0
 62
     7
100
AcDbBlockReference
  2
gggr
 10
-1315.143662191742
 20
-2731.622646761023
 30
0.0
  0
INSERT
  5
9FFAD
330
9FE64
100
AcDbEntity
  8
0
 62
     7
100
AcDbBlockReference
  2
gggr
 10
-1315.143662191742
 20
-2781.622646761023
 30
0.0
  0
INSERT
  5
9FFAE
330
9FE64
100
AcDbEntity
  8
0
 62
     7
100
AcDbBlockReference
  2
gggr
 10
-1315.143662191742
 20
-2831.622646761023
 30
0.0
  0
INSERT
  5
9FFAF
330
9FE64
100
AcDbEntity
  8
0
 62
     7
100
AcDbBlockReference
  2
gggr
 10
-1315.143662191742
 20
-2881.622646761023
 30
0.0
  0
INSERT
  5
9FFB0
330
9FE64
100
AcDbEntity
  8
0
 62
     7
100
AcDbBlockReference
  2
gggr
 10
-1315.143662191742
 20
-2931.622646761023
 30
0.0
  0
INSERT
  5
9FFB1
330
9FE64
100
AcDbEntity
  8
0
 62
     7
100
AcDbBlockReference
  2
gggr
 10
-1315.143662191742
 20
-2981.622646761023
 30
0.0
  0
INSERT
  5
9FFB2
330
9FE64
100
AcDbEntity
  8
0
 62
     7
100
AcDbBlockReference
  2
gggr
 10
-1315.143662191742
 20
-3031.622646761023
 30
0.0
  0
INSERT
  5
9FFB3
330
9FE64
100
AcDbEntity
  8
0
 62
     7
100
AcDbBlockReference
  2
gggr
 10
-1315.143662191742
 20
-3081.622646761023
 30
0.0
  0
INSERT
  5
9FFB4
330
9FE64
100
AcDbEntity
  8
0
 62
     7
100
AcDbBlockReference
  2
gggr
 10
-1250.143662191742
 20
-2256.622646761023
 30
0.0
  0
INSERT
  5
9FFB5
330
9FE64
100
AcDbEntity
  8
0
 62
     7
100
AcDbBlockReference
  2
gggr
 10
-1250.143662191742
 20
-2306.622646761023
 30
0.0
  0
INSERT
  5
9FFB6
330
9FE64
100
AcDbEntity
  8
0
 62
     7
100
AcDbBlockReference
  2
gggr
 10
-1250.143662191742
 20
-2356.622646761023
 30
0.0
  0
INSERT
  5
9FFB7
330
9FE64
100
AcDbEntity
  8
0
 62
     7
100
AcDbBlockReference
  2
gggr
 10
-1250.143662191742
 20
-2406.622646761023
 30
0.0
  0
INSERT
  5
9FFB8
330
9FE64
100
AcDbEntity
  8
0
 62
     7
100
AcDbBlockReference
  2
gggr
 10
-1250.143662191742
 20
-2456.622646761023
 30
0.0
  0
INSERT
  5
9FFB9
330
9FE64
100
AcDbEntity
  8
0
 62
     7
100
AcDbBlockReference
  2
gggr
 10
-1250.143662191742
 20
-2506.622646761023
 30
0.0
  0
INSERT
  5
9FFBA
330
9FE64
100
AcDbEntity
  8
0
 62
     7
100
AcDbBlockReference
  2
gggr
 10
-1250.143662191742
 20
-2556.622646761023
 30
0.0
  0
INSERT
  5
9FFBB
330
9FE64
100
AcDbEntity
  8
0
 62
     7
100
AcDbBlockReference
  2
gggr
 10
-1250.143662191742
 20
-2606.622646761023
 30
0.0
  0
INSERT
  5
9FFBC
330
9FE64
100
AcDbEntity
  8
0
 62
     7
100
AcDbBlockReference
  2
gggr
 10
-1250.143662191742
 20
-2656.622646761023
 30
0.0
  0
INSERT
  5
9FFBD
330
9FE64
100
AcDbEntity
  8
0
 62
     7
100
AcDbBlockReference
  2
gggr
 10
-1250.143662191742
 20
-2706.622646761023
 30
0.0
  0
INSERT
  5
9FFBE
330
9FE64
100
AcDbEntity
  8
0
 62
     7
100
AcDbBlockReference
  2
gggr
 10
-1250.143662191742
 20
-2756.622646761023
 30
0.0
  0
INSERT
  5
9FFBF
330
9FE64
100
AcDbEntity
  8
0
 62
     7
100
AcDbBlockReference
  2
gggr
 10
-1250.143662191742
 20
-2806.622646761023
 30
0.0
  0
INSERT
  5
9FFC0
330
9FE64
100
AcDbEntity
  8
0
 62
     7
100
AcDbBlockReference
  2
gggr
 10
-1250.143662191742
 20
-2856.622646761023
 30
0.0
  0
INSERT
  5
9FFC1
330
9FE64
100
AcDbEntity
  8
0
 62
     7
100
AcDbBlockReference
  2
gggr
 10
-1250.143662191742
 20
-2906.622646761023
 30
0.0
  0
INSERT
  5
9FFC2
330
9FE64
100
AcDbEntity
  8
0
 62
     7
100
AcDbBlockReference
  2
gggr
 10
-1250.143662191742
 20
-2956.622646761023
 30
0.0
  0
INSERT
  5
9FFC3
330
9FE64
100
AcDbEntity
  8
0
 62
     7
100
AcDbBlockReference
  2
gggr
 10
-1250.143662191742
 20
-3006.622646761023
 30
0.0
  0
INSERT
  5
9FFC4
330
9FE64
100
AcDbEntity
  8
0
 62
     7
100
AcDbBlockReference
  2
gggr
 10
-1250.143662191742
 20
-3056.622646761023
 30
0.0
  0
INSERT
  5
9FFC5
330
9FE64
100
AcDbEntity
  8
0
 62
     7
100
AcDbBlockReference
  2
gggr
 10
-1185.143662191742
 20
-2231.622646761023
 30
0.0
  0
INSERT
  5
9FFC6
330
9FE64
100
AcDbEntity
  8
0
 62
     7
100
AcDbBlockReference
  2
gggr
 10
-1185.143662191742
 20
-2281.622646761023
 30
0.0
  0
INSERT
  5
9FFC7
330
9FE64
100
AcDbEntity
  8
0
 62
     7
100
AcDbBlockReference
  2
gggr
 10
-1185.143662191742
 20
-2331.622646761023
 30
0.0
  0
INSERT
  5
9FFC8
330
9FE64
100
AcDbEntity
  8
0
 62
     7
100
AcDbBlockReference
  2
gggr
 10
-1185.143662191742
 20
-2381.622646761023
 30
0.0
  0
INSERT
  5
9FFC9
330
9FE64
100
AcDbEntity
  8
0
 62
     7
100
AcDbBlockReference
  2
gggr
 10
-1185.143662191742
 20
-2431.622646761023
 30
0.0
  0
INSERT
  5
9FFCA
330
9FE64
100
AcDbEntity
  8
0
 62
     7
100
AcDbBlockReference
  2
gggr
 10
-1185.143662191742
 20
-2481.622646761023
 30
0.0
  0
INSERT
  5
9FFCB
330
9FE64
100
AcDbEntity
  8
0
 62
     7
100
AcDbBlockReference
  2
gggr
 10
-1185.143662191742
 20
-2531.622646761023
 30
0.0
  0
INSERT
  5
9FFCC
330
9FE64
100
AcDbEntity
  8
0
 62
     7
100
AcDbBlockReference
  2
gggr
 10
-1185.143662191742
 20
-2581.622646761023
 30
0.0
  0
INSERT
  5
9FFCD
330
9FE64
100
AcDbEntity
  8
0
 62
     7
100
AcDbBlockReference
  2
gggr
 10
-1185.143662191742
 20
-2631.622646761023
 30
0.0
  0
INSERT
  5
9FFCE
330
9FE64
100
AcDbEntity
  8
0
 62
     7
100
AcDbBlockReference
  2
gggr
 10
-1185.143662191742
 20
-2681.622646761023
 30
0.0
  0
INSERT
  5
9FFCF
330
9FE64
100
AcDbEntity
  8
0
 62
     7
100
AcDbBlockReference
  2
gggr
 10
-1185.143662191742
 20
-2731.622646761023
 30
0.0
  0
INSERT
  5
9FFD0
330
9FE64
100
AcDbEntity
  8
0
 62
     7
100
AcDbBlockReference
  2
gggr
 10
-1185.143662191742
 20
-2781.622646761023
 30
0.0
  0
INSERT
  5
9FFD1
330
9FE64
100
AcDbEntity
  8
0
 62
     7
100
AcDbBlockReference
  2
gggr
 10
-1185.143662191742
 20
-2831.622646761023
 30
0.0
  0
INSERT
  5
9FFD2
330
9FE64
100
AcDbEntity
  8
0
 62
     7
100
AcDbBlockReference
  2
gggr
 10
-1185.143662191742
 20
-2881.622646761023
 30
0.0
  0
INSERT
  5
9FFD3
330
9FE64
100
AcDbEntity
  8
0
 62
     7
100
AcDbBlockReference
  2
gggr
 10
-1185.143662191742
 20
-2931.622646761023
 30
0.0
  0
INSERT
  5
9FFD4
330
9FE64
100
AcDbEntity
  8
0
 62
     7
100
AcDbBlockReference
  2
gggr
 10
-1185.143662191742
 20
-2981.622646761023
 30
0.0
  0
INSERT
  5
9FFD5
330
9FE64
100
AcDbEntity
  8
0
 62
     7
100
AcDbBlockReference
  2
gggr
 10
-1185.143662191742
 20
-3031.622646761023
 30
0.0
  0
INSERT
  5
9FFD6
330
9FE64
100
AcDbEntity
  8
0
 62
     7
100
AcDbBlockReference
  2
gggr
 10
-1185.143662191742
 20
-3081.622646761023
 30
0.0
  0
INSERT
  5
9FFD7
330
9FE64
100
AcDbEntity
  8
0
 62
     7
100
AcDbBlockReference
  2
gggr
 10
-1120.143662191742
 20
-2256.622646761023
 30
0.0
  0
INSERT
  5
9FFD8
330
9FE64
100
AcDbEntity
  8
0
 62
     7
100
AcDbBlockReference
  2
gggr
 10
-1120.143662191742
 20
-2306.622646761023
 30
0.0
  0
INSERT
  5
9FFD9
330
9FE64
100
AcDbEntity
  8
0
 62
     7
100
AcDbBlockReference
  2
gggr
 10
-1120.143662191742
 20
-2356.622646761023
 30
0.0
  0
INSERT
  5
9FFDA
330
9FE64
100
AcDbEntity
  8
0
 62
     7
100
AcDbBlockReference
  2
gggr
 10
-1120.143662191742
 20
-2406.622646761023
 30
0.0
  0
INSERT
  5
9FFDB
330
9FE64
100
AcDbEntity
  8
0
 62
     7
100
AcDbBlockReference
  2
gggr
 10
-1120.143662191742
 20
-2456.622646761023
 30
0.0
  0
INSERT
  5
9FFDC
330
9FE64
100
AcDbEntity
  8
0
 62
     7
100
AcDbBlockReference
  2
gggr
 10
-1120.143662191742
 20
-2506.622646761023
 30
0.0
  0
INSERT
  5
9FFDD
330
9FE64
100
AcDbEntity
  8
0
 62
     7
100
AcDbBlockReference
  2
gggr
 10
-1120.143662191742
 20
-2556.622646761023
 30
0.0
  0
INSERT
  5
9FFDE
330
9FE64
100
AcDbEntity
  8
0
 62
     7
100
AcDbBlockReference
  2
gggr
 10
-1120.143662191742
 20
-2606.622646761023
 30
0.0
  0
INSERT
  5
9FFDF
330
9FE64
100
AcDbEntity
  8
0
 62
     7
100
AcDbBlockReference
  2
gggr
 10
-1120.143662191742
 20
-2656.622646761023
 30
0.0
  0
INSERT
  5
9FFE0
330
9FE64
100
AcDbEntity
  8
0
 62
     7
100
AcDbBlockReference
  2
gggr
 10
-1120.143662191742
 20
-2706.622646761023
 30
0.0
  0
INSERT
  5
9FFE1
330
9FE64
100
AcDbEntity
  8
0
 62
     7
100
AcDbBlockReference
  2
gggr
 10
-1120.143662191742
 20
-2756.622646761023
 30
0.0
  0
INSERT
  5
9FFE2
330
9FE64
100
AcDbEntity
  8
0
 62
     7
100
AcDbBlockReference
  2
gggr
 10
-1120.143662191742
 20
-2806.622646761023
 30
0.0
  0
INSERT
  5
9FFE3
330
9FE64
100
AcDbEntity
  8
0
 62
     7
100
AcDbBlockReference
  2
gggr
 10
-1120.143662191742
 20
-2856.622646761023
 30
0.0
  0
INSERT
  5
9FFE4
330
9FE64
100
AcDbEntity
  8
0
 62
     7
100
AcDbBlockReference
  2
gggr
 10
-1120.143662191742
 20
-2906.622646761023
 30
0.0
  0
INSERT
  5
9FFE5
330
9FE64
100
AcDbEntity
  8
0
 62
     7
100
AcDbBlockReference
  2
gggr
 10
-1120.143662191742
 20
-2956.622646761023
 30
0.0
  0
INSERT
  5
9FFE6
330
9FE64
100
AcDbEntity
  8
0
 62
     7
100
AcDbBlockReference
  2
gggr
 10
-1120.143662191742
 20
-3006.622646761023
 30
0.0
  0
INSERT
  5
9FFE7
330
9FE64
100
AcDbEntity
  8
0
 62
     7
100
AcDbBlockReference
  2
gggr
 10
-1120.143662191742
 20
-3056.622646761023
 30
0.0
  0
INSERT
  5
9FFE8
330
9FE64
100
AcDbEntity
  8
0
 62
     7
100
AcDbBlockReference
  2
gggr
 10
-2420.143662191742
 20
-3106.622646761023
 30
0.0
  0
INSERT
  5
9FFE9
330
9FE64
100
AcDbEntity
  8
0
 62
     7
100
AcDbBlockReference
  2
gggr
 10
-2290.143662191742
 20
-3106.622646761023
 30
0.0
  0
INSERT
  5
9FFEA
330
9FE64
100
AcDbEntity
  8
0
 62
     7
100
AcDbBlockReference
  2
gggr
 10
-2160.143662191742
 20
-3106.622646761023
 30
0.0
  0
INSERT
  5
9FFEB
330
9FE64
100
AcDbEntity
  8
0
 62
     7
100
AcDbBlockReference
  2
gggr
 10
-2030.143662191742
 20
-3106.622646761023
 30
0.0
  0
INSERT
  5
9FFEC
330
9FE64
100
AcDbEntity
  8
0
 62
     7
100
AcDbBlockReference
  2
gggr
 10
-1900.143662191742
 20
-3106.622646761023
 30
0.0
  0
INSERT
  5
9FFED
330
9FE64
100
AcDbEntity
  8
0
 62
     7
100
AcDbBlockReference
  2
gggr
 10
-1770.143662191742
 20
-3106.622646761023
 30
0.0
  0
INSERT
  5
9FFEE
330
9FE64
100
AcDbEntity
  8
0
 62
     7
100
AcDbBlockReference
  2
gggr
 10
-2485.143662191742
 20
-3131.622646761023
 30
0.0
  0
INSERT
  5
9FFEF
330
9FE64
100
AcDbEntity
  8
0
 62
     7
100
AcDbBlockReference
  2
gggr
 10
-2355.143662191742
 20
-3131.622646761023
 30
0.0
  0
INSERT
  5
9FFF0
330
9FE64
100
AcDbEntity
  8
0
 62
     7
100
AcDbBlockReference
  2
gggr
 10
-2225.143662191742
 20
-3131.622646761023
 30
0.0
  0
INSERT
  5
9FFF1
330
9FE64
100
AcDbEntity
  8
0
 62
     7
100
AcDbBlockReference
  2
gggr
 10
-2095.143662191742
 20
-3131.622646761023
 30
0.0
  0
INSERT
  5
9FFF2
330
9FE64
100
AcDbEntity
  8
0
 62
     7
100
AcDbBlockReference
  2
gggr
 10
-1965.143662191742
 20
-3131.622646761023
 30
0.0
  0
INSERT
  5
9FFF3
330
9FE64
100
AcDbEntity
  8
0
 62
     7
100
AcDbBlockReference
  2
gggr
 10
-1835.143662191742
 20
-3131.622646761023
 30
0.0
  0
INSERT
  5
9FFF4
330
9FE64
100
AcDbEntity
  8
0
 62
     7
100
AcDbBlockReference
  2
gggr
 10
-1705.143662191742
 20
-3131.622646761023
 30
0.0
  0
INSERT
  5
9FFF5
330
9FE64
100
AcDbEntity
  8
0
 62
     7
100
AcDbBlockReference
  2
gggr
 10
-2420.143662191742
 20
-3156.622646761023
 30
0.0
  0
INSERT
  5
9FFF6
330
9FE64
100
AcDbEntity
  8
0
 62
     7
100
AcDbBlockReference
  2
gggr
 10
-2290.143662191742
 20
-3156.622646761023
 30
0.0
  0
INSERT
  5
9FFF7
330
9FE64
100
AcDbEntity
  8
0
 62
     7
100
AcDbBlockReference
  2
gggr
 10
-2160.143662191742
 20
-3156.622646761023
 30
0.0
  0
INSERT
  5
9FFF8
330
9FE64
100
AcDbEntity
  8
0
 62
     7
100
AcDbBlockReference
  2
gggr
 10
-2030.143662191742
 20
-3156.622646761023
 30
0.0
  0
INSERT
  5
9FFF9
330
9FE64
100
AcDbEntity
  8
0
 62
     7
100
AcDbBlockReference
  2
gggr
 10
-1900.143662191742
 20
-3156.622646761023
 30
0.0
  0
INSERT
  5
9FFFA
330
9FE64
100
AcDbEntity
  8
0
 62
     7
100
AcDbBlockReference
  2
gggr
 10
-1770.143662191742
 20
-3156.622646761023
 30
0.0
  0
INSERT
  5
9FFFB
330
9FE64
100
AcDbEntity
  8
0
 62
     7
100
AcDbBlockReference
  2
gggr
 10
-2485.143662191742
 20
-3181.622646761023
 30
0.0
  0
INSERT
  5
9FFFC
330
9FE64
100
AcDbEntity
  8
0
 62
     7
100
AcDbBlockReference
  2
gggr
 10
-2355.143662191742
 20
-3181.622646761023
 30
0.0
  0
INSERT
  5
9FFFD
330
9FE64
100
AcDbEntity
  8
0
 62
     7
100
AcDbBlockReference
  2
gggr
 10
-2225.143662191742
 20
-3181.622646761023
 30
0.0
  0
INSERT
  5
9FFFE
330
9FE64
100
AcDbEntity
  8
0
 62
     7
100
AcDbBlockReference
  2
gggr
 10
-2095.143662191742
 20
-3181.622646761023
 30
0.0
  0
INSERT
  5
9FFFF
330
9FE64
100
AcDbEntity
  8
0
 62
     7
100
AcDbBlockReference
  2
gggr
 10
-1965.143662191742
 20
-3181.622646761023
 30
0.0
  0
INSERT
  5
A0000
330
9FE64
100
AcDbEntity
  8
0
 62
     7
100
AcDbBlockReference
  2
gggr
 10
-1835.143662191742
 20
-3181.622646761023
 30
0.0
  0
INSERT
  5
A0001
330
9FE64
100
AcDbEntity
  8
0
 62
     7
100
AcDbBlockReference
  2
gggr
 10
-1705.143662191742
 20
-3181.622646761023
 30
0.0
  0
INSERT
  5
A0002
330
9FE64
100
AcDbEntity
  8
0
 62
     7
100
AcDbBlockReference
  2
gggr
 10
-1640.143662191742
 20
-3106.622646761023
 30
0.0
  0
INSERT
  5
A0003
330
9FE64
100
AcDbEntity
  8
0
 62
     7
100
AcDbBlockReference
  2
gggr
 10
-1640.143662191742
 20
-3156.622646761023
 30
0.0
  0
INSERT
  5
A0004
330
9FE64
100
AcDbEntity
  8
0
 62
     7
100
AcDbBlockReference
  2
gggr
 10
-1575.143662191742
 20
-3131.622646761023
 30
0.0
  0
INSERT
  5
A0005
330
9FE64
100
AcDbEntity
  8
0
 62
     7
100
AcDbBlockReference
  2
gggr
 10
-1575.143662191742
 20
-3181.622646761023
 30
0.0
  0
INSERT
  5
A0006
330
9FE64
100
AcDbEntity
  8
0
 62
     7
100
AcDbBlockReference
  2
gggr
 10
-1510.143662191742
 20
-3106.622646761023
 30
0.0
  0
INSERT
  5
A0007
330
9FE64
100
AcDbEntity
  8
0
 62
     7
100
AcDbBlockReference
  2
gggr
 10
-1510.143662191742
 20
-3156.622646761023
 30
0.0
  0
INSERT
  5
A0008
330
9FE64
100
AcDbEntity
  8
0
 62
     7
100
AcDbBlockReference
  2
gggr
 10
-1445.143662191742
 20
-3131.622646761023
 30
0.0
  0
INSERT
  5
A0009
330
9FE64
100
AcDbEntity
  8
0
 62
     7
100
AcDbBlockReference
  2
gggr
 10
-1445.143662191742
 20
-3181.622646761023
 30
0.0
  0
INSERT
  5
A000A
330
9FE64
100
AcDbEntity
  8
0
 62
     7
100
AcDbBlockReference
  2
gggr
 10
-1380.143662191742
 20
-3106.622646761023
 30
0.0
  0
INSERT
  5
A000B
330
9FE64
100
AcDbEntity
  8
0
 62
     7
100
AcDbBlockReference
  2
gggr
 10
-1380.143662191742
 20
-3156.622646761023
 30
0.0
  0
INSERT
  5
A000C
330
9FE64
100
AcDbEntity
  8
0
 62
     7
100
AcDbBlockReference
  2
gggr
 10
-1315.143662191742
 20
-3131.622646761023
 30
0.0
  0
INSERT
  5
A000D
330
9FE64
100
AcDbEntity
  8
0
 62
     7
100
AcDbBlockReference
  2
gggr
 10
-1315.143662191742
 20
-3181.622646761023
 30
0.0
  0
INSERT
  5
A000E
330
9FE64
100
AcDbEntity
  8
0
 62
     7
100
AcDbBlockReference
  2
gggr
 10
-1250.143662191742
 20
-3106.622646761023
 30
0.0
  0
INSERT
  5
A000F
330
9FE64
100
AcDbEntity
  8
0
 62
     7
100
AcDbBlockReference
  2
gggr
 10
-1250.143662191742
 20
-3156.622646761023
 30
0.0
  0
INSERT
  5
A0010
330
9FE64
100
AcDbEntity
  8
0
 62
     7
100
AcDbBlockReference
  2
gggr
 10
-1185.143662191742
 20
-3131.622646761023
 30
0.0
  0
INSERT
  5
A0011
330
9FE64
100
AcDbEntity
  8
0
 62
     7
100
AcDbBlockReference
  2
gggr
 10
-1185.143662191742
 20
-3181.622646761023
 30
0.0
  0
INSERT
  5
A0012
330
9FE64
100
AcDbEntity
  8
0
 62
     7
100
AcDbBlockReference
  2
gggr
 10
-1120.143662191742
 20
-3106.622646761023
 30
0.0
  0
INSERT
  5
A0013
330
9FE64
100
AcDbEntity
  8
0
 62
     7
100
AcDbBlockReference
  2
gggr
 10
-1120.143662191742
 20
-3156.622646761023
 30
0.0
  0
INSERT
  5
A0014
330
9FE64
100
AcDbEntity
  8
0
 62
     7
100
AcDbBlockReference
  2
gggr
 10
-2420.143662191742
 20
-3206.622646761024
 30
0.0
  0
INSERT
  5
A0015
330
9FE64
100
AcDbEntity
  8
0
 62
     7
100
AcDbBlockReference
  2
gggr
 10
-2290.143662191742
 20
-3206.622646761024
 30
0.0
  0
INSERT
  5
A0016
330
9FE64
100
AcDbEntity
  8
0
 62
     7
100
AcDbBlockReference
  2
gggr
 10
-2160.143662191742
 20
-3206.622646761024
 30
0.0
  0
INSERT
  5
A0017
330
9FE64
100
AcDbEntity
  8
0
 62
     7
100
AcDbBlockReference
  2
gggr
 10
-2030.143662191742
 20
-3206.622646761024
 30
0.0
  0
INSERT
  5
A0018
330
9FE64
100
AcDbEntity
  8
0
 62
     7
100
AcDbBlockReference
  2
gggr
 10
-1900.143662191742
 20
-3206.622646761024
 30
0.0
  0
INSERT
  5
A0019
330
9FE64
100
AcDbEntity
  8
0
 62
     7
100
AcDbBlockReference
  2
gggr
 10
-1770.143662191742
 20
-3206.622646761024
 30
0.0
  0
INSERT
  5
A001A
330
9FE64
100
AcDbEntity
  8
0
 62
     7
100
AcDbBlockReference
  2
gggr
 10
-2485.143662191742
 20
-3231.622646761024
 30
0.0
  0
INSERT
  5
A001B
330
9FE64
100
AcDbEntity
  8
0
 62
     7
100
AcDbBlockReference
  2
gggr
 10
-2355.143662191742
 20
-3231.622646761024
 30
0.0
  0
INSERT
  5
A001C
330
9FE64
100
AcDbEntity
  8
0
 62
     7
100
AcDbBlockReference
  2
gggr
 10
-2225.143662191742
 20
-3231.622646761024
 30
0.0
  0
INSERT
  5
A001D
330
9FE64
100
AcDbEntity
  8
0
 62
     7
100
AcDbBlockReference
  2
gggr
 10
-2095.143662191742
 20
-3231.622646761024
 30
0.0
  0
INSERT
  5
A001E
330
9FE64
100
AcDbEntity
  8
0
 62
     7
100
AcDbBlockReference
  2
gggr
 10
-1965.143662191742
 20
-3231.622646761024
 30
0.0
  0
INSERT
  5
A001F
330
9FE64
100
AcDbEntity
  8
0
 62
     7
100
AcDbBlockReference
  2
gggr
 10
-1835.143662191742
 20
-3231.622646761024
 30
0.0
  0
INSERT
  5
A0020
330
9FE64
100
AcDbEntity
  8
0
 62
     7
100
AcDbBlockReference
  2
gggr
 10
-1705.143662191742
 20
-3231.622646761024
 30
0.0
  0
INSERT
  5
A0021
330
9FE64
100
AcDbEntity
  8
0
 62
     7
100
AcDbBlockReference
  2
gggr
 10
-2420.143662191742
 20
-3256.622646761023
 30
0.0
  0
INSERT
  5
A0022
330
9FE64
100
AcDbEntity
  8
0
 62
     7
100
AcDbBlockReference
  2
gggr
 10
-2290.143662191742
 20
-3256.622646761023
 30
0.0
  0
INSERT
  5
A0023
330
9FE64
100
AcDbEntity
  8
0
 62
     7
100
AcDbBlockReference
  2
gggr
 10
-2160.143662191742
 20
-3256.622646761023
 30
0.0
  0
INSERT
  5
A0024
330
9FE64
100
AcDbEntity
  8
0
 62
     7
100
AcDbBlockReference
  2
gggr
 10
-2030.143662191742
 20
-3256.622646761023
 30
0.0
  0
INSERT
  5
A0025
330
9FE64
100
AcDbEntity
  8
0
 62
     7
100
AcDbBlockReference
  2
gggr
 10
-1900.143662191742
 20
-3256.622646761023
 30
0.0
  0
INSERT
  5
A0026
330
9FE64
100
AcDbEntity
  8
0
 62
     7
100
AcDbBlockReference
  2
gggr
 10
-1770.143662191742
 20
-3256.622646761023
 30
0.0
  0
INSERT
  5
A0027
330
9FE64
100
AcDbEntity
  8
0
 62
     7
100
AcDbBlockReference
  2
gggr
 10
-2485.143662191742
 20
-3281.622646761024
 30
0.0
  0
INSERT
  5
A0028
330
9FE64
100
AcDbEntity
  8
0
 62
     7
100
AcDbBlockReference
  2
gggr
 10
-2355.143662191742
 20
-3281.622646761024
 30
0.0
  0
INSERT
  5
A0029
330
9FE64
100
AcDbEntity
  8
0
 62
     7
100
AcDbBlockReference
  2
gggr
 10
-2225.143662191742
 20
-3281.622646761024
 30
0.0
  0
INSERT
  5
A002A
330
9FE64
100
AcDbEntity
  8
0
 62
     7
100
AcDbBlockReference
  2
gggr
 10
-2095.143662191742
 20
-3281.622646761024
 30
0.0
  0
INSERT
  5
A002B
330
9FE64
100
AcDbEntity
  8
0
 62
     7
100
AcDbBlockReference
  2
gggr
 10
-1965.143662191742
 20
-3281.622646761024
 30
0.0
  0
INSERT
  5
A002C
330
9FE64
100
AcDbEntity
  8
0
 62
     7
100
AcDbBlockReference
  2
gggr
 10
-1835.143662191742
 20
-3281.622646761024
 30
0.0
  0
INSERT
  5
A002D
330
9FE64
100
AcDbEntity
  8
0
 62
     7
100
AcDbBlockReference
  2
gggr
 10
-1705.143662191742
 20
-3281.622646761024
 30
0.0
  0
INSERT
  5
A002E
330
9FE64
100
AcDbEntity
  8
0
 62
     7
100
AcDbBlockReference
  2
gggr
 10
-1640.143662191742
 20
-3206.622646761024
 30
0.0
  0
INSERT
  5
A002F
330
9FE64
100
AcDbEntity
  8
0
 62
     7
100
AcDbBlockReference
  2
gggr
 10
-1640.143662191742
 20
-3256.622646761023
 30
0.0
  0
INSERT
  5
A0030
330
9FE64
100
AcDbEntity
  8
0
 62
     7
100
AcDbBlockReference
  2
gggr
 10
-1575.143662191742
 20
-3231.622646761024
 30
0.0
  0
INSERT
  5
A0031
330
9FE64
100
AcDbEntity
  8
0
 62
     7
100
AcDbBlockReference
  2
gggr
 10
-1575.143662191742
 20
-3281.622646761024
 30
0.0
  0
INSERT
  5
A0032
330
9FE64
100
AcDbEntity
  8
0
 62
     7
100
AcDbBlockReference
  2
gggr
 10
-1510.143662191742
 20
-3206.622646761024
 30
0.0
  0
INSERT
  5
A0033
330
9FE64
100
AcDbEntity
  8
0
 62
     7
100
AcDbBlockReference
  2
gggr
 10
-1510.143662191742
 20
-3256.622646761023
 30
0.0
  0
INSERT
  5
A0034
330
9FE64
100
AcDbEntity
  8
0
 62
     7
100
AcDbBlockReference
  2
gggr
 10
-1445.143662191742
 20
-3231.622646761024
 30
0.0
  0
INSERT
  5
A0035
330
9FE64
100
AcDbEntity
  8
0
 62
     7
100
AcDbBlockReference
  2
gggr
 10
-1445.143662191742
 20
-3281.622646761024
 30
0.0
  0
INSERT
  5
A0036
330
9FE64
100
AcDbEntity
  8
0
 62
     7
100
AcDbBlockReference
  2
gggr
 10
-1380.143662191742
 20
-3206.622646761024
 30
0.0
  0
INSERT
  5
A0037
330
9FE64
100
AcDbEntity
  8
0
 62
     7
100
AcDbBlockReference
  2
gggr
 10
-1380.143662191742
 20
-3256.622646761023
 30
0.0
  0
INSERT
  5
A0038
330
9FE64
100
AcDbEntity
  8
0
 62
     7
100
AcDbBlockReference
  2
gggr
 10
-1315.143662191742
 20
-3231.622646761024
 30
0.0
  0
INSERT
  5
A0039
330
9FE64
100
AcDbEntity
  8
0
 62
     7
100
AcDbBlockReference
  2
gggr
 10
-1315.143662191742
 20
-3281.622646761024
 30
0.0
  0
INSERT
  5
A003A
330
9FE64
100
AcDbEntity
  8
0
 62
     7
100
AcDbBlockReference
  2
gggr
 10
-1250.143662191742
 20
-3206.622646761024
 30
0.0
  0
INSERT
  5
A003B
330
9FE64
100
AcDbEntity
  8
0
 62
     7
100
AcDbBlockReference
  2
gggr
 10
-1250.143662191742
 20
-3256.622646761023
 30
0.0
  0
INSERT
  5
A003C
330
9FE64
100
AcDbEntity
  8
0
 62
     7
100
AcDbBlockReference
  2
gggr
 10
-1185.143662191742
 20
-3231.622646761024
 30
0.0
  0
INSERT
  5
A003D
330
9FE64
100
AcDbEntity
  8
0
 62
     7
100
AcDbBlockReference
  2
gggr
 10
-1185.143662191742
 20
-3281.622646761024
 30
0.0
  0
INSERT
  5
A003E
330
9FE64
100
AcDbEntity
  8
0
 62
     7
100
AcDbBlockReference
  2
gggr
 10
-1120.143662191742
 20
-3206.622646761024
 30
0.0
  0
INSERT
  5
A003F
330
9FE64
100
AcDbEntity
  8
0
 62
     7
100
AcDbBlockReference
  2
gggr
 10
-1120.143662191742
 20
-3256.622646761023
 30
0.0
  0
INSERT
  5
A0040
330
9FE64
100
AcDbEntity
  8
0
 62
     7
100
AcDbBlockReference
  2
gggr
 10
-2420.143662191742
 20
-3306.622646761024
 30
0.0
  0
INSERT
  5
A0041
330
9FE64
100
AcDbEntity
  8
0
 62
     7
100
AcDbBlockReference
  2
gggr
 10
-2290.143662191742
 20
-3306.622646761024
 30
0.0
  0
INSERT
  5
A0042
330
9FE64
100
AcDbEntity
  8
0
 62
     7
100
AcDbBlockReference
  2
gggr
 10
-2160.143662191742
 20
-3306.622646761024
 30
0.0
  0
INSERT
  5
A0043
330
9FE64
100
AcDbEntity
  8
0
 62
     7
100
AcDbBlockReference
  2
gggr
 10
-2030.143662191742
 20
-3306.622646761024
 30
0.0
  0
INSERT
  5
A0044
330
9FE64
100
AcDbEntity
  8
0
 62
     7
100
AcDbBlockReference
  2
gggr
 10
-1900.143662191742
 20
-3306.622646761024
 30
0.0
  0
INSERT
  5
A0045
330
9FE64
100
AcDbEntity
  8
0
 62
     7
100
AcDbBlockReference
  2
gggr
 10
-1770.143662191742
 20
-3306.622646761024
 30
0.0
  0
INSERT
  5
A0046
330
9FE64
100
AcDbEntity
  8
0
 62
     7
100
AcDbBlockReference
  2
gggr
 10
-2485.143662191742
 20
-3331.622646761024
 30
0.0
  0
INSERT
  5
A0047
330
9FE64
100
AcDbEntity
  8
0
 62
     7
100
AcDbBlockReference
  2
gggr
 10
-2355.143662191742
 20
-3331.622646761024
 30
0.0
  0
INSERT
  5
A0048
330
9FE64
100
AcDbEntity
  8
0
 62
     7
100
AcDbBlockReference
  2
gggr
 10
-2225.143662191742
 20
-3331.622646761024
 30
0.0
  0
INSERT
  5
A0049
330
9FE64
100
AcDbEntity
  8
0
 62
     7
100
AcDbBlockReference
  2
gggr
 10
-2095.143662191742
 20
-3331.622646761024
 30
0.0
  0
INSERT
  5
A004A
330
9FE64
100
AcDbEntity
  8
0
 62
     7
100
AcDbBlockReference
  2
gggr
 10
-1965.143662191742
 20
-3331.622646761024
 30
0.0
  0
INSERT
  5
A004B
330
9FE64
100
AcDbEntity
  8
0
 62
     7
100
AcDbBlockReference
  2
gggr
 10
-1835.143662191742
 20
-3331.622646761024
 30
0.0
  0
INSERT
  5
A004C
330
9FE64
100
AcDbEntity
  8
0
 62
     7
100
AcDbBlockReference
  2
gggr
 10
-1705.143662191742
 20
-3331.622646761024
 30
0.0
  0
INSERT
  5
A004D
330
9FE64
100
AcDbEntity
  8
0
 62
     7
100
AcDbBlockReference
  2
gggr
 10
-2420.143662191742
 20
-3356.622646761024
 30
0.0
  0
INSERT
  5
A004E
330
9FE64
100
AcDbEntity
  8
0
 62
     7
100
AcDbBlockReference
  2
gggr
 10
-2290.143662191742
 20
-3356.622646761024
 30
0.0
  0
INSERT
  5
A004F
330
9FE64
100
AcDbEntity
  8
0
 62
     7
100
AcDbBlockReference
  2
gggr
 10
-2160.143662191742
 20
-3356.622646761024
 30
0.0
  0
INSERT
  5
A0050
330
9FE64
100
AcDbEntity
  8
0
 62
     7
100
AcDbBlockReference
  2
gggr
 10
-2030.143662191742
 20
-3356.622646761024
 30
0.0
  0
INSERT
  5
A0051
330
9FE64
100
AcDbEntity
  8
0
 62
     7
100
AcDbBlockReference
  2
gggr
 10
-1900.143662191742
 20
-3356.622646761024
 30
0.0
  0
INSERT
  5
A0052
330
9FE64
100
AcDbEntity
  8
0
 62
     7
100
AcDbBlockReference
  2
gggr
 10
-1770.143662191742
 20
-3356.622646761024
 30
0.0
  0
INSERT
  5
A0053
330
9FE64
100
AcDbEntity
  8
0
 62
     7
100
AcDbBlockReference
  2
gggr
 10
-2485.143662191742
 20
-3381.622646761023
 30
0.0
  0
INSERT
  5
A0054
330
9FE64
100
AcDbEntity
  8
0
 62
     7
100
AcDbBlockReference
  2
gggr
 10
-2355.143662191742
 20
-3381.622646761023
 30
0.0
  0
INSERT
  5
A0055
330
9FE64
100
AcDbEntity
  8
0
 62
     7
100
AcDbBlockReference
  2
gggr
 10
-2225.143662191742
 20
-3381.622646761023
 30
0.0
  0
INSERT
  5
A0056
330
9FE64
100
AcDbEntity
  8
0
 62
     7
100
AcDbBlockReference
  2
gggr
 10
-2095.143662191742
 20
-3381.622646761023
 30
0.0
  0
INSERT
  5
A0057
330
9FE64
100
AcDbEntity
  8
0
 62
     7
100
AcDbBlockReference
  2
gggr
 10
-1965.143662191742
 20
-3381.622646761023
 30
0.0
  0
INSERT
  5
A0058
330
9FE64
100
AcDbEntity
  8
0
 62
     7
100
AcDbBlockReference
  2
gggr
 10
-1835.143662191742
 20
-3381.622646761023
 30
0.0
  0
INSERT
  5
A0059
330
9FE64
100
AcDbEntity
  8
0
 62
     7
100
AcDbBlockReference
  2
gggr
 10
-1705.143662191742
 20
-3381.622646761023
 30
0.0
  0
INSERT
  5
A005A
330
9FE64
100
AcDbEntity
  8
0
 62
     7
100
AcDbBlockReference
  2
gggr
 10
-1640.143662191742
 20
-3306.622646761024
 30
0.0
  0
INSERT
  5
A005B
330
9FE64
100
AcDbEntity
  8
0
 62
     7
100
AcDbBlockReference
  2
gggr
 10
-1640.143662191742
 20
-3356.622646761024
 30
0.0
  0
INSERT
  5
A005C
330
9FE64
100
AcDbEntity
  8
0
 62
     7
100
AcDbBlockReference
  2
gggr
 10
-1575.143662191742
 20
-3331.622646761024
 30
0.0
  0
INSERT
  5
A005D
330
9FE64
100
AcDbEntity
  8
0
 62
     7
100
AcDbBlockReference
  2
gggr
 10
-1575.143662191742
 20
-3381.622646761023
 30
0.0
  0
INSERT
  5
A005E
330
9FE64
100
AcDbEntity
  8
0
 62
     7
100
AcDbBlockReference
  2
gggr
 10
-1510.143662191742
 20
-3306.622646761024
 30
0.0
  0
INSERT
  5
A005F
330
9FE64
100
AcDbEntity
  8
0
 62
     7
100
AcDbBlockReference
  2
gggr
 10
-1510.143662191742
 20
-3356.622646761024
 30
0.0
  0
INSERT
  5
A0060
330
9FE64
100
AcDbEntity
  8
0
 62
     7
100
AcDbBlockReference
  2
gggr
 10
-1445.143662191742
 20
-3331.622646761024
 30
0.0
  0
INSERT
  5
A0061
330
9FE64
100
AcDbEntity
  8
0
 62
     7
100
AcDbBlockReference
  2
gggr
 10
-1445.143662191742
 20
-3381.622646761023
 30
0.0
  0
INSERT
  5
A0062
330
9FE64
100
AcDbEntity
  8
0
 62
     7
100
AcDbBlockReference
  2
gggr
 10
-1380.143662191742
 20
-3306.622646761024
 30
0.0
  0
INSERT
  5
A0063
330
9FE64
100
AcDbEntity
  8
0
 62
     7
100
AcDbBlockReference
  2
gggr
 10
-1380.143662191742
 20
-3356.622646761024
 30
0.0
  0
INSERT
  5
A0064
330
9FE64
100
AcDbEntity
  8
0
 62
     7
100
AcDbBlockReference
  2
gggr
 10
-1315.143662191742
 20
-3331.622646761024
 30
0.0
  0
INSERT
  5
A0065
330
9FE64
100
AcDbEntity
  8
0
 62
     7
100
AcDbBlockReference
  2
gggr
 10
-1315.143662191742
 20
-3381.622646761023
 30
0.0
  0
INSERT
  5
A0066
330
9FE64
100
AcDbEntity
  8
0
 62
     7
100
AcDbBlockReference
  2
gggr
 10
-1250.143662191742
 20
-3306.622646761024
 30
0.0
  0
INSERT
  5
A0067
330
9FE64
100
AcDbEntity
  8
0
 62
     7
100
AcDbBlockReference
  2
gggr
 10
-1250.143662191742
 20
-3356.622646761024
 30
0.0
  0
INSERT
  5
A0068
330
9FE64
100
AcDbEntity
  8
0
 62
     7
100
AcDbBlockReference
  2
gggr
 10
-1185.143662191742
 20
-3331.622646761024
 30
0.0
  0
INSERT
  5
A0069
330
9FE64
100
AcDbEntity
  8
0
 62
     7
100
AcDbBlockReference
  2
gggr
 10
-1185.143662191742
 20
-3381.622646761023
 30
0.0
  0
INSERT
  5
A006A
330
9FE64
100
AcDbEntity
  8
0
 62
     7
100
AcDbBlockReference
  2
gggr
 10
-1120.143662191742
 20
-3306.622646761024
 30
0.0
  0
INSERT
  5
A006B
330
9FE64
100
AcDbEntity
  8
0
 62
     7
100
AcDbBlockReference
  2
gggr
 10
-1120.143662191742
 20
-3356.622646761024
 30
0.0
  0
INSERT
  5
A006C
330
9FE64
100
AcDbEntity
  8
0
 62
     7
100
AcDbBlockReference
  2
gggr
 10
-2420.143662191742
 20
-3406.622646761024
 30
0.0
  0
INSERT
  5
A006D
330
9FE64
100
AcDbEntity
  8
0
 62
     7
100
AcDbBlockReference
  2
gggr
 10
-2290.143662191742
 20
-3406.622646761024
 30
0.0
  0
INSERT
  5
A006E
330
9FE64
100
AcDbEntity
  8
0
 62
     7
100
AcDbBlockReference
  2
gggr
 10
-2160.143662191742
 20
-3406.622646761024
 30
0.0
  0
INSERT
  5
A006F
330
9FE64
100
AcDbEntity
  8
0
 62
     7
100
AcDbBlockReference
  2
gggr
 10
-2030.143662191742
 20
-3406.622646761024
 30
0.0
  0
INSERT
  5
A0070
330
9FE64
100
AcDbEntity
  8
0
 62
     7
100
AcDbBlockReference
  2
gggr
 10
-1900.143662191742
 20
-3406.622646761024
 30
0.0
  0
INSERT
  5
A0071
330
9FE64
100
AcDbEntity
  8
0
 62
     7
100
AcDbBlockReference
  2
gggr
 10
-1770.143662191742
 20
-3406.622646761024
 30
0.0
  0
INSERT
  5
A0072
330
9FE64
100
AcDbEntity
  8
0
 62
     7
100
AcDbBlockReference
  2
gggr
 10
-2485.143662191742
 20
-3431.622646761024
 30
0.0
  0
INSERT
  5
A0073
330
9FE64
100
AcDbEntity
  8
0
 62
     7
100
AcDbBlockReference
  2
gggr
 10
-2355.143662191742
 20
-3431.622646761024
 30
0.0
  0
INSERT
  5
A0074
330
9FE64
100
AcDbEntity
  8
0
 62
     7
100
AcDbBlockReference
  2
gggr
 10
-2225.143662191742
 20
-3431.622646761024
 30
0.0
  0
INSERT
  5
A0075
330
9FE64
100
AcDbEntity
  8
0
 62
     7
100
AcDbBlockReference
  2
gggr
 10
-2095.143662191742
 20
-3431.622646761024
 30
0.0
  0
INSERT
  5
A0076
330
9FE64
100
AcDbEntity
  8
0
 62
     7
100
AcDbBlockReference
  2
gggr
 10
-1965.143662191742
 20
-3431.622646761024
 30
0.0
  0
INSERT
  5
A0077
330
9FE64
100
AcDbEntity
  8
0
 62
     7
100
AcDbBlockReference
  2
gggr
 10
-1835.143662191742
 20
-3431.622646761024
 30
0.0
  0
INSERT
  5
A0078
330
9FE64
100
AcDbEntity
  8
0
 62
     7
100
AcDbBlockReference
  2
gggr
 10
-1705.143662191742
 20
-3431.622646761024
 30
0.0
  0
INSERT
  5
A0079
330
9FE64
100
AcDbEntity
  8
0
 62
     7
100
AcDbBlockReference
  2
gggr
 10
-2420.143662191742
 20
-3456.622646761024
 30
0.0
  0
INSERT
  5
A007A
330
9FE64
100
AcDbEntity
  8
0
 62
     7
100
AcDbBlockReference
  2
gggr
 10
-2290.143662191742
 20
-3456.622646761024
 30
0.0
  0
INSERT
  5
A007B
330
9FE64
100
AcDbEntity
  8
0
 62
     7
100
AcDbBlockReference
  2
gggr
 10
-2160.143662191742
 20
-3456.622646761024
 30
0.0
  0
INSERT
  5
A007C
330
9FE64
100
AcDbEntity
  8
0
 62
     7
100
AcDbBlockReference
  2
gggr
 10
-2030.143662191742
 20
-3456.622646761024
 30
0.0
  0
INSERT
  5
A007D
330
9FE64
100
AcDbEntity
  8
0
 62
     7
100
AcDbBlockReference
  2
gggr
 10
-1900.143662191742
 20
-3456.622646761024
 30
0.0
  0
INSERT
  5
A007E
330
9FE64
100
AcDbEntity
  8
0
 62
     7
100
AcDbBlockReference
  2
gggr
 10
-1770.143662191742
 20
-3456.622646761024
 30
0.0
  0
INSERT
  5
A007F
330
9FE64
100
AcDbEntity
  8
0
 62
     7
100
AcDbBlockReference
  2
gggr
 10
-2485.143662191742
 20
-3481.622646761024
 30
0.0
  0
INSERT
  5
A0080
330
9FE64
100
AcDbEntity
  8
0
 62
     7
100
AcDbBlockReference
  2
gggr
 10
-2355.143662191742
 20
-3481.622646761024
 30
0.0
  0
INSERT
  5
A0081
330
9FE64
100
AcDbEntity
  8
0
 62
     7
100
AcDbBlockReference
  2
gggr
 10
-2225.143662191742
 20
-3481.622646761024
 30
0.0
  0
INSERT
  5
A0082
330
9FE64
100
AcDbEntity
  8
0
 62
     7
100
AcDbBlockReference
  2
gggr
 10
-2095.143662191742
 20
-3481.622646761024
 30
0.0
  0
INSERT
  5
A0083
330
9FE64
100
AcDbEntity
  8
0
 62
     7
100
AcDbBlockReference
  2
gggr
 10
-1965.143662191742
 20
-3481.622646761024
 30
0.0
  0
INSERT
  5
A0084
330
9FE64
100
AcDbEntity
  8
0
 62
     7
100
AcDbBlockReference
  2
gggr
 10
-1835.143662191742
 20
-3481.622646761024
 30
0.0
  0
INSERT
  5
A0085
330
9FE64
100
AcDbEntity
  8
0
 62
     7
100
AcDbBlockReference
  2
gggr
 10
-1705.143662191742
 20
-3481.622646761024
 30
0.0
  0
INSERT
  5
A0086
330
9FE64
100
AcDbEntity
  8
0
 62
     7
100
AcDbBlockReference
  2
gggr
 10
-1640.143662191742
 20
-3406.622646761024
 30
0.0
  0
INSERT
  5
A0087
330
9FE64
100
AcDbEntity
  8
0
 62
     7
100
AcDbBlockReference
  2
gggr
 10
-1640.143662191742
 20
-3456.622646761024
 30
0.0
  0
INSERT
  5
A0088
330
9FE64
100
AcDbEntity
  8
0
 62
     7
100
AcDbBlockReference
  2
gggr
 10
-1575.143662191742
 20
-3431.622646761024
 30
0.0
  0
INSERT
  5
A0089
330
9FE64
100
AcDbEntity
  8
0
 62
     7
100
AcDbBlockReference
  2
gggr
 10
-1575.143662191742
 20
-3481.622646761024
 30
0.0
  0
INSERT
  5
A008A
330
9FE64
100
AcDbEntity
  8
0
 62
     7
100
AcDbBlockReference
  2
gggr
 10
-1510.143662191742
 20
-3406.622646761024
 30
0.0
  0
INSERT
  5
A008B
330
9FE64
100
AcDbEntity
  8
0
 62
     7
100
AcDbBlockReference
  2
gggr
 10
-1510.143662191742
 20
-3456.622646761024
 30
0.0
  0
INSERT
  5
A008C
330
9FE64
100
AcDbEntity
  8
0
 62
     7
100
AcDbBlockReference
  2
gggr
 10
-1445.143662191742
 20
-3431.622646761024
 30
0.0
  0
INSERT
  5
A008D
330
9FE64
100
AcDbEntity
  8
0
 62
     7
100
AcDbBlockReference
  2
gggr
 10
-1445.143662191742
 20
-3481.622646761024
 30
0.0
  0
INSERT
  5
A008E
330
9FE64
100
AcDbEntity
  8
0
 62
     7
100
AcDbBlockReference
  2
gggr
 10
-1380.143662191742
 20
-3406.622646761024
 30
0.0
  0
INSERT
  5
A008F
330
9FE64
100
AcDbEntity
  8
0
 62
     7
100
AcDbBlockReference
  2
gggr
 10
-1380.143662191742
 20
-3456.622646761024
 30
0.0
  0
INSERT
  5
A0090
330
9FE64
100
AcDbEntity
  8
0
 62
     7
100
AcDbBlockReference
  2
gggr
 10
-1315.143662191742
 20
-3431.622646761024
 30
0.0
  0
INSERT
  5
A0091
330
9FE64
100
AcDbEntity
  8
0
 62
     7
100
AcDbBlockReference
  2
gggr
 10
-1315.143662191742
 20
-3481.622646761024
 30
0.0
  0
INSERT
  5
A0092
330
9FE64
100
AcDbEntity
  8
0
 62
     7
100
AcDbBlockReference
  2
gggr
 10
-1250.143662191742
 20
-3406.622646761024
 30
0.0
  0
INSERT
  5
A0093
330
9FE64
100
AcDbEntity
  8
0
 62
     7
100
AcDbBlockReference
  2
gggr
 10
-1250.143662191742
 20
-3456.622646761024
 30
0.0
  0
INSERT
  5
A0094
330
9FE64
100
AcDbEntity
  8
0
 62
     7
100
AcDbBlockReference
  2
gggr
 10
-1185.143662191742
 20
-3431.622646761024
 30
0.0
  0
INSERT
  5
A0095
330
9FE64
100
AcDbEntity
  8
0
 62
     7
100
AcDbBlockReference
  2
gggr
 10
-1185.143662191742
 20
-3481.622646761024
 30
0.0
  0
INSERT
  5
A0096
330
9FE64
100
AcDbEntity
  8
0
 62
     7
100
AcDbBlockReference
  2
gggr
 10
-1120.143662191742
 20
-3406.622646761024
 30
0.0
  0
INSERT
  5
A0097
330
9FE64
100
AcDbEntity
  8
0
 62
     7
100
AcDbBlockReference
  2
gggr
 10
-1120.143662191742
 20
-3456.622646761024
 30
0.0
  0
INSERT
  5
A0098
330
9FE64
100
AcDbEntity
  8
0
 62
     7
100
AcDbBlockReference
  2
gggr
 10
-2420.143662191742
 20
-3506.622646761023
 30
0.0
  0
INSERT
  5
A0099
330
9FE64
100
AcDbEntity
  8
0
 62
     7
100
AcDbBlockReference
  2
gggr
 10
-2290.143662191742
 20
-3506.622646761023
 30
0.0
  0
INSERT
  5
A009A
330
9FE64
100
AcDbEntity
  8
0
 62
     7
100
AcDbBlockReference
  2
gggr
 10
-2160.143662191742
 20
-3506.622646761023
 30
0.0
  0
INSERT
  5
A009B
330
9FE64
100
AcDbEntity
  8
0
 62
     7
100
AcDbBlockReference
  2
gggr
 10
-2030.143662191742
 20
-3506.622646761023
 30
0.0
  0
INSERT
  5
A009C
330
9FE64
100
AcDbEntity
  8
0
 62
     7
100
AcDbBlockReference
  2
gggr
 10
-1900.143662191742
 20
-3506.622646761023
 30
0.0
  0
INSERT
  5
A009D
330
9FE64
100
AcDbEntity
  8
0
 62
     7
100
AcDbBlockReference
  2
gggr
 10
-1770.143662191742
 20
-3506.622646761023
 30
0.0
  0
INSERT
  5
A009E
330
9FE64
100
AcDbEntity
  8
0
 62
     7
100
AcDbBlockReference
  2
gggr
 10
-2485.143662191742
 20
-3531.622646761024
 30
0.0
  0
INSERT
  5
A009F
330
9FE64
100
AcDbEntity
  8
0
 62
     7
100
AcDbBlockReference
  2
gggr
 10
-2355.143662191742
 20
-3531.622646761024
 30
0.0
  0
INSERT
  5
A00A0
330
9FE64
100
AcDbEntity
  8
0
 62
     7
100
AcDbBlockReference
  2
gggr
 10
-2225.143662191742
 20
-3531.622646761024
 30
0.0
  0
INSERT
  5
A00A1
330
9FE64
100
AcDbEntity
  8
0
 62
     7
100
AcDbBlockReference
  2
gggr
 10
-2095.143662191742
 20
-3531.622646761024
 30
0.0
  0
INSERT
  5
A00A2
330
9FE64
100
AcDbEntity
  8
0
 62
     7
100
AcDbBlockReference
  2
gggr
 10
-1965.143662191742
 20
-3531.622646761024
 30
0.0
  0
INSERT
  5
A00A3
330
9FE64
100
AcDbEntity
  8
0
 62
     7
100
AcDbBlockReference
  2
gggr
 10
-1835.143662191742
 20
-3531.622646761024
 30
0.0
  0
INSERT
  5
A00A4
330
9FE64
100
AcDbEntity
  8
0
 62
     7
100
AcDbBlockReference
  2
gggr
 10
-1705.143662191742
 20
-3531.622646761024
 30
0.0
  0
INSERT
  5
A00A5
330
9FE64
100
AcDbEntity
  8
0
 62
     7
100
AcDbBlockReference
  2
gggr
 10
-2420.143662191742
 20
-3556.622646761024
 30
0.0
  0
INSERT
  5
A00A6
330
9FE64
100
AcDbEntity
  8
0
 62
     7
100
AcDbBlockReference
  2
gggr
 10
-2290.143662191742
 20
-3556.622646761024
 30
0.0
  0
INSERT
  5
A00A7
330
9FE64
100
AcDbEntity
  8
0
 62
     7
100
AcDbBlockReference
  2
gggr
 10
-2160.143662191742
 20
-3556.622646761024
 30
0.0
  0
INSERT
  5
A00A8
330
9FE64
100
AcDbEntity
  8
0
 62
     7
100
AcDbBlockReference
  2
gggr
 10
-2030.143662191742
 20
-3556.622646761024
 30
0.0
  0
INSERT
  5
A00A9
330
9FE64
100
AcDbEntity
  8
0
 62
     7
100
AcDbBlockReference
  2
gggr
 10
-1900.143662191742
 20
-3556.622646761024
 30
0.0
  0
INSERT
  5
A00AA
330
9FE64
100
AcDbEntity
  8
0
 62
     7
100
AcDbBlockReference
  2
gggr
 10
-1770.143662191742
 20
-3556.622646761024
 30
0.0
  0
INSERT
  5
A00AB
330
9FE64
100
AcDbEntity
  8
0
 62
     7
100
AcDbBlockReference
  2
gggr
 10
-1640.143662191742
 20
-3506.622646761023
 30
0.0
  0
INSERT
  5
A00AC
330
9FE64
100
AcDbEntity
  8
0
 62
     7
100
AcDbBlockReference
  2
gggr
 10
-1640.143662191742
 20
-3556.622646761024
 30
0.0
  0
INSERT
  5
A00AD
330
9FE64
100
AcDbEntity
  8
0
 62
     7
100
AcDbBlockReference
  2
gggr
 10
-1575.143662191742
 20
-3531.622646761024
 30
0.0
  0
INSERT
  5
A00AE
330
9FE64
100
AcDbEntity
  8
0
 62
     7
100
AcDbBlockReference
  2
gggr
 10
-1510.143662191742
 20
-3506.622646761023
 30
0.0
  0
INSERT
  5
A00AF
330
9FE64
100
AcDbEntity
  8
0
 62
     7
100
AcDbBlockReference
  2
gggr
 10
-1510.143662191742
 20
-3556.622646761024
 30
0.0
  0
INSERT
  5
A00B0
330
9FE64
100
AcDbEntity
  8
0
 62
     7
100
AcDbBlockReference
  2
gggr
 10
-1445.143662191742
 20
-3531.622646761024
 30
0.0
  0
INSERT
  5
A00B1
330
9FE64
100
AcDbEntity
  8
0
 62
     7
100
AcDbBlockReference
  2
gggr
 10
-1380.143662191742
 20
-3506.622646761023
 30
0.0
  0
INSERT
  5
A00B2
330
9FE64
100
AcDbEntity
  8
0
 62
     7
100
AcDbBlockReference
  2
gggr
 10
-1380.143662191742
 20
-3556.622646761024
 30
0.0
  0
INSERT
  5
A00B3
330
9FE64
100
AcDbEntity
  8
0
 62
     7
100
AcDbBlockReference
  2
gggr
 10
-1315.143662191742
 20
-3531.622646761024
 30
0.0
  0
INSERT
  5
A00B4
330
9FE64
100
AcDbEntity
  8
0
 62
     7
100
AcDbBlockReference
  2
gggr
 10
-1250.143662191742
 20
-3506.622646761023
 30
0.0
  0
INSERT
  5
A00B5
330
9FE64
100
AcDbEntity
  8
0
 62
     7
100
AcDbBlockReference
  2
gggr
 10
-1250.143662191742
 20
-3556.622646761024
 30
0.0
  0
INSERT
  5
A00B6
330
9FE64
100
AcDbEntity
  8
0
 62
     7
100
AcDbBlockReference
  2
gggr
 10
-1185.143662191742
 20
-3531.622646761024
 30
0.0
  0
INSERT
  5
A00B7
330
9FE64
100
AcDbEntity
  8
0
 62
     7
100
AcDbBlockReference
  2
gggr
 10
-1120.143662191742
 20
-3506.622646761023
 30
0.0
  0
INSERT
  5
A00B8
330
9FE64
100
AcDbEntity
  8
0
 62
     7
100
AcDbBlockReference
  2
gggr
 10
-1120.143662191742
 20
-3556.622646761024
 30
0.0
  0
INSERT
  5
A00B9
330
9FE64
100
AcDbEntity
  8
0
 62
     7
100
AcDbBlockReference
  2
gggr
 10
-2420.143662191742
 20
-2206.622646761023
 30
0.0
  0
INSERT
  5
A00BA
330
9FE64
100
AcDbEntity
  8
0
 62
     7
100
AcDbBlockReference
  2
gggr
 10
-2290.143662191742
 20
-2206.622646761023
 30
0.0
  0
INSERT
  5
A00BB
330
9FE64
100
AcDbEntity
  8
0
 62
     7
100
AcDbBlockReference
  2
gggr
 10
-2160.143662191742
 20
-2206.622646761023
 30
0.0
  0
INSERT
  5
A00BC
330
9FE64
100
AcDbEntity
  8
0
 62
     7
100
AcDbBlockReference
  2
gggr
 10
-2030.143662191742
 20
-2206.622646761023
 30
0.0
  0
INSERT
  5
A00BD
330
9FE64
100
AcDbEntity
  8
0
 62
     7
100
AcDbBlockReference
  2
gggr
 10
-1900.143662191742
 20
-2206.622646761023
 30
0.0
  0
INSERT
  5
A00BE
330
9FE64
100
AcDbEntity
  8
0
 62
     7
100
AcDbBlockReference
  2
gggr
 10
-1770.143662191742
 20
-2206.622646761023
 30
0.0
  0
INSERT
  5
A00BF
330
9FE64
100
AcDbEntity
  8
0
 62
     7
100
AcDbBlockReference
  2
gggr
 10
-1640.143662191742
 20
-2206.622646761023
 30
0.0
  0
INSERT
  5
A00C0
330
9FE64
100
AcDbEntity
  8
0
 62
     7
100
AcDbBlockReference
  2
gggr
 10
-1510.143662191742
 20
-2206.622646761023
 30
0.0
  0
INSERT
  5
A00C1
330
9FE64
100
AcDbEntity
  8
0
 62
     7
100
AcDbBlockReference
  2
gggr
 10
-1380.143662191742
 20
-2206.622646761023
 30
0.0
  0
INSERT
  5
A00C2
330
9FE64
100
AcDbEntity
  8
0
 62
     7
100
AcDbBlockReference
  2
gggr
 10
-1250.143662191742
 20
-2206.622646761023
 30
0.0
  0
INSERT
  5
A00C3
330
9FE64
100
AcDbEntity
  8
0
 62
     7
100
AcDbBlockReference
  2
gggr
 10
-1120.143662191742
 20
-2206.622646761023
 30
0.0
  0
INSERT
  5
A00C4
330
9FE64
100
AcDbEntity
  8
0
 62
     7
100
AcDbBlockReference
  2
gggr
 10
-2485.143662191742
 20
-2181.622646761023
 30
0.0
  0
INSERT
  5
A00C5
330
9FE64
100
AcDbEntity
  8
0
 62
     7
100
AcDbBlockReference
  2
gggr
 10
-2355.143662191742
 20
-2181.622646761023
 30
0.0
  0
INSERT
  5
A00C6
330
9FE64
100
AcDbEntity
  8
0
 62
     7
100
AcDbBlockReference
  2
gggr
 10
-2225.143662191742
 20
-2181.622646761023
 30
0.0
  0
INSERT
  5
A00C7
330
9FE64
100
AcDbEntity
  8
0
 62
     7
100
AcDbBlockReference
  2
gggr
 10
-2095.143662191742
 20
-2181.622646761023
 30
0.0
  0
INSERT
  5
A00C8
330
9FE64
100
AcDbEntity
  8
0
 62
     7
100
AcDbBlockReference
  2
gggr
 10
-1965.143662191742
 20
-2181.622646761023
 30
0.0
  0
INSERT
  5
A00C9
330
9FE64
100
AcDbEntity
  8
0
 62
     7
100
AcDbBlockReference
  2
gggr
 10
-1835.143662191742
 20
-2181.622646761023
 30
0.0
  0
INSERT
  5
A00CA
330
9FE64
100
AcDbEntity
  8
0
 62
     7
100
AcDbBlockReference
  2
gggr
 10
-1705.143662191742
 20
-2181.622646761023
 30
0.0
  0
INSERT
  5
A00CB
330
9FE64
100
AcDbEntity
  8
0
 62
     7
100
AcDbBlockReference
  2
gggr
 10
-1575.143662191742
 20
-2181.622646761023
 30
0.0
  0
INSERT
  5
A00CC
330
9FE64
100
AcDbEntity
  8
0
 62
     7
100
AcDbBlockReference
  2
gggr
 10
-1445.143662191742
 20
-2181.622646761023
 30
0.0
  0
INSERT
  5
A00CD
330
9FE64
100
AcDbEntity
  8
0
 62
     7
100
AcDbBlockReference
  2
gggr
 10
-1315.143662191742
 20
-2181.622646761023
 30
0.0
  0
INSERT
  5
A00CE
330
9FE64
100
AcDbEntity
  8
0
 62
     7
100
AcDbBlockReference
  2
gggr
 10
-1185.143662191742
 20
-2181.622646761023
 30
0.0
  0
INSERT
  5
A00CF
330
9FE64
100
AcDbEntity
  8
0
 62
     7
100
AcDbBlockReference
  2
gggr
 10
-2420.143662191742
 20
-2156.622646761023
 30
0.0
  0
INSERT
  5
A00D0
330
9FE64
100
AcDbEntity
  8
0
 62
     7
100
AcDbBlockReference
  2
gggr
 10
-2290.143662191742
 20
-2156.622646761023
 30
0.0
  0
INSERT
  5
A00D1
330
9FE64
100
AcDbEntity
  8
0
 62
     7
100
AcDbBlockReference
  2
gggr
 10
-2160.143662191742
 20
-2156.622646761023
 30
0.0
  0
INSERT
  5
A00D2
330
9FE64
100
AcDbEntity
  8
0
 62
     7
100
AcDbBlockReference
  2
gggr
 10
-2030.143662191742
 20
-2156.622646761023
 30
0.0
  0
INSERT
  5
A00D3
330
9FE64
100
AcDbEntity
  8
0
 62
     7
100
AcDbBlockReference
  2
gggr
 10
-1900.143662191742
 20
-2156.622646761023
 30
0.0
  0
INSERT
  5
A00D4
330
9FE64
100
AcDbEntity
  8
0
 62
     7
100
AcDbBlockReference
  2
gggr
 10
-1770.143662191742
 20
-2156.622646761023
 30
0.0
  0
INSERT
  5
A00D5
330
9FE64
100
AcDbEntity
  8
0
 62
     7
100
AcDbBlockReference
  2
gggr
 10
-1640.143662191742
 20
-2156.622646761023
 30
0.0
  0
INSERT
  5
A00D6
330
9FE64
100
AcDbEntity
  8
0
 62
     7
100
AcDbBlockReference
  2
gggr
 10
-1510.143662191742
 20
-2156.622646761023
 30
0.0
  0
INSERT
  5
A00D7
330
9FE64
100
AcDbEntity
  8
0
 62
     7
100
AcDbBlockReference
  2
gggr
 10
-1380.143662191742
 20
-2156.622646761023
 30
0.0
  0
INSERT
  5
A00D8
330
9FE64
100
AcDbEntity
  8
0
 62
     7
100
AcDbBlockReference
  2
gggr
 10
-1250.143662191742
 20
-2156.622646761023
 30
0.0
  0
INSERT
  5
A00D9
330
9FE64
100
AcDbEntity
  8
0
 62
     7
100
AcDbBlockReference
  2
gggr
 10
-1120.143662191742
 20
-2156.622646761023
 30
0.0
  0
INSERT
  5
A00DA
330
9FE64
100
AcDbEntity
  8
0
 62
     7
100
AcDbBlockReference
  2
gggr
 10
-2485.143662191742
 20
-2131.622646761023
 30
0.0
  0
INSERT
  5
A00DB
330
9FE64
100
AcDbEntity
  8
0
 62
     7
100
AcDbBlockReference
  2
gggr
 10
-2355.143662191742
 20
-2131.622646761023
 30
0.0
  0
INSERT
  5
A00DC
330
9FE64
100
AcDbEntity
  8
0
 62
     7
100
AcDbBlockReference
  2
gggr
 10
-2225.143662191742
 20
-2131.622646761023
 30
0.0
  0
INSERT
  5
A00DD
330
9FE64
100
AcDbEntity
  8
0
 62
     7
100
AcDbBlockReference
  2
gggr
 10
-2095.143662191742
 20
-2131.622646761023
 30
0.0
  0
INSERT
  5
A00DE
330
9FE64
100
AcDbEntity
  8
0
 62
     7
100
AcDbBlockReference
  2
gggr
 10
-1965.143662191742
 20
-2131.622646761023
 30
0.0
  0
INSERT
  5
A00DF
330
9FE64
100
AcDbEntity
  8
0
 62
     7
100
AcDbBlockReference
  2
gggr
 10
-1835.143662191742
 20
-2131.622646761023
 30
0.0
  0
INSERT
  5
A00E0
330
9FE64
100
AcDbEntity
  8
0
 62
     7
100
AcDbBlockReference
  2
gggr
 10
-1705.143662191742
 20
-2131.622646761023
 30
0.0
  0
INSERT
  5
A00E1
330
9FE64
100
AcDbEntity
  8
0
 62
     7
100
AcDbBlockReference
  2
gggr
 10
-1575.143662191742
 20
-2131.622646761023
 30
0.0
  0
INSERT
  5
A00E2
330
9FE64
100
AcDbEntity
  8
0
 62
     7
100
AcDbBlockReference
  2
gggr
 10
-1445.143662191742
 20
-2131.622646761023
 30
0.0
  0
INSERT
  5
A00E3
330
9FE64
100
AcDbEntity
  8
0
 62
     7
100
AcDbBlockReference
  2
gggr
 10
-1315.143662191742
 20
-2131.622646761023
 30
0.0
  0
INSERT
  5
A00E4
330
9FE64
100
AcDbEntity
  8
0
 62
     7
100
AcDbBlockReference
  2
gggr
 10
-1185.143662191742
 20
-2131.622646761023
 30
0.0
  0
INSERT
  5
A00E5
330
9FE64
100
AcDbEntity
  8
0
 62
     7
100
AcDbBlockReference
  2
gggr
 10
-2420.143662191742
 20
-2106.622646761023
 30
0.0
  0
INSERT
  5
A00E6
330
9FE64
100
AcDbEntity
  8
0
 62
     7
100
AcDbBlockReference
  2
gggr
 10
-2290.143662191742
 20
-2106.622646761023
 30
0.0
  0
INSERT
  5
A00E7
330
9FE64
100
AcDbEntity
  8
0
 62
     7
100
AcDbBlockReference
  2
gggr
 10
-2160.143662191742
 20
-2106.622646761023
 30
0.0
  0
INSERT
  5
A00E8
330
9FE64
100
AcDbEntity
  8
0
 62
     7
100
AcDbBlockReference
  2
gggr
 10
-2030.143662191742
 20
-2106.622646761023
 30
0.0
  0
INSERT
  5
A00E9
330
9FE64
100
AcDbEntity
  8
0
 62
     7
100
AcDbBlockReference
  2
gggr
 10
-1900.143662191742
 20
-2106.622646761023
 30
0.0
  0
INSERT
  5
A00EA
330
9FE64
100
AcDbEntity
  8
0
 62
     7
100
AcDbBlockReference
  2
gggr
 10
-1770.143662191742
 20
-2106.622646761023
 30
0.0
  0
INSERT
  5
A00EB
330
9FE64
100
AcDbEntity
  8
0
 62
     7
100
AcDbBlockReference
  2
gggr
 10
-1640.143662191742
 20
-2106.622646761023
 30
0.0
  0
INSERT
  5
A00EC
330
9FE64
100
AcDbEntity
  8
0
 62
     7
100
AcDbBlockReference
  2
gggr
 10
-1510.143662191742
 20
-2106.622646761023
 30
0.0
  0
INSERT
  5
A00ED
330
9FE64
100
AcDbEntity
  8
0
 62
     7
100
AcDbBlockReference
  2
gggr
 10
-1380.143662191742
 20
-2106.622646761023
 30
0.0
  0
INSERT
  5
A00EE
330
9FE64
100
AcDbEntity
  8
0
 62
     7
100
AcDbBlockReference
  2
gggr
 10
-1250.143662191742
 20
-2106.622646761023
 30
0.0
  0
INSERT
  5
A00EF
330
9FE64
100
AcDbEntity
  8
0
 62
     7
100
AcDbBlockReference
  2
gggr
 10
-1120.143662191742
 20
-2106.622646761023
 30
0.0
  0
INSERT
  5
A00F0
330
9FE64
100
AcDbEntity
  8
0
 62
     7
100
AcDbBlockReference
  2
gggr
 10
-2485.143662191742
 20
-2081.622646761023
 30
0.0
  0
INSERT
  5
A00F1
330
9FE64
100
AcDbEntity
  8
0
 62
     7
100
AcDbBlockReference
  2
gggr
 10
-2355.143662191742
 20
-2081.622646761023
 30
0.0
  0
INSERT
  5
A00F2
330
9FE64
100
AcDbEntity
  8
0
 62
     7
100
AcDbBlockReference
  2
gggr
 10
-2225.143662191742
 20
-2081.622646761023
 30
0.0
  0
INSERT
  5
A00F3
330
9FE64
100
AcDbEntity
  8
0
 62
     7
100
AcDbBlockReference
  2
gggr
 10
-2095.143662191742
 20
-2081.622646761023
 30
0.0
  0
INSERT
  5
A00F4
330
9FE64
100
AcDbEntity
  8
0
 62
     7
100
AcDbBlockReference
  2
gggr
 10
-1965.143662191742
 20
-2081.622646761023
 30
0.0
  0
INSERT
  5
A00F5
330
9FE64
100
AcDbEntity
  8
0
 62
     7
100
AcDbBlockReference
  2
gggr
 10
-1835.143662191742
 20
-2081.622646761023
 30
0.0
  0
INSERT
  5
A00F6
330
9FE64
100
AcDbEntity
  8
0
 62
     7
100
AcDbBlockReference
  2
gggr
 10
-1705.143662191742
 20
-2081.622646761023
 30
0.0
  0
INSERT
  5
A00F7
330
9FE64
100
AcDbEntity
  8
0
 62
     7
100
AcDbBlockReference
  2
gggr
 10
-1575.143662191742
 20
-2081.622646761023
 30
0.0
  0
INSERT
  5
A00F8
330
9FE64
100
AcDbEntity
  8
0
 62
     7
100
AcDbBlockReference
  2
gggr
 10
-1445.143662191742
 20
-2081.622646761023
 30
0.0
  0
INSERT
  5
A00F9
330
9FE64
100
AcDbEntity
  8
0
 62
     7
100
AcDbBlockReference
  2
gggr
 10
-1315.143662191742
 20
-2081.622646761023
 30
0.0
  0
INSERT
  5
A00FA
330
9FE64
100
AcDbEntity
  8
0
 62
     7
100
AcDbBlockReference
  2
gggr
 10
-1185.143662191742
 20
-2081.622646761023
 30
0.0
  0
INSERT
  5
A00FB
330
9FE64
100
AcDbEntity
  8
0
 62
     7
100
AcDbBlockReference
  2
gggr
 10
-2290.143662191742
 20
-2056.622646761023
 30
0.0
  0
INSERT
  5
A00FC
330
9FE64
100
AcDbEntity
  8
0
 62
     7
100
AcDbBlockReference
  2
gggr
 10
-2160.143662191742
 20
-2056.622646761023
 30
0.0
  0
INSERT
  5
A00FD
330
9FE64
100
AcDbEntity
  8
0
 62
     7
100
AcDbBlockReference
  2
gggr
 10
-2030.143662191742
 20
-2056.622646761023
 30
0.0
  0
INSERT
  5
A00FE
330
9FE64
100
AcDbEntity
  8
0
 62
     7
100
AcDbBlockReference
  2
gggr
 10
-1900.143662191742
 20
-2056.622646761023
 30
0.0
  0
INSERT
  5
A00FF
330
9FE64
100
AcDbEntity
  8
0
 62
     7
100
AcDbBlockReference
  2
gggr
 10
-1770.143662191742
 20
-2056.622646761023
 30
0.0
  0
INSERT
  5
A0100
330
9FE64
100
AcDbEntity
  8
0
 62
     7
100
AcDbBlockReference
  2
gggr
 10
-1640.143662191742
 20
-2056.622646761023
 30
0.0
  0
INSERT
  5
A0101
330
9FE64
100
AcDbEntity
  8
0
 62
     7
100
AcDbBlockReference
  2
gggr
 10
-1510.143662191742
 20
-2056.622646761023
 30
0.0
  0
INSERT
  5
A0102
330
9FE64
100
AcDbEntity
  8
0
 62
     7
100
AcDbBlockReference
  2
gggr
 10
-1380.143662191742
 20
-2056.622646761023
 30
0.0
  0
INSERT
  5
A0103
330
9FE64
100
AcDbEntity
  8
0
 62
     7
100
AcDbBlockReference
  2
gggr
 10
-1250.143662191742
 20
-2056.622646761023
 30
0.0
  0
INSERT
  5
A0104
330
9FE64
100
AcDbEntity
  8
0
 62
     7
100
AcDbBlockReference
  2
gggr
 10
-1120.143662191742
 20
-2056.622646761023
 30
0.0
  0
LINE
  5
A0105
330
9FE64
100
AcDbEntity
  8
0
 62
     4
100
AcDbLine
 10
15397.40937876067
 20
-1099.618889543066
 30
0.0
 11
15457.10791085669
 21
-1099.618889543066
 31
0.0
  0
LINE
  5
A0106
330
9FE64
100
AcDbEntity
  8
0
 62
     4
100
AcDbLine
 10
15457.10791085669
 20
-1099.618889543066
 30
0.0
 11
15457.10791085669
 21
-1124.618889543066
 31
0.0
  0
LINE
  5
A0107
330
9FE64
100
AcDbEntity
  8
0
 62
     4
100
AcDbLine
 10
15457.10791085669
 20
-1124.618889543066
 30
0.0
 11
15397.40937876067
 21
-1124.618889543066
 31
0.0
  0
INSERT
  5
A0108
330
9FE64
100
AcDbEntity
  8
AM_0
100
AcDbBlockReference
  2
sdasddd
 10
0.0
 20
0.0
 30
0.0
  0
INSERT
  5
A0109
330
9FE64
100
AcDbEntity
  8
AM_0
100
AcDbBlockReference
  2
sdasddd
 10
0.0
 20
-50.0
 30
0.0
  0
INSERT
  5
A010A
330
9FE64
100
AcDbEntity
  8
AM_0
100
AcDbBlockReference
  2
sdasddd
 10
0.0
 20
-100.0
 30
0.0
  0
INSERT
  5
A010B
330
9FE64
100
AcDbEntity
  8
AM_0
100
AcDbBlockReference
  2
sdasddd
 10
0.0
 20
-150.0
 30
0.0
  0
INSERT
  5
A010C
330
9FE64
100
AcDbEntity
  8
AM_0
100
AcDbBlockReference
  2
sdasddd
 10
0.0
 20
-200.0
 30
0.0
  0
INSERT
  5
A010D
330
9FE64
100
AcDbEntity
  8
AM_0
100
AcDbBlockReference
  2
sdasddd
 10
0.0
 20
-250.0
 30
0.0
  0
INSERT
  5
A010E
330
9FE64
100
AcDbEntity
  8
AM_0
100
AcDbBlockReference
  2
sdasddd
 10
0.0
 20
-300.0
 30
0.0
  0
INSERT
  5
A010F
330
9FE64
100
AcDbEntity
  8
AM_0
100
AcDbBlockReference
  2
sdasddd
 10
0.0
 20
-350.0
 30
0.0
  0
INSERT
  5
A0110
330
9FE64
100
AcDbEntity
  8
AM_0
100
AcDbBlockReference
  2
sdasddd
 10
0.0
 20
-400.0
 30
0.0
  0
INSERT
  5
A0111
330
9FE64
100
AcDbEntity
  8
AM_0
100
AcDbBlockReference
  2
sdasddd
 10
0.0
 20
-450.0
 30
0.0
  0
INSERT
  5
A0112
330
9FE64
100
AcDbEntity
  8
AM_0
100
AcDbBlockReference
  2
sdasddd
 10
0.0
 20
-500.0
 30
0.0
  0
INSERT
  5
A0113
330
9FE64
100
AcDbEntity
  8
AM_0
100
AcDbBlockReference
  2
sdasddd
 10
0.0
 20
-550.0
 30
0.0
  0
INSERT
  5
A0114
330
9FE64
100
AcDbEntity
  8
AM_0
100
AcDbBlockReference
  2
sdasddd
 10
0.0
 20
-600.0
 30
0.0
  0
INSERT
  5
A0115
330
9FE64
100
AcDbEntity
  8
AM_0
100
AcDbBlockReference
  2
sdasddd
 10
0.0
 20
-650.0
 30
0.0
  0
INSERT
  5
A0116
330
9FE64
100
AcDbEntity
  8
AM_0
100
AcDbBlockReference
  2
sdasddd
 10
0.0
 20
-700.0
 30
0.0
  0
INSERT
  5
A0117
330
9FE64
100
AcDbEntity
  8
AM_0
100
AcDbBlockReference
  2
sdasddd
 10
0.0
 20
-750.0
 30
0.0
  0
INSERT
  5
A0118
330
9FE64
100
AcDbEntity
  8
AM_0
100
AcDbBlockReference
  2
sdasddd
 10
0.0
 20
-800.0
 30
0.0
  0
INSERT
  5
A0119
330
9FE64
100
AcDbEntity
  8
AM_0
100
AcDbBlockReference
  2
sdasddd
 10
0.0
 20
-850.0
 30
0.0
  0
INSERT
  5
A011A
330
9FE64
100
AcDbEntity
  8
AM_0
100
AcDbBlockReference
  2
sdasddd
 10
0.0
 20
-900.0
 30
0.0
  0
INSERT
  5
A011B
330
9FE64
100
AcDbEntity
  8
AM_0
100
AcDbBlockReference
  2
sdasddd
 10
0.0
 20
-950.0
 30
0.0
  0
INSERT
  5
A011C
330
9FE64
100
AcDbEntity
  8
AM_0
100
AcDbBlockReference
  2
sdasddd
 10
0.0
 20
-1000.0
 30
0.0
  0
INSERT
  5
A011D
330
9FE64
100
AcDbEntity
  8
AM_0
100
AcDbBlockReference
  2
sdasddd
 10
0.0
 20
-1050.0
 30
0.0
  0
INSERT
  5
A011E
330
9FE64
100
AcDbEntity
  8
AM_0
100
AcDbBlockReference
  2
sdasddd
 10
0.0
 20
-1100.0
 30
0.0
  0
INSERT
  5
A011F
330
9FE64
100
AcDbEntity
  8
AM_0
100
AcDbBlockReference
  2
sdasddd
 10
0.0
 20
-1150.0
 30
0.0
  0
INSERT
  5
A0120
330
9FE64
100
AcDbEntity
  8
AM_0
100
AcDbBlockReference
  2
sdasddd
 10
0.0
 20
-1200.0
 30
0.0
  0
INSERT
  5
A0121
330
9FE64
100
AcDbEntity
  8
AM_0
100
AcDbBlockReference
  2
sdasddd
 10
0.0
 20
-1250.0
 30
0.0
  0
INSERT
  5
A0122
330
9FE64
100
AcDbEntity
  8
AM_0
100
AcDbBlockReference
  2
sdasddd
 10
0.0
 20
-1300.0
 30
0.0
  0
INSERT
  5
A0123
330
9FE64
100
AcDbEntity
  8
AM_0
100
AcDbBlockReference
  2
sdasddd
 10
0.0
 20
-1350.0
 30
0.0
  0
INSERT
  5
A0124
330
9FE64
100
AcDbEntity
  8
AM_0
100
AcDbBlockReference
  2
sdasddd
 10
0.0
 20
-1400.0
 30
0.0
  0
INSERT
  5
A0125
330
9FE64
100
AcDbEntity
  8
AM_0
100
AcDbBlockReference
  2
sdasddd
 10
0.0
 20
-1450.0
 30
0.0
  0
INSERT
  5
A0126
330
9FE64
100
AcDbEntity
  8
AM_0
100
AcDbBlockReference
  2
sdffffr
 10
0.0
 20
0.0
 30
0.0
  0
INSERT
  5
A0127
330
9FE64
100
AcDbEntity
  8
AM_0
100
AcDbBlockReference
  2
sdffffr
 10
0.0
 20
-50.0
 30
0.0
  0
INSERT
  5
A0128
330
9FE64
100
AcDbEntity
  8
AM_0
100
AcDbBlockReference
  2
sdffffr
 10
0.0
 20
-100.0
 30
0.0
  0
INSERT
  5
A0129
330
9FE64
100
AcDbEntity
  8
AM_0
100
AcDbBlockReference
  2
sdffffr
 10
0.0
 20
-150.0
 30
0.0
  0
INSERT
  5
A012A
330
9FE64
100
AcDbEntity
  8
AM_0
100
AcDbBlockReference
  2
sdffffr
 10
0.0
 20
-200.0
 30
0.0
  0
INSERT
  5
A012B
330
9FE64
100
AcDbEntity
  8
AM_0
100
AcDbBlockReference
  2
sdffffr
 10
0.0
 20
-250.0
 30
0.0
  0
INSERT
  5
A012C
330
9FE64
100
AcDbEntity
  8
AM_0
100
AcDbBlockReference
  2
sdffffr
 10
0.0
 20
-300.0
 30
0.0
  0
INSERT
  5
A012D
330
9FE64
100
AcDbEntity
  8
AM_0
100
AcDbBlockReference
  2
sdffffr
 10
0.0
 20
-350.0
 30
0.0
  0
INSERT
  5
A012E
330
9FE64
100
AcDbEntity
  8
AM_0
100
AcDbBlockReference
  2
sdffffr
 10
0.0
 20
-400.0
 30
0.0
  0
INSERT
  5
A012F
330
9FE64
100
AcDbEntity
  8
AM_0
100
AcDbBlockReference
  2
sdffffr
 10
0.0
 20
-450.0
 30
0.0
  0
INSERT
  5
A0130
330
9FE64
100
AcDbEntity
  8
AM_0
100
AcDbBlockReference
  2
sdffffr
 10
0.0
 20
-500.0
 30
0.0
  0
INSERT
  5
A0131
330
9FE64
100
AcDbEntity
  8
AM_0
100
AcDbBlockReference
  2
sdffffr
 10
0.0
 20
-550.0
 30
0.0
  0
INSERT
  5
A0132
330
9FE64
100
AcDbEntity
  8
AM_0
100
AcDbBlockReference
  2
sdffffr
 10
0.0
 20
-600.0
 30
0.0
  0
INSERT
  5
A0133
330
9FE64
100
AcDbEntity
  8
AM_0
100
AcDbBlockReference
  2
sdffffr
 10
0.0
 20
-650.0
 30
0.0
  0
INSERT
  5
A0134
330
9FE64
100
AcDbEntity
  8
AM_0
100
AcDbBlockReference
  2
sdffffr
 10
0.0
 20
-700.0
 30
0.0
  0
INSERT
  5
A0135
330
9FE64
100
AcDbEntity
  8
AM_0
100
AcDbBlockReference
  2
sdffffr
 10
0.0
 20
-750.0
 30
0.0
  0
INSERT
  5
A0136
330
9FE64
100
AcDbEntity
  8
AM_0
100
AcDbBlockReference
  2
sdffffr
 10
0.0
 20
-800.0
 30
0.0
  0
INSERT
  5
A0137
330
9FE64
100
AcDbEntity
  8
AM_0
100
AcDbBlockReference
  2
sdffffr
 10
0.0
 20
-850.0
 30
0.0
  0
INSERT
  5
A0138
330
9FE64
100
AcDbEntity
  8
AM_0
100
AcDbBlockReference
  2
sdffffr
 10
0.0
 20
-900.0
 30
0.0
  0
INSERT
  5
A0139
330
9FE64
100
AcDbEntity
  8
AM_0
100
AcDbBlockReference
  2
sdffffr
 10
0.0
 20
-950.0
 30
0.0
  0
INSERT
  5
A013A
330
9FE64
100
AcDbEntity
  8
AM_0
100
AcDbBlockReference
  2
sdffffr
 10
0.0
 20
-1000.0
 30
0.0
  0
INSERT
  5
A013B
330
9FE64
100
AcDbEntity
  8
AM_0
100
AcDbBlockReference
  2
sdffffr
 10
0.0
 20
-1050.0
 30
0.0
  0
INSERT
  5
A013C
330
9FE64
100
AcDbEntity
  8
AM_0
100
AcDbBlockReference
  2
sdffffr
 10
0.0
 20
-1100.0
 30
0.0
  0
INSERT
  5
A013D
330
9FE64
100
AcDbEntity
  8
AM_0
100
AcDbBlockReference
  2
sdffffr
 10
0.0
 20
-1150.0
 30
0.0
  0
INSERT
  5
A013E
330
9FE64
100
AcDbEntity
  8
AM_0
100
AcDbBlockReference
  2
sdffffr
 10
0.0
 20
-1200.0
 30
0.0
  0
INSERT
  5
A013F
330
9FE64
100
AcDbEntity
  8
AM_0
100
AcDbBlockReference
  2
sdffffr
 10
0.0
 20
-1250.0
 30
0.0
  0
INSERT
  5
A0140
330
9FE64
100
AcDbEntity
  8
AM_0
100
AcDbBlockReference
  2
sdffffr
 10
0.0
 20
-1300.0
 30
0.0
  0
INSERT
  5
A0141
330
9FE64
100
AcDbEntity
  8
AM_0
100
AcDbBlockReference
  2
sdffffr
 10
0.0
 20
-1350.0
 30
0.0
  0
INSERT
  5
A0142
330
9FE64
100
AcDbEntity
  8
AM_0
100
AcDbBlockReference
  2
sdffffr
 10
0.0
 20
-1400.0
 30
0.0
  0
INSERT
  5
A0143
330
9FE64
100
AcDbEntity
  8
AM_0
100
AcDbBlockReference
  2
sdffffr
 10
0.0
 20
-1450.0
 30
0.0
  0
INSERT
  5
A0144
330
9FE64
100
AcDbEntity
  8
0
 62
     7
100
AcDbBlockReference
  2
gggr
 10
-2420.143662191742
 20
-2056.622646761023
 30
0.0
  0
ENDBLK
  5
9FE66
330
9FE64
100
AcDbEntity
  8
0
100
AcDbBlockEnd
  0
ENDSEC
  0
SECTION
  2
ENTITIES
  0
LINE
  5
92D62
330
6C
100
AcDbEntity
  8
Widoczne (ISO)
 62
     2
100
AcDbLine
 10
8688.630031983647
 20
-1187.777446494447
 30
0.0
 11
8704.630031983649
 21
-1187.777446494447
 31
0.0
  0
LINE
  5
92D63
330
6C
100
AcDbEntity
  8
Widoczne (ISO)
 62
     2
100
AcDbLine
 10
8704.630031983649
 20
-1187.277446494447
 30
0.0
 11
8704.630031983649
 21
-1187.777446494447
 31
0.0
  0
LINE
  5
92D64
330
6C
100
AcDbEntity
  8
Widoczne (ISO)
 62
     2
100
AcDbLine
 10
8688.630031983647
 20
-1187.277446494447
 30
0.0
 11
8688.630031983647
 21
-1187.777446494447
 31
0.0
  0
ARC
  5
92D65
330
6C
100
AcDbEntity
  8
Widoczne (ISO)
 62
     2
100
AcDbCircle
 10
8696.630031983648
 20
-1178.61077982778
 30
0.0
 40
12.16666666666667
100
AcDbArc
 50
228.8879095608341
 51
311.1120904391651
  0
LINE
  5
92D66
330
6C
100
AcDbEntity
  8
Widoczne (ISO)
 62
     2
100
AcDbLine
 10
7844.630031983649
 20
-1187.777446494447
 30
0.0
 11
7860.630031983649
 21
-1187.777446494447
 31
0.0
  0
LINE
  5
92D67
330
6C
100
AcDbEntity
  8
Widoczne (ISO)
 62
     2
100
AcDbLine
 10
7860.630031983649
 20
-1187.277446494447
 30
0.0
 11
7860.630031983649
 21
-1187.777446494447
 31
0.0
  0
LINE
  5
92D68
330
6C
100
AcDbEntity
  8
Widoczne (ISO)
 62
     2
100
AcDbLine
 10
7844.630031983649
 20
-1187.277446494447
 30
0.0
 11
7844.630031983649
 21
-1187.777446494447
 31
0.0
  0
ARC
  5
92D69
330
6C
100
AcDbEntity
  8
Widoczne (ISO)
 62
     2
100
AcDbCircle
 10
7852.630031983649
 20
-1178.61077982778
 30
0.0
 40
12.16666666666666
100
AcDbArc
 50
228.8879095608341
 51
311.1120904391651
  0
LINE
  5
92D6A
330
6C
100
AcDbEntity
  8
Widoczne (ISO)
 62
     2
100
AcDbLine
 10
8234.63003198365
 20
-1187.777446494447
 30
0.0
 11
8245.670031983648
 21
-1187.777446494447
 31
0.0
  0
LINE
  5
92D6B
330
6C
100
AcDbEntity
  8
Widoczne (ISO)
 62
     2
100
AcDbLine
 10
8234.63003198365
 20
-1187.277446494447
 30
0.0
 11
8234.63003198365
 21
-1187.777446494447
 31
0.0
  0
ARC
  5
92D6C
330
6C
100
AcDbEntity
  8
Widoczne (ISO)
 62
     2
100
AcDbCircle
 10
8242.630031983649
 20
-1178.61077982778
 30
0.0
 40
12.16666666666666
100
AcDbArc
 50
228.8879095608341
 51
296.981233020301
  0
LINE
  5
92D6D
330
6C
100
AcDbEntity
  8
Widoczne (ISO)
 62
     2
100
AcDbLine
 10
9050.670031983647
 20
-1187.777446494446
 30
0.0
 11
9066.670031983647
 21
-1187.777446494446
 31
0.0
  0
LINE
  5
92D6E
330
6C
100
AcDbEntity
  8
Widoczne (ISO)
 62
     2
100
AcDbLine
 10
9066.670031983647
 20
-1187.277446494446
 30
0.0
 11
9066.670031983647
 21
-1187.777446494446
 31
0.0
  0
LINE
  5
92D6F
330
6C
100
AcDbEntity
  8
Widoczne (ISO)
 62
     2
100
AcDbLine
 10
9050.670031983647
 20
-1187.277446494446
 30
0.0
 11
9050.670031983647
 21
-1187.777446494446
 31
0.0
  0
ARC
  5
92D70
330
6C
100
AcDbEntity
  8
Widoczne (ISO)
 62
     2
100
AcDbCircle
 10
9058.67003198365
 20
-1178.61077982778
 30
0.0
 40
12.16666666666665
100
AcDbArc
 50
228.8879095608341
 51
311.1120904391651
  0
LINE
  5
92D71
330
6C
100
AcDbEntity
  8
Widoczne (ISO)
 62
     2
100
AcDbLine
 10
8820.670031983649
 20
-1187.777446494446
 30
0.0
 11
8836.670031983649
 21
-1187.777446494446
 31
0.0
  0
LINE
  5
92D72
330
6C
100
AcDbEntity
  8
Widoczne (ISO)
 62
     2
100
AcDbLine
 10
8836.670031983649
 20
-1187.277446494446
 30
0.0
 11
8836.670031983649
 21
-1187.777446494446
 31
0.0
  0
LINE
  5
92D73
330
6C
100
AcDbEntity
  8
Widoczne (ISO)
 62
     2
100
AcDbLine
 10
8820.670031983649
 20
-1187.277446494446
 30
0.0
 11
8820.670031983649
 21
-1187.777446494446
 31
0.0
  0
ARC
  5
92D74
330
6C
100
AcDbEntity
  8
Widoczne (ISO)
 62
     2
100
AcDbCircle
 10
8828.67003198365
 20
-1178.61077982778
 30
0.0
 40
12.16666666666665
100
AcDbArc
 50
228.8879095608341
 51
311.1120904391651
  0
LINE
  5
92D75
330
6C
100
AcDbEntity
  8
Widoczne (ISO)
 62
     2
100
AcDbLine
 10
8590.670031983647
 20
-1187.777446494446
 30
0.0
 11
8606.67003198365
 21
-1187.777446494446
 31
0.0
  0
LINE
  5
92D76
330
6C
100
AcDbEntity
  8
Widoczne (ISO)
 62
     2
100
AcDbLine
 10
8606.67003198365
 20
-1187.277446494446
 30
0.0
 11
8606.67003198365
 21
-1187.777446494446
 31
0.0
  0
LINE
  5
92D77
330
6C
100
AcDbEntity
  8
Widoczne (ISO)
 62
     2
100
AcDbLine
 10
8590.670031983647
 20
-1187.277446494446
 30
0.0
 11
8590.670031983647
 21
-1187.777446494446
 31
0.0
  0
ARC
  5
92D78
330
6C
100
AcDbEntity
  8
Widoczne (ISO)
 62
     2
100
AcDbCircle
 10
8598.670031983649
 20
-1178.61077982778
 30
0.0
 40
12.16666666666665
100
AcDbArc
 50
228.8879095608341
 51
311.1120904391651
  0
LINE
  5
92D79
330
6C
100
AcDbEntity
  8
Widoczne (ISO)
 62
     2
100
AcDbLine
 10
8360.67003198365
 20
-1187.777446494446
 30
0.0
 11
8376.670031983648
 21
-1187.777446494446
 31
0.0
  0
LINE
  5
92D7A
330
6C
100
AcDbEntity
  8
Widoczne (ISO)
 62
     2
100
AcDbLine
 10
8376.670031983648
 20
-1187.277446494446
 30
0.0
 11
8376.670031983648
 21
-1187.777446494446
 31
0.0
  0
LINE
  5
92D7B
330
6C
100
AcDbEntity
  8
Widoczne (ISO)
 62
     2
100
AcDbLine
 10
8360.67003198365
 20
-1187.277446494446
 30
0.0
 11
8360.67003198365
 21
-1187.777446494446
 31
0.0
  0
ARC
  5
92D7C
330
6C
100
AcDbEntity
  8
Widoczne (ISO)
 62
     2
100
AcDbCircle
 10
8368.670031983649
 20
-1178.61077982778
 30
0.0
 40
12.16666666666665
100
AcDbArc
 50
228.8879095608341
 51
311.1120904391651
  0
LINE
  5
92D7D
330
6C
100
AcDbEntity
  8
Widoczne (ISO)
 62
     2
100
AcDbLine
 10
8130.670031983649
 20
-1187.777446494446
 30
0.0
 11
8146.670031983648
 21
-1187.777446494446
 31
0.0
  0
LINE
  5
92D7E
330
6C
100
AcDbEntity
  8
Widoczne (ISO)
 62
     2
100
AcDbLine
 10
8146.670031983648
 20
-1187.277446494446
 30
0.0
 11
8146.670031983648
 21
-1187.777446494446
 31
0.0
  0
LINE
  5
92D7F
330
6C
100
AcDbEntity
  8
Widoczne (ISO)
 62
     2
100
AcDbLine
 10
8130.670031983649
 20
-1187.277446494446
 30
0.0
 11
8130.670031983649
 21
-1187.777446494446
 31
0.0
  0
ARC
  5
92D80
330
6C
100
AcDbEntity
  8
Widoczne (ISO)
 62
     2
100
AcDbCircle
 10
8138.670031983648
 20
-1178.61077982778
 30
0.0
 40
12.16666666666665
100
AcDbArc
 50
228.8879095608341
 51
311.1120904391651
  0
LINE
  5
92D81
330
6C
100
AcDbEntity
  8
Widoczne (ISO)
 62
     2
100
AcDbLine
 10
7900.67003198365
 20
-1187.777446494446
 30
0.0
 11
7916.670031983648
 21
-1187.777446494446
 31
0.0
  0
LINE
  5
92D82
330
6C
100
AcDbEntity
  8
Widoczne (ISO)
 62
     2
100
AcDbLine
 10
7916.670031983649
 20
-1187.277446494446
 30
0.0
 11
7916.670031983649
 21
-1187.777446494446
 31
0.0
  0
LINE
  5
92D83
330
6C
100
AcDbEntity
  8
Widoczne (ISO)
 62
     2
100
AcDbLine
 10
7900.67003198365
 20
-1187.277446494446
 30
0.0
 11
7900.67003198365
 21
-1187.777446494446
 31
0.0
  0
ARC
  5
92D84
330
6C
100
AcDbEntity
  8
Widoczne (ISO)
 62
     2
100
AcDbCircle
 10
7908.67003198365
 20
-1178.61077982778
 30
0.0
 40
12.16666666666665
100
AcDbArc
 50
228.8879095608341
 51
311.1120904391651
  0
LINE
  5
92D85
330
6C
100
AcDbEntity
  8
Widoczne (ISO)
 62
     2
100
AcDbLine
 10
7670.670031983647
 20
-1187.777446494446
 30
0.0
 11
7686.670031983649
 21
-1187.777446494446
 31
0.0
  0
LINE
  5
92D86
330
6C
100
AcDbEntity
  8
Widoczne (ISO)
 62
     2
100
AcDbLine
 10
7686.670031983647
 20
-1187.277446494446
 30
0.0
 11
7686.670031983647
 21
-1187.777446494446
 31
0.0
  0
LINE
  5
92D87
330
6C
100
AcDbEntity
  8
Widoczne (ISO)
 62
     2
100
AcDbLine
 10
7670.670031983647
 20
-1187.277446494446
 30
0.0
 11
7670.670031983647
 21
-1187.777446494446
 31
0.0
  0
ARC
  5
92D88
330
6C
100
AcDbEntity
  8
Widoczne (ISO)
 62
     2
100
AcDbCircle
 10
7678.670031983649
 20
-1178.61077982778
 30
0.0
 40
12.16666666666665
100
AcDbArc
 50
228.8879095608339
 51
311.1120904391664
  0
LINE
  5
92D89
330
6C
100
AcDbEntity
  8
Widoczne (ISO)
 62
     2
100
AcDbLine
 10
8935.670031983649
 20
-1187.777446494446
 30
0.0
 11
8951.670031983649
 21
-1187.777446494446
 31
0.0
  0
LINE
  5
92D8A
330
6C
100
AcDbEntity
  8
Widoczne (ISO)
 62
     2
100
AcDbLine
 10
8951.670031983649
 20
-1187.277446494446
 30
0.0
 11
8951.670031983649
 21
-1187.777446494446
 31
0.0
  0
LINE
  5
92D8B
330
6C
100
AcDbEntity
  8
Widoczne (ISO)
 62
     2
100
AcDbLine
 10
8935.670031983649
 20
-1187.277446494446
 30
0.0
 11
8935.670031983649
 21
-1187.777446494446
 31
0.0
  0
ARC
  5
92D8C
330
6C
100
AcDbEntity
  8
Widoczne (ISO)
 62
     2
100
AcDbCircle
 10
8943.670031983648
 20
-1178.61077982778
 30
0.0
 40
12.16666666666665
100
AcDbArc
 50
228.8879095608341
 51
311.1120904391651
  0
LINE
  5
92D8D
330
6C
100
AcDbEntity
  8
Widoczne (ISO)
 62
     2
100
AcDbLine
 10
8705.670031983649
 20
-1187.777446494446
 30
0.0
 11
8721.670031983649
 21
-1187.777446494446
 31
0.0
  0
LINE
  5
92D8E
330
6C
100
AcDbEntity
  8
Widoczne (ISO)
 62
     2
100
AcDbLine
 10
8721.670031983649
 20
-1187.277446494446
 30
0.0
 11
8721.670031983649
 21
-1187.777446494446
 31
0.0
  0
LINE
  5
92D8F
330
6C
100
AcDbEntity
  8
Widoczne (ISO)
 62
     2
100
AcDbLine
 10
8705.670031983649
 20
-1187.277446494446
 30
0.0
 11
8705.670031983649
 21
-1187.777446494446
 31
0.0
  0
ARC
  5
92D90
330
6C
100
AcDbEntity
  8
Widoczne (ISO)
 62
     2
100
AcDbCircle
 10
8713.670031983649
 20
-1178.61077982778
 30
0.0
 40
12.16666666666665
100
AcDbArc
 50
228.8879095608341
 51
311.1120904391651
  0
LINE
  5
92D91
330
6C
100
AcDbEntity
  8
Widoczne (ISO)
 62
     2
100
AcDbLine
 10
8475.67003198365
 20
-1187.777446494446
 30
0.0
 11
8491.67003198365
 21
-1187.777446494446
 31
0.0
  0
LINE
  5
92D92
330
6C
100
AcDbEntity
  8
Widoczne (ISO)
 62
     2
100
AcDbLine
 10
8491.67003198365
 20
-1187.277446494446
 30
0.0
 11
8491.67003198365
 21
-1187.777446494446
 31
0.0
  0
LINE
  5
92D93
330
6C
100
AcDbEntity
  8
Widoczne (ISO)
 62
     2
100
AcDbLine
 10
8475.67003198365
 20
-1187.277446494446
 30
0.0
 11
8475.67003198365
 21
-1187.777446494446
 31
0.0
  0
ARC
  5
92D94
330
6C
100
AcDbEntity
  8
Widoczne (ISO)
 62
     2
100
AcDbCircle
 10
8483.670031983649
 20
-1178.61077982778
 30
0.0
 40
12.16666666666665
100
AcDbArc
 50
228.8879095608344
 51
311.1120904391651
  0
LINE
  5
92D95
330
6C
100
AcDbEntity
  8
Widoczne (ISO)
 62
     2
100
AcDbLine
 10
8245.670031983648
 20
-1187.777446494446
 30
0.0
 11
8261.67003198365
 21
-1187.777446494446
 31
0.0
  0
LINE
  5
92D96
330
6C
100
AcDbEntity
  8
Widoczne (ISO)
 62
     2
100
AcDbLine
 10
8261.67003198365
 20
-1187.277446494446
 30
0.0
 11
8261.67003198365
 21
-1187.777446494446
 31
0.0
  0
LINE
  5
92D97
330
6C
100
AcDbEntity
  8
Widoczne (ISO)
 62
     2
100
AcDbLine
 10
8245.670031983648
 20
-1187.277446494446
 30
0.0
 11
8245.670031983648
 21
-1187.777446494446
 31
0.0
  0
ARC
  5
92D98
330
6C
100
AcDbEntity
  8
Widoczne (ISO)
 62
     2
100
AcDbCircle
 10
8253.67003198365
 20
-1178.61077982778
 30
0.0
 40
12.16666666666665
100
AcDbArc
 50
228.8879095608341
 51
311.1120904391651
  0
LINE
  5
92D99
330
6C
100
AcDbEntity
  8
Widoczne (ISO)
 62
     2
100
AcDbLine
 10
8015.670031983649
 20
-1187.777446494446
 30
0.0
 11
8031.670031983649
 21
-1187.777446494446
 31
0.0
  0
LINE
  5
92D9A
330
6C
100
AcDbEntity
  8
Widoczne (ISO)
 62
     2
100
AcDbLine
 10
8031.670031983649
 20
-1187.277446494446
 30
0.0
 11
8031.670031983649
 21
-1187.777446494446
 31
0.0
  0
LINE
  5
92D9B
330
6C
100
AcDbEntity
  8
Widoczne (ISO)
 62
     2
100
AcDbLine
 10
8015.670031983649
 20
-1187.277446494446
 30
0.0
 11
8015.670031983649
 21
-1187.777446494446
 31
0.0
  0
ARC
  5
92D9C
330
6C
100
AcDbEntity
  8
Widoczne (ISO)
 62
     2
100
AcDbCircle
 10
8023.670031983646
 20
-1178.61077982778
 30
0.0
 40
12.16666666666665
100
AcDbArc
 50
228.8879095608341
 51
311.1120904391651
  0
LINE
  5
92D9D
330
6C
100
AcDbEntity
  8
Widoczne (ISO)
 62
     2
100
AcDbLine
 10
7785.670031983649
 20
-1187.777446494446
 30
0.0
 11
7801.670031983649
 21
-1187.777446494446
 31
0.0
  0
LINE
  5
92D9E
330
6C
100
AcDbEntity
  8
Widoczne (ISO)
 62
     2
100
AcDbLine
 10
7801.670031983649
 20
-1187.277446494446
 30
0.0
 11
7801.670031983649
 21
-1187.777446494446
 31
0.0
  0
LINE
  5
92D9F
330
6C
100
AcDbEntity
  8
Widoczne (ISO)
 62
     2
100
AcDbLine
 10
7785.670031983649
 20
-1187.277446494446
 30
0.0
 11
7785.670031983649
 21
-1187.777446494446
 31
0.0
  0
ARC
  5
92DA0
330
6C
100
AcDbEntity
  8
Widoczne (ISO)
 62
     2
100
AcDbCircle
 10
7793.670031983649
 20
-1178.61077982778
 30
0.0
 40
12.16666666666665
100
AcDbArc
 50
228.8879095608341
 51
311.1120904391651
  0
LINE
  5
92DA1
330
6C
100
AcDbEntity
  8
Widoczne (ISO)
 62
     2
100
AcDbLine
 10
7555.670031983648
 20
-1187.777446494446
 30
0.0
 11
7571.670031983649
 21
-1187.777446494446
 31
0.0
  0
LINE
  5
92DA2
330
6C
100
AcDbEntity
  8
Widoczne (ISO)
 62
     2
100
AcDbLine
 10
7571.670031983647
 20
-1187.277446494446
 30
0.0
 11
7571.670031983647
 21
-1187.777446494446
 31
0.0
  0
LINE
  5
92DA3
330
6C
100
AcDbEntity
  8
Widoczne (ISO)
 62
     2
100
AcDbLine
 10
7555.670031983648
 20
-1187.277446494446
 30
0.0
 11
7555.670031983648
 21
-1187.777446494446
 31
0.0
  0
ARC
  5
92DA4
330
6C
100
AcDbEntity
  8
Widoczne (ISO)
 62
     2
100
AcDbCircle
 10
7563.670031983649
 20
-1178.61077982778
 30
0.0
 40
12.16666666666665
100
AcDbArc
 50
228.8879095608339
 51
311.1120904391664
  0
LINE
  5
92DA5
330
6C
100
AcDbEntity
  8
Widoczne (ISO)
 62
     2
100
AcDbLine
 10
7242.630031983612
 20
-527.7774464944586
 30
0.0
 11
7242.630031983614
 21
-543.7774464944586
 31
0.0
  0
LINE
  5
92DA6
330
6C
100
AcDbEntity
  8
Widoczne (ISO)
 62
     2
100
AcDbLine
 10
7243.130031983612
 20
-543.7774464944586
 30
0.0
 11
7242.630031983614
 21
-543.7774464944586
 31
0.0
  0
LINE
  5
92DA7
330
6C
100
AcDbEntity
  8
Widoczne (ISO)
 62
     2
100
AcDbLine
 10
7243.130031983612
 20
-527.7774464944586
 30
0.0
 11
7242.630031983612
 21
-527.7774464944586
 31
0.0
  0
ARC
  5
92DA8
330
6C
100
AcDbEntity
  8
Widoczne (ISO)
 62
     2
100
AcDbCircle
 10
7251.79669865028
 20
-535.7774464944581
 30
0.0
 40
12.16666666666666
100
AcDbArc
 50
138.8879095608338
 51
221.1120904391704
  0
LINE
  5
92DA9
330
6C
100
AcDbEntity
  8
Widoczne (ISO)
 62
     2
100
AcDbLine
 10
7242.630031983566
 20
316.2225535055391
 30
0.0
 11
7242.630031983566
 21
300.2225535055391
 31
0.0
  0
LINE
  5
92DAA
330
6C
100
AcDbEntity
  8
Widoczne (ISO)
 62
     2
100
AcDbLine
 10
7243.130031983567
 20
300.2225535055391
 30
0.0
 11
7242.630031983566
 21
300.2225535055391
 31
0.0
  0
LINE
  5
92DAB
330
6C
100
AcDbEntity
  8
Widoczne (ISO)
 62
     2
100
AcDbLine
 10
7243.130031983564
 20
316.222553505539
 30
0.0
 11
7242.630031983566
 21
316.222553505539
 31
0.0
  0
ARC
  5
92DAC
330
6C
100
AcDbEntity
  8
Widoczne (ISO)
 62
     2
100
AcDbCircle
 10
7251.796698650233
 20
308.2225535055396
 30
0.0
 40
12.16666666666665
100
AcDbArc
 50
138.8879095608335
 51
221.1120904391702
  0
LINE
  5
92DAD
330
6C
100
AcDbEntity
  8
Widoczne (ISO)
 62
     2
100
AcDbLine
 10
7242.630031983586
 20
-73.77744649446019
 30
0.0
 11
7242.630031983586
 21
-84.81744649446071
 31
0.0
  0
LINE
  5
92DAE
330
6C
100
AcDbEntity
  8
Widoczne (ISO)
 62
     2
100
AcDbLine
 10
7243.130031983587
 20
-73.77744649446007
 30
0.0
 11
7242.630031983586
 21
-73.77744649446007
 31
0.0
  0
ARC
  5
92DAF
330
6C
100
AcDbEntity
  8
Widoczne (ISO)
 62
     2
100
AcDbCircle
 10
7251.796698650254
 20
-81.77744649445958
 30
0.0
 40
12.16666666666664
100
AcDbArc
 50
138.8879095608338
 51
206.981233020313
  0
LINE
  5
92DB0
330
6C
100
AcDbEntity
  8
Widoczne (ISO)
 62
     2
100
AcDbLine
 10
7242.630031983631
 20
-889.8174464944592
 30
0.0
 11
7242.630031983631
 21
-905.817446494459
 31
0.0
  0
LINE
  5
92DB1
330
6C
100
AcDbEntity
  8
Widoczne (ISO)
 62
     2
100
AcDbLine
 10
7243.130031983632
 20
-905.817446494459
 30
0.0
 11
7242.630031983633
 21
-905.817446494459
 31
0.0
  0
LINE
  5
92DB2
330
6C
100
AcDbEntity
  8
Widoczne (ISO)
 62
     2
100
AcDbLine
 10
7243.130031983632
 20
-889.8174464944592
 30
0.0
 11
7242.630031983631
 21
-889.8174464944592
 31
0.0
  0
ARC
  5
92DB3
330
6C
100
AcDbEntity
  8
Widoczne (ISO)
 62
     2
100
AcDbCircle
 10
7251.796698650299
 20
-897.8174464944586
 30
0.0
 40
12.16666666666662
100
AcDbArc
 50
138.8879095608338
 51
221.1120904391702
  0
LINE
  5
92DB4
330
6C
100
AcDbEntity
  8
Widoczne (ISO)
 62
     2
100
AcDbLine
 10
7242.630031983619
 20
-659.8174464944594
 30
0.0
 11
7242.630031983622
 21
-675.8174464944594
 31
0.0
  0
LINE
  5
92DB5
330
6C
100
AcDbEntity
  8
Widoczne (ISO)
 62
     2
100
AcDbLine
 10
7243.130031983621
 20
-675.8174464944594
 30
0.0
 11
7242.630031983622
 21
-675.8174464944594
 31
0.0
  0
LINE
  5
92DB6
330
6C
100
AcDbEntity
  8
Widoczne (ISO)
 62
     2
100
AcDbLine
 10
7243.130031983621
 20
-659.8174464944594
 30
0.0
 11
7242.630031983619
 21
-659.8174464944594
 31
0.0
  0
ARC
  5
92DB7
330
6C
100
AcDbEntity
  8
Widoczne (ISO)
 62
     2
100
AcDbCircle
 10
7251.796698650284
 20
-667.8174464944587
 30
0.0
 40
12.16666666666662
100
AcDbArc
 50
138.8879095608338
 51
221.1120904391702
  0
LINE
  5
92DB8
330
6C
100
AcDbEntity
  8
Widoczne (ISO)
 62
     2
100
AcDbLine
 10
7242.630031983606
 20
-429.8174464944596
 30
0.0
 11
7242.630031983607
 21
-445.8174464944595
 31
0.0
  0
LINE
  5
92DB9
330
6C
100
AcDbEntity
  8
Widoczne (ISO)
 62
     2
100
AcDbLine
 10
7243.130031983607
 20
-445.8174464944596
 30
0.0
 11
7242.630031983607
 21
-445.8174464944597
 31
0.0
  0
LINE
  5
92DBA
330
6C
100
AcDbEntity
  8
Widoczne (ISO)
 62
     2
100
AcDbLine
 10
7243.130031983607
 20
-429.8174464944596
 30
0.0
 11
7242.630031983606
 21
-429.8174464944596
 31
0.0
  0
ARC
  5
92DBB
330
6C
100
AcDbEntity
  8
Widoczne (ISO)
 62
     2
100
AcDbCircle
 10
7251.796698650274
 20
-437.8174464944591
 30
0.0
 40
12.16666666666662
100
AcDbArc
 50
138.8879095608338
 51
221.1120904391702
  0
LINE
  5
92DBC
330
6C
100
AcDbEntity
  8
Widoczne (ISO)
 62
     2
100
AcDbLine
 10
7242.630031983593
 20
-199.8174464944599
 30
0.0
 11
7242.630031983593
 21
-215.8174464944599
 31
0.0
  0
LINE
  5
92DBD
330
6C
100
AcDbEntity
  8
Widoczne (ISO)
 62
     2
100
AcDbLine
 10
7243.130031983594
 20
-215.8174464944599
 30
0.0
 11
7242.630031983593
 21
-215.8174464944599
 31
0.0
  0
LINE
  5
92DBE
330
6C
100
AcDbEntity
  8
Widoczne (ISO)
 62
     2
100
AcDbLine
 10
7243.130031983594
 20
-199.81744649446
 30
0.0
 11
7242.630031983593
 21
-199.81744649446
 31
0.0
  0
ARC
  5
92DBF
330
6C
100
AcDbEntity
  8
Widoczne (ISO)
 62
     2
100
AcDbCircle
 10
7251.796698650261
 20
-207.8174464944595
 30
0.0
 40
12.16666666666663
100
AcDbArc
 50
138.8879095608338
 51
221.1120904391702
  0
LINE
  5
92DC0
330
6C
100
AcDbEntity
  8
Widoczne (ISO)
 62
     2
100
AcDbLine
 10
7242.630031983582
 20
30.18255350554011
 30
0.0
 11
7242.630031983583
 21
14.18255350554013
 31
0.0
  0
LINE
  5
92DC1
330
6C
100
AcDbEntity
  8
Widoczne (ISO)
 62
     2
100
AcDbLine
 10
7243.130031983581
 20
14.18255350554006
 30
0.0
 11
7242.630031983583
 21
14.18255350554007
 31
0.0
  0
LINE
  5
92DC2
330
6C
100
AcDbEntity
  8
Widoczne (ISO)
 62
     2
100
AcDbLine
 10
7243.130031983581
 20
30.18255350553997
 30
0.0
 11
7242.630031983582
 21
30.18255350553997
 31
0.0
  0
ARC
  5
92DC3
330
6C
100
AcDbEntity
  8
Widoczne (ISO)
 62
     2
100
AcDbCircle
 10
7251.796698650249
 20
22.18255350554049
 30
0.0
 40
12.16666666666663
100
AcDbArc
 50
138.8879095608338
 51
221.1120904391702
  0
LINE
  5
92DC4
330
6C
100
AcDbEntity
  8
Widoczne (ISO)
 62
     2
100
AcDbLine
 10
7242.630031983569
 20
260.1825535055399
 30
0.0
 11
7242.630031983569
 21
244.18255350554
 31
0.0
  0
LINE
  5
92DC5
330
6C
100
AcDbEntity
  8
Widoczne (ISO)
 62
     2
100
AcDbLine
 10
7243.130031983572
 20
244.1825535055401
 30
0.0
 11
7242.63003198357
 21
244.1825535055401
 31
0.0
  0
LINE
  5
92DC6
330
6C
100
AcDbEntity
  8
Widoczne (ISO)
 62
     2
100
AcDbLine
 10
7243.130031983568
 20
260.1825535055399
 30
0.0
 11
7242.630031983569
 21
260.1825535055399
 31
0.0
  0
ARC
  5
92DC7
330
6C
100
AcDbEntity
  8
Widoczne (ISO)
 62
     2
100
AcDbCircle
 10
7251.796698650236
 20
252.1825535055403
 30
0.0
 40
12.16666666666663
100
AcDbArc
 50
138.8879095608338
 51
221.1120904391702
  0
LINE
  5
92DC8
330
6C
100
AcDbEntity
  8
Widoczne (ISO)
 62
     2
100
AcDbLine
 10
7242.630031983556
 20
490.1825535055395
 30
0.0
 11
7242.630031983556
 21
474.1825535055395
 31
0.0
  0
LINE
  5
92DC9
330
6C
100
AcDbEntity
  8
Widoczne (ISO)
 62
     2
100
AcDbLine
 10
7243.130031983557
 20
474.1825535055395
 30
0.0
 11
7242.63003198356
 21
474.1825535055395
 31
0.0
  0
LINE
  5
92DCA
330
6C
100
AcDbEntity
  8
Widoczne (ISO)
 62
     2
100
AcDbLine
 10
7243.130031983556
 20
490.1825535055395
 30
0.0
 11
7242.630031983556
 21
490.1825535055395
 31
0.0
  0
ARC
  5
92DCB
330
6C
100
AcDbEntity
  8
Widoczne (ISO)
 62
     2
100
AcDbCircle
 10
7251.796698650223
 20
482.18255350554
 30
0.0
 40
12.16666666666663
100
AcDbArc
 50
138.8879095608335
 51
221.1120904391702
  0
LINE
  5
92DCC
330
6C
100
AcDbEntity
  8
Widoczne (ISO)
 62
     2
100
AcDbLine
 10
7242.630031983624
 20
-774.8174464944597
 30
0.0
 11
7242.630031983627
 21
-790.8174464944599
 31
0.0
  0
LINE
  5
92DCD
330
6C
100
AcDbEntity
  8
Widoczne (ISO)
 62
     2
100
AcDbLine
 10
7243.130031983627
 20
-790.8174464944599
 30
0.0
 11
7242.630031983627
 21
-790.8174464944599
 31
0.0
  0
LINE
  5
92DCE
330
6C
100
AcDbEntity
  8
Widoczne (ISO)
 62
     2
100
AcDbLine
 10
7243.130031983625
 20
-774.8174464944597
 30
0.0
 11
7242.630031983626
 21
-774.8174464944597
 31
0.0
  0
ARC
  5
92DCF
330
6C
100
AcDbEntity
  8
Widoczne (ISO)
 62
     2
100
AcDbCircle
 10
7251.796698650291
 20
-782.8174464944595
 30
0.0
 40
12.16666666666664
100
AcDbArc
 50
138.8879095608338
 51
221.1120904391702
  0
LINE
  5
92DD0
330
6C
100
AcDbEntity
  8
Widoczne (ISO)
 62
     2
100
AcDbLine
 10
7242.630031983614
 20
-544.8174464944602
 30
0.0
 11
7242.630031983614
 21
-560.8174464944601
 31
0.0
  0
LINE
  5
92DD1
330
6C
100
AcDbEntity
  8
Widoczne (ISO)
 62
     2
100
AcDbLine
 10
7243.130031983615
 20
-560.8174464944602
 30
0.0
 11
7242.630031983614
 21
-560.8174464944602
 31
0.0
  0
LINE
  5
92DD2
330
6C
100
AcDbEntity
  8
Widoczne (ISO)
 62
     2
100
AcDbLine
 10
7243.130031983612
 20
-544.8174464944602
 30
0.0
 11
7242.630031983614
 21
-544.8174464944602
 31
0.0
  0
ARC
  5
92DD3
330
6C
100
AcDbEntity
  8
Widoczne (ISO)
 62
     2
100
AcDbCircle
 10
7251.79669865028
 20
-552.8174464944596
 30
0.0
 40
12.16666666666663
100
AcDbArc
 50
138.8879095608338
 51
221.1120904391702
  0
LINE
  5
92DD4
330
6C
100
AcDbEntity
  8
Widoczne (ISO)
 62
     2
100
AcDbLine
 10
7242.630031983599
 20
-314.8174464944604
 30
0.0
 11
7242.630031983601
 21
-330.8174464944603
 31
0.0
  0
LINE
  5
92DD5
330
6C
100
AcDbEntity
  8
Widoczne (ISO)
 62
     2
100
AcDbLine
 10
7243.130031983601
 20
-330.8174464944604
 30
0.0
 11
7242.630031983601
 21
-330.8174464944604
 31
0.0
  0
LINE
  5
92DD6
330
6C
100
AcDbEntity
  8
Widoczne (ISO)
 62
     2
100
AcDbLine
 10
7243.1300319836
 20
-314.8174464944605
 30
0.0
 11
7242.6300319836
 21
-314.8174464944605
 31
0.0
  0
ARC
  5
92DD7
330
6C
100
AcDbEntity
  8
Widoczne (ISO)
 62
     2
100
AcDbCircle
 10
7251.796698650267
 20
-322.8174464944599
 30
0.0
 40
12.16666666666663
100
AcDbArc
 50
138.8879095608338
 51
221.1120904391704
  0
LINE
  5
92DD8
330
6C
100
AcDbEntity
  8
Widoczne (ISO)
 62
     2
100
AcDbLine
 10
7242.630031983586
 20
-84.81744649446062
 30
0.0
 11
7242.630031983589
 21
-100.8174464944606
 31
0.0
  0
LINE
  5
92DD9
330
6C
100
AcDbEntity
  8
Widoczne (ISO)
 62
     2
100
AcDbLine
 10
7243.130031983587
 20
-100.8174464944605
 30
0.0
 11
7242.630031983589
 21
-100.8174464944606
 31
0.0
  0
LINE
  5
92DDA
330
6C
100
AcDbEntity
  8
Widoczne (ISO)
 62
     2
100
AcDbLine
 10
7243.130031983587
 20
-84.81744649446062
 30
0.0
 11
7242.630031983586
 21
-84.81744649446062
 31
0.0
  0
ARC
  5
92DDB
330
6C
100
AcDbEntity
  8
Widoczne (ISO)
 62
     2
100
AcDbCircle
 10
7251.796698650254
 20
-92.81744649446009
 30
0.0
 40
12.16666666666663
100
AcDbArc
 50
138.8879095608338
 51
221.1120904391704
  0
LINE
  5
92DDC
330
6C
100
AcDbEntity
  8
Widoczne (ISO)
 62
     2
100
AcDbLine
 10
7242.630031983576
 20
145.1825535055395
 30
0.0
 11
7242.630031983576
 21
129.1825535055395
 31
0.0
  0
LINE
  5
92DDD
330
6C
100
AcDbEntity
  8
Widoczne (ISO)
 62
     2
100
AcDbLine
 10
7243.130031983575
 20
129.1825535055395
 30
0.0
 11
7242.630031983576
 21
129.1825535055393
 31
0.0
  0
LINE
  5
92DDE
330
6C
100
AcDbEntity
  8
Widoczne (ISO)
 62
     2
100
AcDbLine
 10
7243.130031983574
 20
145.1825535055393
 30
0.0
 11
7242.630031983576
 21
145.1825535055393
 31
0.0
  0
ARC
  5
92DDF
330
6C
100
AcDbEntity
  8
Widoczne (ISO)
 62
     2
100
AcDbCircle
 10
7251.796698650242
 20
137.1825535055399
 30
0.0
 40
12.16666666666663
100
AcDbArc
 50
138.8879095608338
 51
221.1120904391704
  0
LINE
  5
92DE0
330
6C
100
AcDbEntity
  8
Widoczne (ISO)
 62
     2
100
AcDbLine
 10
7242.630031983562
 20
375.1825535055396
 30
0.0
 11
7242.630031983563
 21
359.1825535055396
 31
0.0
  0
LINE
  5
92DE1
330
6C
100
AcDbEntity
  8
Widoczne (ISO)
 62
     2
100
AcDbLine
 10
7243.130031983564
 20
359.1825535055395
 30
0.0
 11
7242.630031983563
 21
359.1825535055395
 31
0.0
  0
LINE
  5
92DE2
330
6C
100
AcDbEntity
  8
Widoczne (ISO)
 62
     2
100
AcDbLine
 10
7243.130031983561
 20
375.1825535055393
 30
0.0
 11
7242.630031983563
 21
375.1825535055393
 31
0.0
  0
ARC
  5
92DE3
330
6C
100
AcDbEntity
  8
Widoczne (ISO)
 62
     2
100
AcDbCircle
 10
7251.796698650228
 20
367.18255350554
 30
0.0
 40
12.16666666666663
100
AcDbArc
 50
138.8879095608338
 51
221.1120904391704
  0
LINE
  5
92DE4
330
6C
100
AcDbEntity
  8
Widoczne (ISO)
 62
     2
100
AcDbLine
 10
7242.630031983548
 20
605.1825535055392
 30
0.0
 11
7242.630031983551
 21
589.182553505539
 31
0.0
  0
LINE
  5
92DE5
330
6C
100
AcDbEntity
  8
Widoczne (ISO)
 62
     2
100
AcDbLine
 10
7243.130031983551
 20
589.1825535055394
 30
0.0
 11
7242.630031983551
 21
589.1825535055394
 31
0.0
  0
LINE
  5
92DE6
330
6C
100
AcDbEntity
  8
Widoczne (ISO)
 62
     2
100
AcDbLine
 10
7243.130031983548
 20
605.1825535055394
 30
0.0
 11
7242.630031983551
 21
605.1825535055394
 31
0.0
  0
ARC
  5
92DE7
330
6C
100
AcDbEntity
  8
Widoczne (ISO)
 62
     2
100
AcDbCircle
 10
7251.796698650217
 20
597.1825535055398
 30
0.0
 40
12.16666666666663
100
AcDbArc
 50
138.8879095608338
 51
221.1120904391702
  0
LINE
  5
92DE8
330
6C
100
AcDbEntity
  8
Widoczne (ISO)
 62
     2
100
AcDbLine
 10
9348.630031983651
 20
258.2225535055501
 30
0.0
 11
9348.630031983651
 21
274.2225535055501
 31
0.0
  0
LINE
  5
92DE9
330
6C
100
AcDbEntity
  8
Widoczne (ISO)
 62
     2
100
AcDbLine
 10
9348.13003198365
 20
274.2225535055501
 30
0.0
 11
9348.630031983651
 21
274.2225535055501
 31
0.0
  0
LINE
  5
92DEA
330
6C
100
AcDbEntity
  8
Widoczne (ISO)
 62
     2
100
AcDbLine
 10
9348.13003198365
 20
258.2225535055501
 30
0.0
 11
9348.630031983651
 21
258.2225535055501
 31
0.0
  0
ARC
  5
92DEB
330
6C
100
AcDbEntity
  8
Widoczne (ISO)
 62
     2
100
AcDbCircle
 10
9339.463365316985
 20
266.2225535055501
 30
0.0
 40
12.16666666666666
100
AcDbArc
 50
318.8879095608311
 51
41.11209043916985
  0
LINE
  5
92DEC
330
6C
100
AcDbEntity
  8
Widoczne (ISO)
 62
     2
100
AcDbLine
 10
9348.630031983651
 20
-585.7774464944466
 30
0.0
 11
9348.630031983651
 21
-569.7774464944467
 31
0.0
  0
LINE
  5
92DED
330
6C
100
AcDbEntity
  8
Widoczne (ISO)
 62
     2
100
AcDbLine
 10
9348.13003198365
 20
-569.7774464944467
 30
0.0
 11
9348.630031983651
 21
-569.7774464944467
 31
0.0
  0
LINE
  5
92DEE
330
6C
100
AcDbEntity
  8
Widoczne (ISO)
 62
     2
100
AcDbLine
 10
9348.13003198365
 20
-585.7774464944466
 30
0.0
 11
9348.630031983651
 21
-585.7774464944466
 31
0.0
  0
ARC
  5
92DEF
330
6C
100
AcDbEntity
  8
Widoczne (ISO)
 62
     2
100
AcDbCircle
 10
9339.463365316985
 20
-577.7774464944466
 30
0.0
 40
12.16666666666665
100
AcDbArc
 50
318.8879095608311
 51
41.11209043916985
  0
LINE
  5
92DF0
330
6C
100
AcDbEntity
  8
Widoczne (ISO)
 62
     2
100
AcDbLine
 10
9348.630031983651
 20
-195.7774464944477
 30
0.0
 11
9348.630031983651
 21
-184.7374464944478
 31
0.0
  0
LINE
  5
92DF1
330
6C
100
AcDbEntity
  8
Widoczne (ISO)
 62
     2
100
AcDbLine
 10
9348.13003198365
 20
-195.7774464944477
 30
0.0
 11
9348.630031983651
 21
-195.7774464944477
 31
0.0
  0
ARC
  5
92DF2
330
6C
100
AcDbEntity
  8
Widoczne (ISO)
 62
     2
100
AcDbCircle
 10
9339.463365316985
 20
-187.7774464944477
 30
0.0
 40
12.16666666666664
100
AcDbArc
 50
318.8879095608323
 51
26.98123302031046
  0
LINE
  5
92DF3
330
6C
100
AcDbEntity
  8
Widoczne (ISO)
 62
     2
100
AcDbLine
 10
9348.630031983649
 20
620.2625535055501
 30
0.0
 11
9348.630031983649
 21
636.2625535055501
 31
0.0
  0
LINE
  5
92DF4
330
6C
100
AcDbEntity
  8
Widoczne (ISO)
 62
     2
100
AcDbLine
 10
9348.130031983648
 20
636.2625535055505
 30
0.0
 11
9348.630031983649
 21
636.2625535055505
 31
0.0
  0
LINE
  5
92DF5
330
6C
100
AcDbEntity
  8
Widoczne (ISO)
 62
     2
100
AcDbLine
 10
9348.130031983648
 20
620.2625535055503
 30
0.0
 11
9348.630031983649
 21
620.2625535055503
 31
0.0
  0
ARC
  5
92DF6
330
6C
100
AcDbEntity
  8
Widoczne (ISO)
 62
     2
100
AcDbCircle
 10
9339.463365316982
 20
628.2625535055501
 30
0.0
 40
12.16666666666663
100
AcDbArc
 50
318.8879095608326
 51
41.11209043916985
  0
LINE
  5
92DF7
330
6C
100
AcDbEntity
  8
Widoczne (ISO)
 62
     2
100
AcDbLine
 10
9348.630031983649
 20
390.2625535055504
 30
0.0
 11
9348.630031983649
 21
406.2625535055503
 31
0.0
  0
LINE
  5
92DF8
330
6C
100
AcDbEntity
  8
Widoczne (ISO)
 62
     2
100
AcDbLine
 10
9348.130031983648
 20
406.2625535055503
 30
0.0
 11
9348.630031983649
 21
406.2625535055503
 31
0.0
  0
LINE
  5
92DF9
330
6C
100
AcDbEntity
  8
Widoczne (ISO)
 62
     2
100
AcDbLine
 10
9348.130031983648
 20
390.2625535055504
 30
0.0
 11
9348.630031983649
 21
390.2625535055504
 31
0.0
  0
ARC
  5
92DFA
330
6C
100
AcDbEntity
  8
Widoczne (ISO)
 62
     2
100
AcDbCircle
 10
9339.463365316982
 20
398.2625535055504
 30
0.0
 40
12.16666666666663
100
AcDbArc
 50
318.8879095608326
 51
41.11209043916985
  0
LINE
  5
92DFB
330
6C
100
AcDbEntity
  8
Widoczne (ISO)
 62
     2
100
AcDbLine
 10
9348.630031983649
 20
160.262553505551
 30
0.0
 11
9348.630031983649
 21
176.2625535055509
 31
0.0
  0
LINE
  5
92DFC
330
6C
100
AcDbEntity
  8
Widoczne (ISO)
 62
     2
100
AcDbLine
 10
9348.130031983648
 20
176.262553505551
 30
0.0
 11
9348.630031983649
 21
176.262553505551
 31
0.0
  0
LINE
  5
92DFD
330
6C
100
AcDbEntity
  8
Widoczne (ISO)
 62
     2
100
AcDbLine
 10
9348.130031983648
 20
160.2625535055509
 30
0.0
 11
9348.630031983649
 21
160.2625535055509
 31
0.0
  0
ARC
  5
92DFE
330
6C
100
AcDbEntity
  8
Widoczne (ISO)
 62
     2
100
AcDbCircle
 10
9339.463365316982
 20
168.2625535055509
 30
0.0
 40
12.16666666666663
100
AcDbArc
 50
318.8879095608326
 51
41.11209043916985
  0
LINE
  5
92DFF
330
6C
100
AcDbEntity
  8
Widoczne (ISO)
 62
     2
100
AcDbLine
 10
9348.630031983649
 20
-69.73744649444842
 30
0.0
 11
9348.630031983649
 21
-53.73744649444848
 31
0.0
  0
LINE
  5
92E00
330
6C
100
AcDbEntity
  8
Widoczne (ISO)
 62
     2
100
AcDbLine
 10
9348.130031983648
 20
-53.7374464944483
 30
0.0
 11
9348.630031983649
 21
-53.7374464944483
 31
0.0
  0
LINE
  5
92E01
330
6C
100
AcDbEntity
  8
Widoczne (ISO)
 62
     2
100
AcDbLine
 10
9348.130031983648
 20
-69.73744649444849
 30
0.0
 11
9348.630031983649
 21
-69.73744649444849
 31
0.0
  0
ARC
  5
92E02
330
6C
100
AcDbEntity
  8
Widoczne (ISO)
 62
     2
100
AcDbCircle
 10
9339.463365316982
 20
-61.73744649444852
 30
0.0
 40
12.16666666666663
100
AcDbArc
 50
318.8879095608326
 51
41.11209043916985
  0
LINE
  5
92E03
330
6C
100
AcDbEntity
  8
Widoczne (ISO)
 62
     2
100
AcDbLine
 10
9348.630031983649
 20
-299.7374464944481
 30
0.0
 11
9348.630031983649
 21
-283.7374464944482
 31
0.0
  0
LINE
  5
92E04
330
6C
100
AcDbEntity
  8
Widoczne (ISO)
 62
     2
100
AcDbLine
 10
9348.130031983648
 20
-283.737446494448
 30
0.0
 11
9348.630031983649
 21
-283.737446494448
 31
0.0
  0
LINE
  5
92E05
330
6C
100
AcDbEntity
  8
Widoczne (ISO)
 62
     2
100
AcDbLine
 10
9348.130031983648
 20
-299.7374464944483
 30
0.0
 11
9348.630031983649
 21
-299.7374464944483
 31
0.0
  0
ARC
  5
92E06
330
6C
100
AcDbEntity
  8
Widoczne (ISO)
 62
     2
100
AcDbCircle
 10
9339.463365316982
 20
-291.7374464944481
 30
0.0
 40
12.16666666666663
100
AcDbArc
 50
318.8879095608326
 51
41.11209043916985
  0
LINE
  5
92E07
330
6C
100
AcDbEntity
  8
Widoczne (ISO)
 62
     2
100
AcDbLine
 10
9348.630031983649
 20
-529.7374464944477
 30
0.0
 11
9348.630031983649
 21
-513.7374464944477
 31
0.0
  0
LINE
  5
92E08
330
6C
100
AcDbEntity
  8
Widoczne (ISO)
 62
     2
100
AcDbLine
 10
9348.130031983648
 20
-513.7374464944477
 30
0.0
 11
9348.630031983649
 21
-513.7374464944477
 31
0.0
  0
LINE
  5
92E09
330
6C
100
AcDbEntity
  8
Widoczne (ISO)
 62
     2
100
AcDbLine
 10
9348.130031983648
 20
-529.7374464944478
 30
0.0
 11
9348.630031983649
 21
-529.7374464944478
 31
0.0
  0
ARC
  5
92E0A
330
6C
100
AcDbEntity
  8
Widoczne (ISO)
 62
     2
100
AcDbCircle
 10
9339.463365316982
 20
-521.7374464944477
 30
0.0
 40
12.16666666666663
100
AcDbArc
 50
318.8879095608326
 51
41.11209043916985
  0
LINE
  5
92E0B
330
6C
100
AcDbEntity
  8
Widoczne (ISO)
 62
     2
100
AcDbLine
 10
9348.630031983649
 20
-759.7374464944472
 30
0.0
 11
9348.630031983649
 21
-743.7374464944472
 31
0.0
  0
LINE
  5
92E0C
330
6C
100
AcDbEntity
  8
Widoczne (ISO)
 62
     2
100
AcDbLine
 10
9348.130031983648
 20
-743.7374464944467
 30
0.0
 11
9348.630031983649
 21
-743.7374464944467
 31
0.0
  0
LINE
  5
92E0D
330
6C
100
AcDbEntity
  8
Widoczne (ISO)
 62
     2
100
AcDbLine
 10
9348.130031983648
 20
-759.7374464944472
 30
0.0
 11
9348.630031983649
 21
-759.7374464944472
 31
0.0
  0
ARC
  5
92E0E
330
6C
100
AcDbEntity
  8
Widoczne (ISO)
 62
     2
100
AcDbCircle
 10
9339.463365316982
 20
-751.7374464944468
 30
0.0
 40
12.16666666666663
100
AcDbArc
 50
318.8879095608328
 51
41.11209043916985
  0
LINE
  5
92E0F
330
6C
100
AcDbEntity
  8
Widoczne (ISO)
 62
     2
100
AcDbLine
 10
9348.630031983649
 20
505.262553505551
 30
0.0
 11
9348.630031983649
 21
521.2625535055508
 31
0.0
  0
LINE
  5
92E10
330
6C
100
AcDbEntity
  8
Widoczne (ISO)
 62
     2
100
AcDbLine
 10
9348.130031983648
 20
521.2625535055511
 30
0.0
 11
9348.630031983649
 21
521.2625535055511
 31
0.0
  0
LINE
  5
92E11
330
6C
100
AcDbEntity
  8
Widoczne (ISO)
 62
     2
100
AcDbLine
 10
9348.130031983648
 20
505.262553505551
 30
0.0
 11
9348.630031983649
 21
505.262553505551
 31
0.0
  0
ARC
  5
92E12
330
6C
100
AcDbEntity
  8
Widoczne (ISO)
 62
     2
100
AcDbCircle
 10
9339.463365316982
 20
513.2625535055508
 30
0.0
 40
12.16666666666664
100
AcDbArc
 50
318.8879095608326
 51
41.11209043916985
  0
LINE
  5
92E13
330
6C
100
AcDbEntity
  8
Widoczne (ISO)
 62
     2
100
AcDbLine
 10
9348.630031983649
 20
275.2625535055514
 30
0.0
 11
9348.630031983649
 21
291.2625535055513
 31
0.0
  0
LINE
  5
92E14
330
6C
100
AcDbEntity
  8
Widoczne (ISO)
 62
     2
100
AcDbLine
 10
9348.130031983648
 20
291.2625535055516
 30
0.0
 11
9348.630031983649
 21
291.2625535055516
 31
0.0
  0
LINE
  5
92E15
330
6C
100
AcDbEntity
  8
Widoczne (ISO)
 62
     2
100
AcDbLine
 10
9348.130031983648
 20
275.2625535055513
 30
0.0
 11
9348.630031983649
 21
275.2625535055513
 31
0.0
  0
ARC
  5
92E16
330
6C
100
AcDbEntity
  8
Widoczne (ISO)
 62
     2
100
AcDbCircle
 10
9339.463365316982
 20
283.2625535055513
 30
0.0
 40
12.16666666666664
100
AcDbArc
 50
318.8879095608326
 51
41.11209043916985
  0
LINE
  5
92E17
330
6C
100
AcDbEntity
  8
Widoczne (ISO)
 62
     2
100
AcDbLine
 10
9348.630031983649
 20
45.2625535055517
 30
0.0
 11
9348.630031983649
 21
61.26255350555165
 31
0.0
  0
LINE
  5
92E18
330
6C
100
AcDbEntity
  8
Widoczne (ISO)
 62
     2
100
AcDbLine
 10
9348.130031983648
 20
61.26255350555179
 30
0.0
 11
9348.630031983649
 21
61.26255350555179
 31
0.0
  0
LINE
  5
92E19
330
6C
100
AcDbEntity
  8
Widoczne (ISO)
 62
     2
100
AcDbLine
 10
9348.130031983648
 20
45.26255350555163
 30
0.0
 11
9348.630031983649
 21
45.26255350555163
 31
0.0
  0
ARC
  5
92E1A
330
6C
100
AcDbEntity
  8
Widoczne (ISO)
 62
     2
100
AcDbCircle
 10
9339.463365316982
 20
53.26255350555169
 30
0.0
 40
12.16666666666664
100
AcDbArc
 50
318.8879095608326
 51
41.11209043916985
  0
LINE
  5
92E1B
330
6C
100
AcDbEntity
  8
Widoczne (ISO)
 62
     2
100
AcDbLine
 10
9348.630031983649
 20
-184.7374464944476
 30
0.0
 11
9348.630031983649
 21
-168.7374464944477
 31
0.0
  0
LINE
  5
92E1C
330
6C
100
AcDbEntity
  8
Widoczne (ISO)
 62
     2
100
AcDbLine
 10
9348.130031983648
 20
-168.7374464944476
 30
0.0
 11
9348.630031983649
 21
-168.7374464944476
 31
0.0
  0
LINE
  5
92E1D
330
6C
100
AcDbEntity
  8
Widoczne (ISO)
 62
     2
100
AcDbLine
 10
9348.130031983648
 20
-184.7374464944478
 30
0.0
 11
9348.630031983649
 21
-184.7374464944478
 31
0.0
  0
ARC
  5
92E1E
330
6C
100
AcDbEntity
  8
Widoczne (ISO)
 62
     2
100
AcDbCircle
 10
9339.463365316982
 20
-176.7374464944477
 30
0.0
 40
12.16666666666664
100
AcDbArc
 50
318.8879095608326
 51
41.11209043916985
  0
LINE
  5
92E1F
330
6C
100
AcDbEntity
  8
Widoczne (ISO)
 62
     2
100
AcDbLine
 10
9348.630031983649
 20
-414.7374464944475
 30
0.0
 11
9348.630031983649
 21
-398.7374464944476
 31
0.0
  0
LINE
  5
92E20
330
6C
100
AcDbEntity
  8
Widoczne (ISO)
 62
     2
100
AcDbLine
 10
9348.130031983648
 20
-398.7374464944474
 30
0.0
 11
9348.630031983649
 21
-398.7374464944474
 31
0.0
  0
LINE
  5
92E21
330
6C
100
AcDbEntity
  8
Widoczne (ISO)
 62
     2
100
AcDbLine
 10
9348.130031983648
 20
-414.7374464944475
 30
0.0
 11
9348.630031983649
 21
-414.7374464944475
 31
0.0
  0
ARC
  5
92E22
330
6C
100
AcDbEntity
  8
Widoczne (ISO)
 62
     2
100
AcDbCircle
 10
9339.463365316982
 20
-406.7374464944474
 30
0.0
 40
12.16666666666664
100
AcDbArc
 50
318.8879095608326
 51
41.11209043916985
  0
LINE
  5
92E23
330
6C
100
AcDbEntity
  8
Widoczne (ISO)
 62
     2
100
AcDbLine
 10
9348.630031983649
 20
-644.7374464944471
 30
0.0
 11
9348.630031983649
 21
-628.7374464944472
 31
0.0
  0
LINE
  5
92E24
330
6C
100
AcDbEntity
  8
Widoczne (ISO)
 62
     2
100
AcDbLine
 10
9348.130031983648
 20
-628.7374464944471
 30
0.0
 11
9348.630031983649
 21
-628.7374464944471
 31
0.0
  0
LINE
  5
92E25
330
6C
100
AcDbEntity
  8
Widoczne (ISO)
 62
     2
100
AcDbLine
 10
9348.130031983648
 20
-644.7374464944472
 30
0.0
 11
9348.630031983649
 21
-644.7374464944472
 31
0.0
  0
ARC
  5
92E26
330
6C
100
AcDbEntity
  8
Widoczne (ISO)
 62
     2
100
AcDbCircle
 10
9339.463365316982
 20
-636.7374464944471
 30
0.0
 40
12.16666666666664
100
AcDbArc
 50
318.8879095608328
 51
41.11209043916985
  0
LINE
  5
92E27
330
6C
100
AcDbEntity
  8
Widoczne (ISO)
 62
     2
100
AcDbLine
 10
9348.630031983649
 20
-874.7374464944467
 30
0.0
 11
9348.630031983649
 21
-858.7374464944467
 31
0.0
  0
LINE
  5
92E28
330
6C
100
AcDbEntity
  8
Widoczne (ISO)
 62
     2
100
AcDbLine
 10
9348.130031983648
 20
-858.7374464944467
 30
0.0
 11
9348.630031983649
 21
-858.7374464944467
 31
0.0
  0
LINE
  5
92E29
330
6C
100
AcDbEntity
  8
Widoczne (ISO)
 62
     2
100
AcDbLine
 10
9348.130031983648
 20
-874.7374464944469
 30
0.0
 11
9348.630031983649
 21
-874.7374464944469
 31
0.0
  0
ARC
  5
92E2A
330
6C
100
AcDbEntity
  8
Widoczne (ISO)
 62
     2
100
AcDbCircle
 10
9339.463365316982
 20
-866.7374464944467
 30
0.0
 40
12.16666666666664
100
AcDbArc
 50
318.8879095608328
 51
41.11209043916985
  0
LINE
  5
92E2B
330
6C
100
AcDbEntity
  8
Widoczne (ISO)
 62
     2
100
AcDbLine
 10
7902.630031983651
 20
918.2225535055113
 30
0.0
 11
7886.630031983654
 21
918.2225535055119
 31
0.0
  0
LINE
  5
92E2C
330
6C
100
AcDbEntity
  8
Widoczne (ISO)
 62
     2
100
AcDbLine
 10
7886.630031983649
 20
917.7225535055127
 30
0.0
 11
7886.630031983649
 21
918.2225535055122
 31
0.0
  0
LINE
  5
92E2D
330
6C
100
AcDbEntity
  8
Widoczne (ISO)
 62
     2
100
AcDbLine
 10
7902.630031983652
 20
917.7225535055113
 30
0.0
 11
7902.630031983652
 21
918.222553505511
 31
0.0
  0
ARC
  5
92E2E
330
6C
100
AcDbEntity
  8
Widoczne (ISO)
 62
     2
100
AcDbCircle
 10
7894.630031983651
 20
909.055886838845
 30
0.0
 40
12.16666666666667
100
AcDbArc
 50
48.88790956083201
 51
131.1120904391648
  0
LINE
  5
92E2F
330
6C
100
AcDbEntity
  8
Widoczne (ISO)
 62
     2
100
AcDbLine
 10
8746.630031983647
 20
918.2225535054636
 30
0.0
 11
8730.630031983649
 21
918.2225535054646
 31
0.0
  0
LINE
  5
92E30
330
6C
100
AcDbEntity
  8
Widoczne (ISO)
 62
     2
100
AcDbLine
 10
8730.630031983649
 20
917.7225535054647
 30
0.0
 11
8730.630031983649
 21
918.2225535054653
 31
0.0
  0
LINE
  5
92E31
330
6C
100
AcDbEntity
  8
Widoczne (ISO)
 62
     2
100
AcDbLine
 10
8746.630031983647
 20
917.7225535054635
 30
0.0
 11
8746.630031983647
 21
918.2225535054639
 31
0.0
  0
ARC
  5
92E32
330
6C
100
AcDbEntity
  8
Widoczne (ISO)
 62
     2
100
AcDbCircle
 10
8738.630031983648
 20
909.0558868387972
 30
0.0
 40
12.16666666666665
100
AcDbArc
 50
48.88790956083254
 51
131.112090439165
  0
LINE
  5
92E33
330
6C
100
AcDbEntity
  8
Widoczne (ISO)
 62
     2
100
AcDbLine
 10
8356.630031983648
 20
918.2225535054858
 30
0.0
 11
8345.590031983652
 21
918.2225535054865
 31
0.0
  0
LINE
  5
92E34
330
6C
100
AcDbEntity
  8
Widoczne (ISO)
 62
     2
100
AcDbLine
 10
8356.630031983648
 20
917.7225535054859
 30
0.0
 11
8356.630031983648
 21
918.2225535054858
 31
0.0
  0
ARC
  5
92E35
330
6C
100
AcDbEntity
  8
Widoczne (ISO)
 62
     2
100
AcDbCircle
 10
8348.630031983651
 20
909.0558868388194
 30
0.0
 40
12.16666666666664
100
AcDbArc
 50
48.88790956083415
 51
116.9812330202997
  0
LINE
  5
92E36
330
6C
100
AcDbEntity
  8
Widoczne (ISO)
 62
     2
100
AcDbLine
 10
7540.590031983652
 20
918.2225535055312
 30
0.0
 11
7524.590031983651
 21
918.2225535055321
 31
0.0
  0
LINE
  5
92E37
330
6C
100
AcDbEntity
  8
Widoczne (ISO)
 62
     2
100
AcDbLine
 10
7524.590031983652
 20
917.7225535055324
 30
0.0
 11
7524.590031983652
 21
918.2225535055321
 31
0.0
  0
LINE
  5
92E38
330
6C
100
AcDbEntity
  8
Widoczne (ISO)
 62
     2
100
AcDbLine
 10
7540.590031983652
 20
917.7225535055313
 30
0.0
 11
7540.590031983652
 21
918.2225535055307
 31
0.0
  0
ARC
  5
92E39
330
6C
100
AcDbEntity
  8
Widoczne (ISO)
 62
     2
100
AcDbCircle
 10
7532.590031983651
 20
909.0558868388647
 30
0.0
 40
12.16666666666664
100
AcDbArc
 50
48.88790956083227
 51
131.1120904391648
  0
LINE
  5
92E3A
330
6C
100
AcDbEntity
  8
Widoczne (ISO)
 62
     2
100
AcDbLine
 10
7770.590031983651
 20
918.2225535055179
 30
0.0
 11
7754.59003198365
 21
918.222553505519
 31
0.0
  0
LINE
  5
92E3B
330
6C
100
AcDbEntity
  8
Widoczne (ISO)
 62
     2
100
AcDbLine
 10
7754.59003198365
 20
917.7225535055193
 30
0.0
 11
7754.59003198365
 21
918.2225535055188
 31
0.0
  0
LINE
  5
92E3C
330
6C
100
AcDbEntity
  8
Widoczne (ISO)
 62
     2
100
AcDbLine
 10
7770.590031983651
 20
917.7225535055182
 30
0.0
 11
7770.590031983651
 21
918.2225535055176
 31
0.0
  0
ARC
  5
92E3D
330
6C
100
AcDbEntity
  8
Widoczne (ISO)
 62
     2
100
AcDbCircle
 10
7762.590031983652
 20
909.0558868388512
 30
0.0
 40
12.16666666666664
100
AcDbArc
 50
48.88790956083307
 51
131.1120904391648
  0
LINE
  5
92E3E
330
6C
100
AcDbEntity
  8
Widoczne (ISO)
 62
     2
100
AcDbLine
 10
8000.590031983653
 20
918.2225535055051
 30
0.0
 11
7984.590031983652
 21
918.2225535055064
 31
0.0
  0
LINE
  5
92E3F
330
6C
100
AcDbEntity
  8
Widoczne (ISO)
 62
     2
100
AcDbLine
 10
7984.590031983652
 20
917.7225535055065
 30
0.0
 11
7984.590031983652
 21
918.222553505506
 31
0.0
  0
LINE
  5
92E40
330
6C
100
AcDbEntity
  8
Widoczne (ISO)
 62
     2
100
AcDbLine
 10
8000.590031983653
 20
917.7225535055054
 30
0.0
 11
8000.590031983653
 21
918.2225535055048
 31
0.0
  0
ARC
  5
92E41
330
6C
100
AcDbEntity
  8
Widoczne (ISO)
 62
     2
100
AcDbCircle
 10
7992.590031983652
 20
909.0558868388388
 30
0.0
 40
12.16666666666664
100
AcDbArc
 50
48.88790956083227
 51
131.1120904391648
  0
LINE
  5
92E42
330
6C
100
AcDbEntity
  8
Widoczne (ISO)
 62
     2
100
AcDbLine
 10
8230.59003198365
 20
918.2225535054922
 30
0.0
 11
8214.590031983652
 21
918.222553505493
 31
0.0
  0
LINE
  5
92E43
330
6C
100
AcDbEntity
  8
Widoczne (ISO)
 62
     2
100
AcDbLine
 10
8214.590031983652
 20
917.7225535054933
 30
0.0
 11
8214.590031983652
 21
918.2225535054927
 31
0.0
  0
LINE
  5
92E44
330
6C
100
AcDbEntity
  8
Widoczne (ISO)
 62
     2
100
AcDbLine
 10
8230.59003198365
 20
917.7225535054919
 30
0.0
 11
8230.59003198365
 21
918.2225535054911
 31
0.0
  0
ARC
  5
92E45
330
6C
100
AcDbEntity
  8
Widoczne (ISO)
 62
     2
100
AcDbCircle
 10
8222.590031983649
 20
909.0558868388256
 30
0.0
 40
12.16666666666664
100
AcDbArc
 50
48.88790956083227
 51
131.1120904391648
  0
LINE
  5
92E46
330
6C
100
AcDbEntity
  8
Widoczne (ISO)
 62
     2
100
AcDbLine
 10
8460.590031983651
 20
918.2225535054795
 30
0.0
 11
8444.590031983651
 21
918.2225535054801
 31
0.0
  0
LINE
  5
92E47
330
6C
100
AcDbEntity
  8
Widoczne (ISO)
 62
     2
100
AcDbLine
 10
8444.590031983651
 20
917.7225535054803
 30
0.0
 11
8444.590031983651
 21
918.2225535054801
 31
0.0
  0
LINE
  5
92E48
330
6C
100
AcDbEntity
  8
Widoczne (ISO)
 62
     2
100
AcDbLine
 10
8460.590031983651
 20
917.7225535054796
 30
0.0
 11
8460.590031983651
 21
918.222553505479
 31
0.0
  0
ARC
  5
92E49
330
6C
100
AcDbEntity
  8
Widoczne (ISO)
 62
     2
100
AcDbCircle
 10
8452.590031983651
 20
909.0558868388127
 30
0.0
 40
12.16666666666664
100
AcDbArc
 50
48.88790956083227
 51
131.1120904391648
  0
LINE
  5
92E4A
330
6C
100
AcDbEntity
  8
Widoczne (ISO)
 62
     2
100
AcDbLine
 10
8690.590031983651
 20
918.2225535054662
 30
0.0
 11
8674.590031983651
 21
918.2225535054671
 31
0.0
  0
LINE
  5
92E4B
330
6C
100
AcDbEntity
  8
Widoczne (ISO)
 62
     2
100
AcDbLine
 10
8674.590031983649
 20
917.7225535054676
 30
0.0
 11
8674.590031983649
 21
918.2225535054671
 31
0.0
  0
LINE
  5
92E4C
330
6C
100
AcDbEntity
  8
Widoczne (ISO)
 62
     2
100
AcDbLine
 10
8690.590031983651
 20
917.7225535054663
 30
0.0
 11
8690.590031983651
 21
918.2225535054659
 31
0.0
  0
ARC
  5
92E4D
330
6C
100
AcDbEntity
  8
Widoczne (ISO)
 62
     2
100
AcDbCircle
 10
8682.590031983648
 20
909.0558868387995
 30
0.0
 40
12.16666666666664
100
AcDbArc
 50
48.88790956083227
 51
131.1120904391648
  0
LINE
  5
92E4E
330
6C
100
AcDbEntity
  8
Widoczne (ISO)
 62
     2
100
AcDbLine
 10
8920.590031983648
 20
918.2225535054536
 30
0.0
 11
8904.59003198365
 21
918.2225535054543
 31
0.0
  0
LINE
  5
92E4F
330
6C
100
AcDbEntity
  8
Widoczne (ISO)
 62
     2
100
AcDbLine
 10
8904.590031983648
 20
917.7225535054544
 30
0.0
 11
8904.590031983648
 21
918.222553505454
 31
0.0
  0
LINE
  5
92E50
330
6C
100
AcDbEntity
  8
Widoczne (ISO)
 62
     2
100
AcDbLine
 10
8920.590031983648
 20
917.7225535054532
 30
0.0
 11
8920.590031983648
 21
918.2225535054527
 31
0.0
  0
ARC
  5
92E51
330
6C
100
AcDbEntity
  8
Widoczne (ISO)
 62
     2
100
AcDbCircle
 10
8912.590031983647
 20
909.0558868387873
 30
0.0
 40
12.16666666666664
100
AcDbArc
 50
48.88790956083227
 51
131.1120904391648
  0
LINE
  5
92E52
330
6C
100
AcDbEntity
  8
Widoczne (ISO)
 62
     2
100
AcDbLine
 10
7655.590031983654
 20
918.2225535055247
 30
0.0
 11
7639.590031983651
 21
918.2225535055255
 31
0.0
  0
LINE
  5
92E53
330
6C
100
AcDbEntity
  8
Widoczne (ISO)
 62
     2
100
AcDbLine
 10
7639.590031983651
 20
917.7225535055258
 30
0.0
 11
7639.590031983651
 21
918.2225535055259
 31
0.0
  0
LINE
  5
92E54
330
6C
100
AcDbEntity
  8
Widoczne (ISO)
 62
     2
100
AcDbLine
 10
7655.590031983654
 20
917.7225535055248
 30
0.0
 11
7655.590031983654
 21
918.2225535055247
 31
0.0
  0
ARC
  5
92E55
330
6C
100
AcDbEntity
  8
Widoczne (ISO)
 62
     2
100
AcDbCircle
 10
7647.590031983651
 20
909.0558868388583
 30
0.0
 40
12.16666666666664
100
AcDbArc
 50
48.88790956083227
 51
131.1120904391648
  0
LINE
  5
92E56
330
6C
100
AcDbEntity
  8
Widoczne (ISO)
 62
     2
100
AcDbLine
 10
7885.59003198365
 20
918.2225535055117
 30
0.0
 11
7869.590031983652
 21
918.2225535055122
 31
0.0
  0
LINE
  5
92E57
330
6C
100
AcDbEntity
  8
Widoczne (ISO)
 62
     2
100
AcDbLine
 10
7869.590031983652
 20
917.722553505513
 30
0.0
 11
7869.590031983652
 21
918.2225535055133
 31
0.0
  0
LINE
  5
92E58
330
6C
100
AcDbEntity
  8
Widoczne (ISO)
 62
     2
100
AcDbLine
 10
7885.590031983652
 20
917.7225535055118
 30
0.0
 11
7885.590031983652
 21
918.2225535055119
 31
0.0
  0
ARC
  5
92E59
330
6C
100
AcDbEntity
  8
Widoczne (ISO)
 62
     2
100
AcDbCircle
 10
7877.59003198365
 20
909.0558868388457
 30
0.0
 40
12.16666666666664
100
AcDbArc
 50
48.88790956083227
 51
131.1120904391648
  0
LINE
  5
92E5A
330
6C
100
AcDbEntity
  8
Widoczne (ISO)
 62
     2
100
AcDbLine
 10
8115.59003198365
 20
918.2225535054987
 30
0.0
 11
8099.59003198365
 21
918.2225535054996
 31
0.0
  0
LINE
  5
92E5B
330
6C
100
AcDbEntity
  8
Widoczne (ISO)
 62
     2
100
AcDbLine
 10
8099.59003198365
 20
917.7225535055001
 30
0.0
 11
8099.59003198365
 21
918.2225535055003
 31
0.0
  0
LINE
  5
92E5C
330
6C
100
AcDbEntity
  8
Widoczne (ISO)
 62
     2
100
AcDbLine
 10
8115.59003198365
 20
917.7225535054988
 30
0.0
 11
8115.59003198365
 21
918.2225535054993
 31
0.0
  0
ARC
  5
92E5D
330
6C
100
AcDbEntity
  8
Widoczne (ISO)
 62
     2
100
AcDbCircle
 10
8107.590031983651
 20
909.0558868388328
 30
0.0
 40
12.16666666666664
100
AcDbArc
 50
48.88790956083227
 51
131.1120904391648
  0
LINE
  5
92E5E
330
6C
100
AcDbEntity
  8
Widoczne (ISO)
 62
     2
100
AcDbLine
 10
8345.590031983652
 20
918.2225535054858
 30
0.0
 11
8329.590031983649
 21
918.2225535054865
 31
0.0
  0
LINE
  5
92E5F
330
6C
100
AcDbEntity
  8
Widoczne (ISO)
 62
     2
100
AcDbLine
 10
8329.590031983649
 20
917.7225535054867
 30
0.0
 11
8329.590031983649
 21
918.222553505487
 31
0.0
  0
LINE
  5
92E60
330
6C
100
AcDbEntity
  8
Widoczne (ISO)
 62
     2
100
AcDbLine
 10
8345.590031983652
 20
917.7225535054857
 30
0.0
 11
8345.590031983652
 21
918.2225535054858
 31
0.0
  0
ARC
  5
92E61
330
6C
100
AcDbEntity
  8
Widoczne (ISO)
 62
     2
100
AcDbCircle
 10
8337.590031983651
 20
909.0558868388196
 30
0.0
 40
12.16666666666664
100
AcDbArc
 50
48.88790956083227
 51
131.1120904391648
  0
LINE
  5
92E62
330
6C
100
AcDbEntity
  8
Widoczne (ISO)
 62
     2
100
AcDbLine
 10
8575.590031983649
 20
918.2225535054724
 30
0.0
 11
8559.590031983649
 21
918.2225535054739
 31
0.0
  0
LINE
  5
92E63
330
6C
100
AcDbEntity
  8
Widoczne (ISO)
 62
     2
100
AcDbLine
 10
8559.590031983649
 20
917.722553505474
 30
0.0
 11
8559.590031983649
 21
918.2225535054742
 31
0.0
  0
LINE
  5
92E64
330
6C
100
AcDbEntity
  8
Widoczne (ISO)
 62
     2
100
AcDbLine
 10
8575.590031983651
 20
917.7225535054727
 30
0.0
 11
8575.590031983651
 21
918.2225535054731
 31
0.0
  0
ARC
  5
92E65
330
6C
100
AcDbEntity
  8
Widoczne (ISO)
 62
     2
100
AcDbCircle
 10
8567.590031983646
 20
909.055886838807
 30
0.0
 40
12.16666666666664
100
AcDbArc
 50
48.88790956083227
 51
131.1120904391648
  0
LINE
  5
92E66
330
6C
100
AcDbEntity
  8
Widoczne (ISO)
 62
     2
100
AcDbLine
 10
8805.590031983649
 20
918.2225535054596
 30
0.0
 11
8789.590031983649
 21
918.2225535054609
 31
0.0
  0
LINE
  5
92E67
330
6C
100
AcDbEntity
  8
Widoczne (ISO)
 62
     2
100
AcDbLine
 10
8789.590031983649
 20
917.722553505461
 30
0.0
 11
8789.590031983649
 21
918.2225535054612
 31
0.0
  0
LINE
  5
92E68
330
6C
100
AcDbEntity
  8
Widoczne (ISO)
 62
     2
100
AcDbLine
 10
8805.590031983651
 20
917.7225535054601
 30
0.0
 11
8805.590031983651
 21
918.2225535054596
 31
0.0
  0
ARC
  5
92E69
330
6C
100
AcDbEntity
  8
Widoczne (ISO)
 62
     2
100
AcDbCircle
 10
8797.59003198365
 20
909.055886838794
 30
0.0
 40
12.16666666666664
100
AcDbArc
 50
48.88790956083227
 51
131.1120904391648
  0
LINE
  5
92E6A
330
6C
100
AcDbEntity
  8
Widoczne (ISO)
 62
     2
100
AcDbLine
 10
9035.59003198365
 20
918.2225535054467
 30
0.0
 11
9019.59003198365
 21
918.2225535054479
 31
0.0
  0
LINE
  5
92E6B
330
6C
100
AcDbEntity
  8
Widoczne (ISO)
 62
     2
100
AcDbLine
 10
9019.59003198365
 20
917.7225535054484
 30
0.0
 11
9019.59003198365
 21
918.2225535054483
 31
0.0
  0
LINE
  5
92E6C
330
6C
100
AcDbEntity
  8
Widoczne (ISO)
 62
     2
100
AcDbLine
 10
9035.59003198365
 20
917.7225535054471
 30
0.0
 11
9035.59003198365
 21
918.2225535054472
 31
0.0
  0
ARC
  5
92E6D
330
6C
100
AcDbEntity
  8
Widoczne (ISO)
 62
     2
100
AcDbCircle
 10
9027.590031983647
 20
909.0558868387812
 30
0.0
 40
12.16666666666664
100
AcDbArc
 50
48.88790956083227
 51
131.1120904391648
  0
LINE
  5
92E6E
330
6C
100
AcDbEntity
  8
Widoczne (ISO)
 62
     2
100
AcDbLine
 10
9323.130031983648
 20
-1187.777446494446
 30
0.0
 11
9339.130031983648
 21
-1187.777446494446
 31
0.0
  0
LINE
  5
92E6F
330
6C
100
AcDbEntity
  8
Widoczne (ISO)
 62
     2
100
AcDbLine
 10
9339.130031983648
 20
-1187.277446494446
 30
0.0
 11
9339.130031983648
 21
-1187.777446494446
 31
0.0
  0
LINE
  5
92E70
330
6C
100
AcDbEntity
  8
Widoczne (ISO)
 62
     2
100
AcDbLine
 10
9323.130031983648
 20
-1187.277446494446
 30
0.0
 11
9323.130031983648
 21
-1187.777446494446
 31
0.0
  0
ARC
  5
92E71
330
6C
100
AcDbEntity
  8
Widoczne (ISO)
 62
     2
100
AcDbCircle
 10
9331.130031983649
 20
-1178.61077982778
 30
0.0
 40
12.16666666666664
100
AcDbArc
 50
228.8879095608341
 51
311.1120904391651
  0
LINE
  5
92E72
330
6C
100
AcDbEntity
  8
Widoczne (ISO)
 62
     2
100
AcDbLine
 10
9348.630031983649
 20
892.72255350555
 30
0.0
 11
9348.630031983649
 21
908.72255350555
 31
0.0
  0
LINE
  5
92E73
330
6C
100
AcDbEntity
  8
Widoczne (ISO)
 62
     2
100
AcDbLine
 10
9348.130031983648
 20
908.72255350555
 30
0.0
 11
9348.630031983649
 21
908.72255350555
 31
0.0
  0
LINE
  5
92E74
330
6C
100
AcDbEntity
  8
Widoczne (ISO)
 62
     2
100
AcDbLine
 10
9348.130031983648
 20
892.7225535055493
 30
0.0
 11
9348.630031983649
 21
892.7225535055493
 31
0.0
  0
ARC
  5
92E75
330
6C
100
AcDbEntity
  8
Widoczne (ISO)
 62
     2
100
AcDbCircle
 10
9339.463365316982
 20
900.72255350555
 30
0.0
 40
12.16666666666665
100
AcDbArc
 50
318.8879095608328
 51
41.11209043916985
  0
LINE
  5
92E76
330
6C
100
AcDbEntity
  8
Widoczne (ISO)
 62
     2
100
AcDbLine
 10
7268.130031983652
 20
918.2225535055463
 30
0.0
 11
7252.130031983654
 21
918.2225535055474
 31
0.0
  0
LINE
  5
92E77
330
6C
100
AcDbEntity
  8
Widoczne (ISO)
 62
     2
100
AcDbLine
 10
7252.130031983654
 20
917.7225535055477
 30
0.0
 11
7252.130031983654
 21
918.222553505547
 31
0.0
  0
LINE
  5
92E78
330
6C
100
AcDbEntity
  8
Widoczne (ISO)
 62
     2
100
AcDbLine
 10
7268.130031983652
 20
917.7225535055466
 30
0.0
 11
7268.130031983652
 21
918.2225535055462
 31
0.0
  0
ARC
  5
92E79
330
6C
100
AcDbEntity
  8
Widoczne (ISO)
 62
     2
100
AcDbCircle
 10
7260.130031983651
 20
909.0558868388802
 30
0.0
 40
12.16666666666666
100
AcDbArc
 50
48.88790956083201
 51
131.1120904391648
  0
LINE
  5
92E7A
330
6C
100
AcDbEntity
  8
Widoczne (ISO)
 62
     2
100
AcDbLine
 10
7242.630031983647
 20
-1162.277446494459
 30
0.0
 11
7242.630031983647
 21
-1178.277446494459
 31
0.0
  0
LINE
  5
92E7B
330
6C
100
AcDbEntity
  8
Widoczne (ISO)
 62
     2
100
AcDbLine
 10
7243.130031983648
 20
-1178.277446494459
 30
0.0
 11
7242.630031983647
 21
-1178.277446494459
 31
0.0
  0
LINE
  5
92E7C
330
6C
100
AcDbEntity
  8
Widoczne (ISO)
 62
     2
100
AcDbLine
 10
7243.130031983646
 20
-1162.277446494459
 30
0.0
 11
7242.630031983647
 21
-1162.277446494459
 31
0.0
  0
ARC
  5
92E7D
330
6C
100
AcDbEntity
  8
Widoczne (ISO)
 62
     2
100
AcDbCircle
 10
7251.796698650314
 20
-1170.277446494459
 30
0.0
 40
12.16666666666666
100
AcDbArc
 50
138.8879095608338
 51
221.1120904391702
  0
LINE
  5
9EE6D
330
6C
100
AcDbEntity
  8
Widoczne (ISO)
 62
     2
100
AcDbLine
 10
9348.130031983641
 20
-1187.277446494446
 30
0.0
 11
8658.130031983644
 21
-1187.277446494443
 31
0.0
  0
LINE
  5
9EE6E
330
6C
100
AcDbEntity
  8
Widoczne (ISO)
 62
     2
100
AcDbLine
 10
9348.130031983641
 20
-1187.277446494446
 30
0.0
 11
9348.130031983652
 21
227.7225535055535
 31
0.0
  0
LINE
  5
9EE75
330
6C
100
AcDbEntity
  8
Widoczne (ISO)
 62
     2
100
AcDbLine
 10
7243.130031983648
 20
-1187.277446494563
 30
0.0
 11
7243.13003198361
 21
-497.2774464945636
 31
0.0
  0
LINE
  5
9EE76
330
6C
100
AcDbEntity
  8
Widoczne (ISO)
 62
     2
100
AcDbLine
 10
7243.130031983648
 20
-1187.277446494563
 30
0.0
 11
8658.130031983649
 21
-1187.277446494491
 31
0.0
  0
LINE
  5
9EE79
330
6C
100
AcDbEntity
  8
Widoczne (ISO)
 62
     2
100
AcDbLine
 10
9348.130031983648
 20
917.7225535054859
 30
0.0
 11
9348.130031983648
 21
227.7225535054888
 31
0.0
  0
LINE
  5
9EE7A
330
6C
100
AcDbEntity
  8
Widoczne (ISO)
 62
     2
100
AcDbLine
 10
9348.130031983648
 20
917.7225535054859
 30
0.0
 11
7933.130031983651
 21
917.7225535054956
 31
0.0
  0
LINE
  5
9EE81
330
6C
100
AcDbEntity
  8
Widoczne (ISO)
 62
     2
100
AcDbLine
 10
7243.130031983763
 20
917.7225535055482
 30
0.0
 11
7933.130031983765
 21
917.7225535055097
 31
0.0
  0
LINE
  5
9EE82
330
6C
100
AcDbEntity
  8
Widoczne (ISO)
 62
     2
100
AcDbLine
 10
7243.130031983763
 20
917.7225535055482
 30
0.0
 11
7243.130031983679
 21
-497.2774464944516
 31
0.0
  0
LINE
  5
9F247
330
6C
100
AcDbEntity
  8
Widoczne (ISO)
 62
     2
100
AcDbLine
 10
7533.130031983748
 20
627.7225535055322
 30
0.0
 11
9058.130031983642
 21
627.7225535055322
 31
0.0
  0
LINE
  5
9F248
330
6C
100
AcDbEntity
  8
Widoczne (ISO)
 62
     2
100
AcDbLine
 10
9058.130031983642
 20
-897.2774464944452
 30
0.0
 11
9058.130031983642
 21
627.7225535055322
 31
0.0
  0
LINE
  5
9F249
330
6C
100
AcDbEntity
  8
Widoczne (ISO)
 62
     2
100
AcDbLine
 10
9058.130031983642
 20
-897.2774464944452
 30
0.0
 11
7533.130031983748
 21
-897.2774464944452
 31
0.0
  0
LINE
  5
9F24A
330
6C
100
AcDbEntity
  8
Widoczne (ISO)
 62
     2
100
AcDbLine
 10
7533.130031983748
 20
627.7225535055322
 30
0.0
 11
7533.130031983748
 21
-897.277446494445
 31
0.0
  0
LINE
  5
9F24D
330
6C
100
AcDbEntity
  8
0
  6
ACISOTGB
 62
     6
 48
25.0
100
AcDbLine
 10
7533.130031983748
 20
2627.722553505532
 30
0.0
 11
9058.130031983642
 21
2627.722553505532
 31
0.0
  0
LINE
  5
9F24E
330
6C
100
AcDbEntity
  8
0
  6
ACISOTGB
 62
     6
 48
25.0
100
AcDbLine
 10
11058.13003198364
 20
-897.2774464944448
 30
0.0
 11
11058.13003198364
 21
627.7225535055317
 31
0.0
  0
LINE
  5
9F24F
330
6C
100
AcDbEntity
  8
0
  6
ACISOTGB
 62
     6
 48
25.0
100
AcDbLine
 10
5533.130031983747
 20
627.7225535055321
 30
0.0
 11
5533.130031983747
 21
-897.2774464944455
 31
0.0
  0
LINE
  5
9F250
330
6C
100
AcDbEntity
  8
0
  6
ACISOTGB
 62
     6
 48
25.0
100
AcDbLine
 10
9058.130031983642
 20
-2897.277446494445
 30
0.0
 11
7533.130031983748
 21
-2897.277446494445
 31
0.0
  0
ARC
  5
9F257
330
6C
100
AcDbEntity
  8
0
  6
ACISOTGB
 62
     6
 48
25.0
100
AcDbCircle
 10
9058.130031983642
 20
627.7225535055317
 30
0.0
 40
2000.0
100
AcDbArc
 50
0.0
 51
90.0
1001
GENIUS_GENODEF_13
1002
{
1000
HIER
1070
     0
1002
}
1002
{
1000
MANEDIT
1070
     0
1002
}
1002
{
1000
NOSEL
1070
     0
1002
}
1002
{
1000
BEHIND
1070
     0
1002
}
1002
{
1000
OTHER
1070
     0
1002
}
1002
{
1000
REACTOR
1002
}
1001
GENIUS_GENOBJ-N-FIL_13
1002
{
1000
OWNER
1000
GEN
1002
}
  0
ARC
  5
9F258
330
6C
100
AcDbEntity
  8
0
  6
ACISOTGB
 62
     6
 48
25.0
100
AcDbCircle
 10
7533.130031983748
 20
627.7225535055326
 30
0.0
 40
2000.0
100
AcDbArc
 50
90.0
 51
180.0
1001
GENIUS_GENODEF_13
1002
{
1000
HIER
1070
     0
1002
}
1002
{
1000
MANEDIT
1070
     0
1002
}
1002
{
1000
NOSEL
1070
     0
1002
}
1002
{
1000
BEHIND
1070
     0
1002
}
1002
{
1000
OTHER
1070
     0
1002
}
1002
{
1000
REACTOR
1002
}
1001
GENIUS_GENOBJ-N-FIL_13
1002
{
1000
OWNER
1000
GEN
1002
}
  0
ARC
  5
9F259
330
6C
100
AcDbEntity
  8
0
  6
ACISOTGB
 62
     6
 48
25.0
100
AcDbCircle
 10
7533.130031983748
 20
-897.2774464944446
 30
0.0
 40
2000.0
100
AcDbArc
 50
180.0
 51
270.0
1001
GENIUS_GENODEF_13
1002
{
1000
HIER
1070
     0
1002
}
1002
{
1000
MANEDIT
1070
     0
1002
}
1002
{
1000
NOSEL
1070
     0
1002
}
1002
{
1000
BEHIND
1070
     0
1002
}
1002
{
1000
OTHER
1070
     0
1002
}
1002
{
1000
REACTOR
1002
}
1001
GENIUS_GENOBJ-N-FIL_13
1002
{
1000
OWNER
1000
GEN
1002
}
  0
ARC
  5
9F25A
330
6C
100
AcDbEntity
  8
0
  6
ACISOTGB
 62
     6
 48
25.0
100
AcDbCircle
 10
9058.130031983642
 20
-897.2774464944448
 30
0.0
 40
2000.0
100
AcDbArc
 50
270.0
 51
0.0
1001
GENIUS_GENODEF_13
1002
{
1000
HIER
1070
     0
1002
}
1002
{
1000
MANEDIT
1070
     0
1002
}
1002
{
1000
NOSEL
1070
     0
1002
}
1002
{
1000
BEHIND
1070
     0
1002
}
1002
{
1000
OTHER
1070
     0
1002
}
1002
{
1000
REACTOR
1002
}
1001
GENIUS_GENOBJ-N-FIL_13
1002
{
1000
OWNER
1000
GEN
1002
}
  0
INSERT
  5
A0145
330
6C
100
AcDbEntity
  8
AM_0
100
AcDbBlockReference
  2
qweqweee
 10
-7864.279346776924
 20
1727.341443048598
 30
0.0
  0
ENDSEC
  0
SECTION
  2
OBJECTS
  0
DICTIONARY
  5
C
330
0
100
AcDbDictionary
281
     1
  3
ACAD_2007HEADERVARS_RT
350
A0161
  3
ACAD_COLOR
350
63
  3
ACAD_GROUP
350
D
  3
ACAD_LAYOUT
350
62
  3
ACAD_MATERIAL
350
10
  3
ACAD_MLEADERSTYLE
350
66
  3
ACAD_MLINESTYLE
350
5F
  3
ACAD_PLOTSETTINGS
350
61
  3
ACAD_PLOTSTYLENAME
350
E
  3
ACAD_SCALELIST
350
42
  3
ACAD_TABLESTYLE
350
64
  3
ACAD_VISUALSTYLE
350
29
  3
ACDB_RECOMPOSE_DATA
350
A015F
  3
AcDbVariableDictionary
350
866DA
  3
AcmDictionary
350
86734
  3
AMG
350
866E6
  3
AMGSNAPSETTINGS
350
86775
  3
DWGPROPS
350
A0160
  0
DICTIONARY
  5
8686F
330
2
100
AcDbDictionary
280
     1
281
     1
  3
ACAD_LAYERSTATES
360
86870
  3
AMLAYER_GROUPCOLORS
360
9F24C
  0
DICTIONARY
  5
8680A
330
6C
100
AcDbDictionary
280
     1
281
     1
  3
ACAD_SORTENTS
360
8680B
  0
DICTIONARY
  5
9F264
330
9F263
100
AcDbDictionary
280
     1
281
     1
  3
ACAD_SORTENTS
360
9F265
  0
DICTIONARY
  5
A0161
102
{ACAD_REACTORS
330
C
102
}
330
C
100
AcDbDictionary
281
     1
  3
DIMARCSYM
350
A0162
  3
DIMLTEX1
350
A0164
  3
DIMLTEX2
350
A0165
  3
DIMLTYPE
350
A0163
  0
DICTIONARY
  5
63
102
{ACAD_REACTORS
330
C
102
}
330
C
100
AcDbDictionary
281
     1
  0
DICTIONARY
  5
D
102
{ACAD_REACTORS
330
C
102
}
330
C
100
AcDbDictionary
281
     1
  0
DICTIONARY
  5
62
102
{ACAD_REACTORS
330
C
102
}
330
C
100
AcDbDictionary
281
     1
  3
Layout1
350
6B
  3
Layout2
350
73
  3
Model
350
6F
  0
DICTIONARY
  5
10
102
{ACAD_REACTORS
330
C
102
}
330
C
100
AcDbDictionary
281
     1
  3
ByBlock
350
19
  3
ByLayer
350
11
  3
Global
350
21
  0
DICTIONARY
  5
66
102
{ACAD_REACTORS
330
C
102
}
330
C
100
AcDbDictionary
281
     1
  3
Standard
350
67
  0
DICTIONARY
  5
5F
102
{ACAD_REACTORS
330
C
102
}
330
C
100
AcDbDictionary
281
     1
  3
Standard
350
60
  0
DICTIONARY
  5
61
102
{ACAD_REACTORS
330
C
102
}
330
C
100
AcDbDictionary
281
     1
  0
ACDBDICTIONARYWDFLT
  5
E
102
{ACAD_REACTORS
330
C
102
}
330
C
100
AcDbDictionary
281
     1
  3
Normal
350
F
100
AcDbDictionaryWithDefault
340
F
  0
DICTIONARY
  5
42
102
{ACAD_REACTORS
330
C
102
}
330
C
100
AcDbDictionary
281
     1
  3
A0
350
43
  3
A1
350
44
  3
A2
350
45
  3
A3
350
46
  3
A4
350
47
  3
A5
350
48
  3
A6
350
49
  3
A7
350
4A
  3
A8
350
4B
  3
A9
350
4C
  3
B0
350
4D
  3
B1
350
4E
  3
B2
350
4F
  3
B3
350
50
  3
B4
350
51
  3
B5
350
52
  3
B6
350
53
  0
DICTIONARY
  5
64
102
{ACAD_REACTORS
330
C
102
}
330
C
100
AcDbDictionary
281
     1
  3
Standard
350
65
  0
DICTIONARY
  5
29
102
{ACAD_REACTORS
330
C
102
}
330
C
100
AcDbDictionary
281
     1
  3
2dWireframe
350
2F
  3
Basic
350
2E
  3
Brighten
350
35
  3
ColorChange
350
39
  3
Conceptual
350
32
  3
Dim
350
34
  3
EdgeColorOff
350
41
  3
Facepattern
350
38
  3
Flat
350
2A
  3
FlatWithEdges
350
2B
  3
Gouraud
350
2C
  3
GouraudWithEdges
350
2D
  3
Hidden
350
31
  3
JitterOff
350
3F
  3
Linepattern
350
37
  3
OverhangOff
350
40
  3
Realistic
350
33
  3
Shaded
350
3E
  3
Shaded with edges
350
3D
  3
Shades of Gray
350
3A
  3
Sketchy
350
3B
  3
Thicken
350
36
  3
Wireframe
350
30
  3
X-Ray
350
3C
  0
XRECORD
  5
A015F
102
{ACAD_REACTORS
330
C
102
}
330
C
100
AcDbXrecord
280
     1
 90
        1
330
65
  0
DICTIONARY
  5
866DA
102
{ACAD_REACTORS
330
C
102
}
330
C
100
AcDbDictionary
281
     1
  3
CANNOSCALE
350
866DD
  3
CMLEADERSTYLE
350
866DC
  3
CTABLESTYLE
350
866DB
  3
DIMASSOC
350
9EF0A
  3
HIDETEXT
350
9EF09
  3
INDEXCTL
350
9EF08
  3
LAYEREVAL
350
9EF05
  3
LAYERNOTIFY
350
9EF06
  3
LIGHTINGUNITS
350
9EF04
  3
MSLTSCALE
350
9EF03
  3
SORTENTS
350
9EF07
  3
XCLIPFRAME
350
A015D
  0
DICTIONARY
  5
86734
102
{ACAD_REACTORS
330
C
102
}
330
C
100
AcDbDictionary
281
     1
  3
AcmStdDictionary
350
8673F
  0
DICTIONARY
  5
866E6
102
{ACAD_REACTORS
330
C
102
}
330
C
100
AcDbDictionary
281
     1
  0
DICTIONARY
  5
86775
102
{ACAD_REACTORS
330
C
102
}
330
C
100
AcDbDictionary
281
     1
  0
XRECORD
  5
A0160
102
{ACAD_REACTORS
330
C
102
}
330
C
100
AcDbXrecord
280
     1
  1
DWGPROPS COOKIE
  2

  3

  4
Daniel Mazur
  6

  7

  8
Jumpo
  9

300
Menadżer=
301
Firma=
302
Kategoria=
303
Numer części=
304
Opis=
305
Projekt=
306
Projektant=Daniel Mazur
307
Inżynier=
308
Zatwierdził=
309
Centrum kosztów=
 40
0.0630305208333334
 41
2458022.872485197
 42
2458667.565857465
  1

 90
       16
300
Dostawca=
300
Stan użytkownika=
300
Stan projektu=PracaWToku
300
Sprawdził=
300
Zatwierdził konstrukcję=
300
Zatwierdził do produkcji=
  0
DICTIONARY
  5
86870
102
{ACAD_REACTORS
330
8686F
102
}
330
8686F
100
AcDbDictionary
281
     1
  0
DICTIONARY
  5
9F24C
102
{ACAD_REACTORS
330
8686F
102
}
330
8686F
100
AcDbDictionary
280
     1
281
     1
  0
SORTENTSTABLE
  5
8680B
102
{ACAD_REACTORS
330
8680A
102
}
330
8680A
100
AcDbSortentsTable
330
6C
331
92DED
  5
92DED
331
92DCE
  5
92DCE
331
92DAF
  5
92DAF
331
92E0C
  5
92E0C
331
92E4E
  5
92E4E
331
92E2F
  5
92E2F
331
92E6D
  5
92E6D
331
92E1B
  5
92E1B
331
92DDD
  5
92DDD
331
92DBE
  5
92DBE
331
92DFC
  5
92DFC
331
92E7C
  5
92E7C
331
92E5D
  5
92E5D
331
92E3E
  5
92E3E
331
92DEC
  5
92DEC
331
92DCD
  5
92DCD
331
92DAE
  5
92DAE
331
92E0B
  5
92E0B
331
92E4D
  5
92E4D
331
92E2E
  5
92E2E
331
92E6C
  5
92E6C
331
92E1A
  5
92E1A
331
92DDC
  5
92DDC
331
92DBD
  5
92DBD
331
92DFB
  5
92DFB
331
92E7B
  5
92E7B
331
92E5C
  5
92E5C
331
92E3D
  5
92E3D
331
92E0A
  5
92E0A
331
92DEB
  5
92DEB
331
92DCC
  5
92DCC
331
92DAD
  5
92DAD
331
92E4C
  5
92E4C
331
92E2D
  5
92E2D
331
92E6B
  5
92E6B
331
92E19
  5
92E19
331
92DDB
  5
92DDB
331
92DBC
  5
92DBC
331
92DFA
  5
92DFA
331
92E7A
  5
92E7A
331
92E5B
  5
92E5B
331
92E3C
  5
92E3C
331
92E09
  5
92E09
331
92DEA
  5
92DEA
331
92DAC
  5
92DAC
331
92DCB
  5
92DCB
331
92E6A
  5
92E6A
331
92E4B
  5
92E4B
331
92E2C
  5
92E2C
331
92E18
  5
92E18
331
92DDA
  5
92DDA
331
92DBB
  5
92DBB
331
92DF9
  5
92DF9
331
92E79
  5
92E79
331
92E5A
  5
92E5A
331
92E3B
  5
92E3B
331
92E08
  5
92E08
331
92DE9
  5
92DE9
331
92DAB
  5
92DAB
331
92DCA
  5
92DCA
331
92E69
  5
92E69
331
92E4A
  5
92E4A
331
92E2B
  5
92E2B
331
92DD9
  5
92DD9
331
92DBA
  5
92DBA
331
92DF8
  5
92DF8
331
92E78
  5
92E78
331
92E59
  5
92E59
331
92E3A
  5
92E3A
331
92DE8
  5
92DE8
331
92DAA
  5
92DAA
331
92DC9
  5
92DC9
331
9F250
  5
9F250
331
92E68
  5
92E68
331
92E49
  5
92E49
331
92E2A
  5
92E2A
331
92DD8
  5
92DD8
331
92DB9
  5
92DB9
331
92E77
  5
92E77
331
92E58
  5
92E58
331
92E39
  5
92E39
331
92DA9
  5
92DA9
331
92DC8
  5
92DC8
331
92E67
  5
92E67
331
92E48
  5
92E48
331
92E29
  5
92E29
331
9EE6E
  5
9EE6E
331
92DB8
  5
92DB8
331
92E76
  5
92E76
331
92E57
  5
92E57
331
92E38
  5
92E38
331
92DA8
  5
92DA8
331
9EE6D
  5
9EE6D
331
92E66
  5
92E66
331
92E47
  5
92E47
331
92E28
  5
92E28
331
92E75
  5
92E75
331
92E37
  5
92E37
331
92E56
  5
92E56
331
92E65
  5
92E65
331
92E27
  5
92E27
331
92E46
  5
92E46
331
92E74
  5
92E74
331
92E36
  5
92E36
331
92E55
  5
92E55
331
92D9F
  5
92D9F
331
92E64
  5
92E64
331
9EE82
  5
9F035
331
92E26
  5
92E26
331
92E45
  5
92E45
331
92D8F
  5
92D8F
331
9EE7A
  5
9EE84
331
92E73
  5
92E73
331
92E35
  5
92E35
331
92E54
  5
92E54
331
92D7F
  5
92D7F
331
92D9E
  5
92D9E
331
92E63
  5
92E63
331
9EE81
  5
9EEA0
331
92E25
  5
92E25
331
92E44
  5
92E44
331
92D8E
  5
92D8E
331
92D6F
  5
92D6F
331
9EE79
  5
9EE83
331
92E72
  5
92E72
331
92E34
  5
92E34
331
92E53
  5
92E53
331
92D7E
  5
92D7E
331
92D9D
  5
92D9D
331
92E62
  5
92E62
331
92E24
  5
92E24
331
92E43
  5
92E43
331
92D8D
  5
92D8D
331
92D6E
  5
92D6E
331
92E71
  5
92E71
331
92E33
  5
92E33
331
92E52
  5
92E52
331
92D7D
  5
92D7D
331
92D9C
  5
92D9C
331
92E61
  5
92E61
331
92E23
  5
92E23
331
92E42
  5
92E42
331
92D8C
  5
92D8C
331
92D6D
  5
92D6D
331
92E70
  5
92E70
331
92E32
  5
92E32
331
92E51
  5
92E51
331
92D7C
  5
92D7C
331
92D9B
  5
92D9B
331
92E60
  5
92E60
331
92E22
  5
92E22
331
92E41
  5
92E41
331
92D8B
  5
92D8B
331
92D6C
  5
92D6C
331
92E31
  5
92E31
331
92E50
  5
92E50
331
92D7B
  5
92D7B
331
92D9A
  5
92D9A
331
92E21
  5
92E21
331
92E40
  5
92E40
331
92D8A
  5
92D8A
331
92D6B
  5
92D6B
331
92E30
  5
92E30
331
92D7A
  5
92D7A
331
92D99
  5
92D99
331
92E20
  5
92E20
331
92D89
  5
92D89
331
92D6A
  5
92D6A
331
92D79
  5
92D79
331
92D98
  5
92D98
331
92DA7
  5
92DA7
331
92D88
  5
92D88
331
92D69
  5
92D69
331
92D78
  5
92D78
331
92D97
  5
92D97
331
92DA6
  5
92DA6
331
92D87
  5
92D87
331
92D68
  5
92D68
331
92D77
  5
92D77
331
92D96
  5
92D96
331
92DA5
  5
92DA5
331
92D86
  5
92D86
331
92D67
  5
92D67
331
92D76
  5
92D76
331
92D95
  5
92D95
331
92DA4
  5
92DA4
331
92D85
  5
92D85
331
92D66
  5
92D66
331
92D75
  5
92D75
331
92D94
  5
92D94
331
92DA3
  5
92DA3
331
92D84
  5
92D84
331
92D65
  5
92D65
331
92D74
  5
92D74
331
92E17
  5
92E17
331
92D93
  5
92D93
331
92DA2
  5
92DA2
331
92D83
  5
92D83
331
92E07
  5
92E07
331
92D64
  5
92D64
331
92D73
  5
92D73
331
92DF7
  5
92DF7
331
92E16
  5
92E16
331
92D92
  5
92D92
331
92DA1
  5
92DA1
331
92D82
  5
92D82
331
92E06
  5
92E06
331
92DE7
  5
92DE7
331
92D63
  5
92D63
331
9F24F
  5
9F259
331
92D72
  5
92D72
331
92DF6
  5
92DF6
331
92DD7
  5
92DD7
331
92E15
  5
92E15
331
92D91
  5
92D91
331
92DA0
  5
92DA0
331
92D81
  5
92D81
331
92E05
  5
92E05
331
92DC7
  5
92DC7
331
92DE6
  5
92DE6
331
92D62
  5
92D62
331
9F24E
  5
9F24A
331
92D71
  5
92D71
331
92DF5
  5
92DF5
331
92DB7
  5
92DB7
331
92DD6
  5
92DD6
331
92E14
  5
92E14
331
92D90
  5
92D90
331
92E04
  5
92E04
331
92D80
  5
92D80
331
92DC6
  5
92DC6
331
92DE5
  5
92DE5
331
9F24D
  5
9F248
331
92D70
  5
92D70
331
92DF4
  5
92DF4
331
92DB6
  5
92DB6
331
92DD5
  5
92DD5
331
92E13
  5
92E13
331
92E03
  5
92E03
331
92DC5
  5
92DC5
331
92DE4
  5
92DE4
331
92DF3
  5
92DF3
331
92DB5
  5
92DB5
331
92DD4
  5
92DD4
331
92E12
  5
92E12
331
92E02
  5
92E02
331
92DC4
  5
92DC4
331
92DE3
  5
92DE3
331
92DF2
  5
92DF2
331
92DB4
  5
92DB4
331
92DD3
  5
92DD3
331
92E11
  5
92E11
331
9F25A
  5
9F24D
331
92E01
  5
92E01
331
92DC3
  5
92DC3
331
92DE2
  5
92DE2
331
9F24A
  5
9F258
331
92DF1
  5
92DF1
331
92DB3
  5
92DB3
331
92DD2
  5
92DD2
331
92E10
  5
92E10
331
9F259
  5
9F257
331
92E1F
  5
92E1F
331
92E00
  5
92E00
331
92DC2
  5
92DC2
331
92DE1
  5
92DE1
331
9F249
  5
9F24F
331
92DF0
  5
92DF0
331
92DB2
  5
92DB2
331
92DD1
  5
92DD1
331
92E0F
  5
92E0F
331
9F258
  5
9F25A
331
92E1E
  5
92E1E
331
92DFF
  5
92DFF
331
92DC1
  5
92DC1
331
92DE0
  5
92DE0
331
9F248
  5
9F249
331
92DEF
  5
92DEF
331
92DB1
  5
92DB1
331
92DD0
  5
92DD0
331
92E0E
  5
92E0E
331
9F257
  5
9F24E
331
9EE76
  5
9EE7A
331
92E6F
  5
92E6F
331
92E1D
  5
92E1D
331
92DDF
  5
92DDF
331
92DFE
  5
92DFE
331
92DC0
  5
92DC0
331
9F247
  5
9F247
331
92E5F
  5
92E5F
331
92DEE
  5
92DEE
331
92DB0
  5
92DB0
331
92DCF
  5
92DCF
331
92E0D
  5
92E0D
331
9EE75
  5
9EE79
331
92E4F
  5
92E4F
331
92E6E
  5
92E6E
331
92E1C
  5
92E1C
331
92DDE
  5
92DDE
331
92DBF
  5
92DBF
331
92DFD
  5
92DFD
331
92E7D
  5
92E7D
331
92E5E
  5
92E5E
331
92E3F
  5
92E3F
  0
SORTENTSTABLE
  5
9F265
102
{ACAD_REACTORS
330
9F264
102
}
330
9F264
100
AcDbSortentsTable
330
9F263
  0
XRECORD
  5
A0162
102
{ACAD_REACTORS
330
A0161
102
}
330
A0161
100
AcDbXrecord
280
     1
 70
     1
  0
XRECORD
  5
A0164
102
{ACAD_REACTORS
330
A0161
102
}
330
A0161
100
AcDbXrecord
280
     1
340
5B
  0
XRECORD
  5
A0165
102
{ACAD_REACTORS
330
A0161
102
}
330
A0161
100
AcDbXrecord
280
     1
340
5B
  0
XRECORD
  5
A0163
102
{ACAD_REACTORS
330
A0161
102
}
330
A0161
100
AcDbXrecord
280
     1
340
5B
  0
LAYOUT
  5
6B
102
{ACAD_XDICTIONARY
360
A0197
102
}
102
{ACAD_REACTORS
330
62
102
}
330
62
100
AcDbPlotSettings
  1

  2

  4

  6

 40
0.0
 41
0.0
 42
0.0
 43
0.0
 44
0.0
 45
0.0
 46
0.0
 47
0.0
 48
0.0
 49
0.0
140
0.0
141
0.0
142
1.0
143
1.0
 70
   688
 72
     0
 73
     0
 74
     5
  7

 75
    16
147
1.0
148
0.0
149
0.0
100
AcDbLayout
  1
Layout1
 70
     1
 71
     1
 10
0.0
 20
0.0
 11
420.0
 21
297.0
 12
0.0
 22
0.0
 32
0.0
 14
0.0
 24
0.0
 34
0.0
 15
420.0
 25
297.0
 35
0.0
146
0.0
 13
0.0
 23
0.0
 33
0.0
 16
1.0
 26
0.0
 36
0.0
 17
0.0
 27
1.0
 37
0.0
 76
     0
330
68
  0
LAYOUT
  5
73
102
{ACAD_XDICTIONARY
360
A019A
102
}
102
{ACAD_REACTORS
330
62
102
}
330
62
100
AcDbPlotSettings
  1

  2

  4

  6

 40
0.0
 41
0.0
 42
0.0
 43
0.0
 44
0.0
 45
0.0
 46
0.0
 47
0.0
 48
0.0
 49
0.0
140
0.0
141
0.0
142
1.0
143
1.0
 70
   688
 72
     0
 73
     0
 74
     5
  7

 75
    16
147
1.0
148
0.0
149
0.0
100
AcDbLayout
  1
Layout2
 70
     1
 71
     2
 10
0.0
 20
0.0
 11
12.0
 21
9.0
 12
0.0
 22
0.0
 32
0.0
 14
0.0
 24
0.0
 34
0.0
 15
0.0
 25
0.0
 35
0.0
146
0.0
 13
0.0
 23
0.0
 33
0.0
 16
1.0
 26
0.0
 36
0.0
 17
0.0
 27
1.0
 37
0.0
 76
     0
330
70
  0
LAYOUT
  5
6F
102
{ACAD_XDICTIONARY
360
86875
102
}
102
{ACAD_REACTORS
330
62
102
}
330
62
100
AcDbPlotSettings
  1

  2

  4

  6

 40
0.0
 41
0.0
 42
0.0
 43
0.0
 44
0.0
 45
0.0
 46
0.0
 47
0.0
 48
0.0
 49
0.0
140
0.0
141
0.0
142
1.0
143
1.0
 70
  1712
 72
     0
 73
     0
 74
     0
  7

 75
     0
147
1.0
148
0.0
149
0.0
100
AcDbLayout
  1
Model
 70
     1
 71
     0
 10
0.0
 20
0.0
 11
12.0
 21
9.0
 12
0.0
 22
0.0
 32
0.0
 14
0.0
 24
0.0
 34
0.0
 15
0.0
 25
0.0
 35
0.0
146
0.0
 13
0.0
 23
0.0
 33
0.0
 16
1.0
 26
0.0
 36
0.0
 17
0.0
 27
1.0
 37
0.0
 76
     0
330
6C
331
57
  0
MATERIAL
  5
19
102
{ACAD_XDICTIONARY
360
1A
102
}
102
{ACAD_REACTORS
330
10
102
}
330
10
100
AcDbMaterial
  1
ByBlock
 72
     0
 43
0.0208333333333333
 43
0.0
 43
0.0
 43
0.0
 43
0.0
 43
0.0208333333333333
 43
0.0
 43
0.0
 43
0.0
 43
0.0
 43
1.0
 43
0.0
 43
0.0
 43
0.0
 43
0.0
 43
1.0
 77
     0
 47
0.0208333333333333
 47
0.0
 47
0.0
 47
0.0
 47
0.0
 47
0.0208333333333333
 47
0.0
 47
0.0
 47
0.0
 47
0.0
 47
1.0
 47
0.0
 47
0.0
 47
0.0
 47
0.0
 47
1.0
171
     0
 49
0.0208333333333333
 49
0.0
 49
0.0
 49
0.0
 49
0.0
 49
0.0208333333333333
 49
0.0
 49
0.0
 49
0.0
 49
0.0
 49
1.0
 49
0.0
 49
0.0
 49
0.0
 49
0.0
 49
1.0
175
     0
142
0.0208333333333333
142
0.0
142
0.0
142
0.0
142
0.0
142
0.0208333333333333
142
0.0
142
0.0
142
0.0
142
0.0
142
1.0
142
0.0
142
0.0
142
0.0
142
0.0
142
1.0
179
     0
144
0.0208333333333333
144
0.0
144
0.0
144
0.0
144
0.0
144
0.0208333333333333
144
0.0
144
0.0
144
0.0
144
0.0
144
1.0
144
0.0
144
0.0
144
0.0
144
0.0
144
1.0
147
0.0208333333333333
147
0.0
147
0.0
147
0.0
147
0.0
147
0.0208333333333333
147
0.0
147
0.0
147
0.0
147
0.0
147
1.0
147
0.0
147
0.0
147
0.0
147
0.0
147
1.0
  0
MATERIAL
  5
11
102
{ACAD_XDICTIONARY
360
12
102
}
102
{ACAD_REACTORS
330
10
102
}
330
10
100
AcDbMaterial
  1
ByLayer
 72
     0
 43
0.0208333333333333
 43
0.0
 43
0.0
 43
0.0
 43
0.0
 43
0.0208333333333333
 43
0.0
 43
0.0
 43
0.0
 43
0.0
 43
1.0
 43
0.0
 43
0.0
 43
0.0
 43
0.0
 43
1.0
 77
     0
 47
0.0208333333333333
 47
0.0
 47
0.0
 47
0.0
 47
0.0
 47
0.0208333333333333
 47
0.0
 47
0.0
 47
0.0
 47
0.0
 47
1.0
 47
0.0
 47
0.0
 47
0.0
 47
0.0
 47
1.0
171
     0
 49
0.0208333333333333
 49
0.0
 49
0.0
 49
0.0
 49
0.0
 49
0.0208333333333333
 49
0.0
 49
0.0
 49
0.0
 49
0.0
 49
1.0
 49
0.0
 49
0.0
 49
0.0
 49
0.0
 49
1.0
175
     0
142
0.0208333333333333
142
0.0
142
0.0
142
0.0
142
0.0
142
0.0208333333333333
142
0.0
142
0.0
142
0.0
142
0.0
142
1.0
142
0.0
142
0.0
142
0.0
142
0.0
142
1.0
179
     0
144
0.0208333333333333
144
0.0
144
0.0
144
0.0
144
0.0
144
0.0208333333333333
144
0.0
144
0.0
144
0.0
144
0.0
144
1.0
144
0.0
144
0.0
144
0.0
144
0.0
144
1.0
147
0.0208333333333333
147
0.0
147
0.0
147
0.0
147
0.0
147
0.0208333333333333
147
0.0
147
0.0
147
0.0
147
0.0
147
1.0
147
0.0
147
0.0
147
0.0
147
0.0
147
1.0
  0
MATERIAL
  5
21
102
{ACAD_XDICTIONARY
360
22
102
}
102
{ACAD_REACTORS
330
10
102
}
330
10
100
AcDbMaterial
  1
Global
 72
     0
 43
0.0208333333333333
 43
0.0
 43
0.0
 43
0.0
 43
0.0
 43
0.0208333333333333
 43
0.0
 43
0.0
 43
0.0
 43
0.0
 43
1.0
 43
0.0
 43
0.0
 43
0.0
 43
0.0
 43
1.0
 77
     0
 47
0.0208333333333333
 47
0.0
 47
0.0
 47
0.0
 47
0.0
 47
0.0208333333333333
 47
0.0
 47
0.0
 47
0.0
 47
0.0
 47
1.0
 47
0.0
 47
0.0
 47
0.0
 47
0.0
 47
1.0
171
     0
 49
0.0208333333333333
 49
0.0
 49
0.0
 49
0.0
 49
0.0
 49
0.0208333333333333
 49
0.0
 49
0.0
 49
0.0
 49
0.0
 49
1.0
 49
0.0
 49
0.0
 49
0.0
 49
0.0
 49
1.0
175
     0
142
0.0208333333333333
142
0.0
142
0.0
142
0.0
142
0.0
142
0.0208333333333333
142
0.0
142
0.0
142
0.0
142
0.0
142
1.0
142
0.0
142
0.0
142
0.0
142
0.0
142
1.0
179
     0
144
0.0208333333333333
144
0.0
144
0.0
144
0.0
144
0.0
144
0.0208333333333333
144
0.0
144
0.0
144
0.0
144
0.0
144
1.0
144
0.0
144
0.0
144
0.0
144
0.0
144
1.0
147
0.0208333333333333
147
0.0
147
0.0
147
0.0
147
0.0
147
0.0208333333333333
147
0.0
147
0.0
147
0.0
147
0.0
147
1.0
147
0.0
147
0.0
147
0.0
147
0.0
147
1.0
  0
MLEADERSTYLE
  5
67
102
{ACAD_REACTORS
330
66
102
}
330
66
100
AcDbMLeaderStyle
170
     2
171
     1
172
     0
 90
        2
 40
0.0
 41
0.0
173
     1
 91
-1056964608
340
5B
 92
       -2
290
     1
 42
0.09
291
     1
 43
0.36
  3
Standard
 44
0.18
300

342
55
174
     1
178
     6
175
     1
176
     0
 93
-1056964608
 45
0.18
292
     0
297
     0
 46
0.18
 94
-1056964608
 47
1.0
 49
1.0
140
1.0
293
     1
141
0.0
294
     1
177
     0
142
1.0
295
     0
296
     0
143
0.125
1001
ACAD_MLEADERVER
1070
     2
  0
MLINESTYLE
  5
60
102
{ACAD_REACTORS
330
5F
102
}
330
5F
100
AcDbMlineStyle
  2
STANDARD
 70
     0
  3

 62
   256
 51
90.0
 52
90.0
 71
     2
 49
0.5
 62
   256
  6
BYLAYER
 49
-0.5
 62
   256
  6
BYLAYER
  0
ACDBPLACEHOLDER
  5
F
102
{ACAD_REACTORS
330
E
102
}
330
E
  0
SCALE
  5
43
102
{ACAD_REACTORS
330
42
102
}
330
42
100
AcDbScale
 70
     0
300
1:1
140
1.0
141
1.0
290
     1
  0
SCALE
  5
44
102
{ACAD_REACTORS
330
42
102
}
330
42
100
AcDbScale
 70
     0
300
1/128" = 1'-0"
140
0.0078125
141
12.0
290
     0
  0
SCALE
  5
45
102
{ACAD_REACTORS
330
42
102
}
330
42
100
AcDbScale
 70
     0
300
1/64" = 1'-0"
140
0.015625
141
12.0
290
     0
  0
SCALE
  5
46
102
{ACAD_REACTORS
330
42
102
}
330
42
100
AcDbScale
 70
     0
300
1/32" = 1'-0"
140
0.03125
141
12.0
290
     0
  0
SCALE
  5
47
102
{ACAD_REACTORS
330
42
102
}
330
42
100
AcDbScale
 70
     0
300
1/16" = 1'-0"
140
0.0625
141
12.0
290
     0
  0
SCALE
  5
48
102
{ACAD_REACTORS
330
42
102
}
330
42
100
AcDbScale
 70
     0
300
3/32" = 1'-0"
140
0.09375
141
12.0
290
     0
  0
SCALE
  5
49
102
{ACAD_REACTORS
330
42
102
}
330
42
100
AcDbScale
 70
     0
300
1/8" = 1'-0"
140
0.125
141
12.0
290
     0
  0
SCALE
  5
4A
102
{ACAD_REACTORS
330
42
102
}
330
42
100
AcDbScale
 70
     0
300
3/16" = 1'-0"
140
0.1875
141
12.0
290
     0
  0
SCALE
  5
4B
102
{ACAD_REACTORS
330
42
102
}
330
42
100
AcDbScale
 70
     0
300
1/4" = 1'-0"
140
0.25
141
12.0
290
     0
  0
SCALE
  5
4C
102
{ACAD_REACTORS
330
42
102
}
330
42
100
AcDbScale
 70
     0
300
3/8" = 1'-0"
140
0.375
141
12.0
290
     0
  0
SCALE
  5
4D
102
{ACAD_REACTORS
330
42
102
}
330
42
100
AcDbScale
 70
     0
300
1/2" = 1'-0"
140
0.5
141
12.0
290
     0
  0
SCALE
  5
4E
102
{ACAD_REACTORS
330
42
102
}
330
42
100
AcDbScale
 70
     0
300
3/4" = 1'-0"
140
0.75
141
12.0
290
     0
  0
SCALE
  5
4F
102
{ACAD_REACTORS
330
42
102
}
330
42
100
AcDbScale
 70
     0
300
1" = 1'-0"
140
1.0
141
12.0
290
     0
  0
SCALE
  5
50
102
{ACAD_REACTORS
330
42
102
}
330
42
100
AcDbScale
 70
     0
300
1-1/2" = 1'-0"
140
1.5
141
12.0
290
     0
  0
SCALE
  5
51
102
{ACAD_REACTORS
330
42
102
}
330
42
100
AcDbScale
 70
     0
300
3" = 1'-0"
140
3.0
141
12.0
290
     0
  0
SCALE
  5
52
102
{ACAD_REACTORS
330
42
102
}
330
42
100
AcDbScale
 70
     0
300
6" = 1'-0"
140
6.0
141
12.0
290
     0
  0
SCALE
  5
53
102
{ACAD_REACTORS
330
42
102
}
330
42
100
AcDbScale
 70
     0
300
1'-0" = 1'-0"
140
12.0
141
12.0
290
     0
  0
TABLESTYLE
  5
65
102
{ACAD_XDICTIONARY
360
9EF0C
102
}
102
{ACAD_REACTORS
330
64
102
}
330
64
100
AcDbTableStyle
  3
Standard
 70
     0
 71
     0
 40
0.06
 41
0.06
280
     0
281
     0
  7
Standard
140
0.18
170
     2
 62
     0
 63
     7
283
     0
274
    -2
284
     1
 64
     0
275
    -2
285
     1
 65
     0
276
    -2
286
     1
 66
     0
277
    -2
287
     1
 67
     0
278
    -2
288
     1
 68
     0
279
    -2
289
     1
 69
     0
  7
Standard
140
0.25
170
     5
 62
     0
 63
     7
283
     0
274
    -2
284
     1
 64
     0
275
    -2
285
     1
 65
     0
276
    -2
286
     1
 66
     0
277
    -2
287
     1
 67
     0
278
    -2
288
     1
 68
     0
279
    -2
289
     1
 69
     0
  7
Standard
140
0.18
170
     5
 62
     0
 63
     7
283
     0
274
    -2
284
     1
 64
     0
275
    -2
285
     1
 65
     0
276
    -2
286
     1
 66
     0
277
    -2
287
     1
 67
     0
278
    -2
288
     1
 68
     0
279
    -2
289
     1
 69
     0
  0
VISUALSTYLE
  5
2F
102
{ACAD_XDICTIONARY
360
A0170
102
}
102
{ACAD_REACTORS
330
29
102
}
330
29
100
AcDbVisualStyle
  2

 70
     4
 71
     0
 72
     2
 73
     0
 90
        0
 40
-0.6
 41
-30.0
 62
     5
 63
     7
 74
     1
 91
        4
 64
     7
 65
   257
 75
     1
175
     1
 42
1.0
 92
        0
 66
   257
 43
1.0
 76
     1
 77
     6
 78
     2
 67
     7
 79
     5
170
     0
171
     0
290
     0
174
     0
 93
        1
 44
0.0
173
     0
291
     0
 45
0.0
1001
ACAD
1000
AcDbSavedByObjectVersion
1070
     0
  0
VISUALSTYLE
  5
2E
102
{ACAD_XDICTIONARY
360
A016E
102
}
102
{ACAD_REACTORS
330
29
102
}
330
29
100
AcDbVisualStyle
  2

 70
     7
 71
     1
 72
     0
 73
     1
 90
        0
 40
-0.6
 41
-30.0
 62
     5
 63
     7
 74
     0
 91
        4
 64
     7
 65
   257
 75
     1
175
     1
 42
1.0
 92
        8
 66
     7
 43
1.0
 76
     1
 77
     6
 78
     2
 67
     7
 79
     5
170
     0
171
     0
290
     0
174
     0
 93
        1
 44
0.0
173
     0
291
     1
 45
0.0
1001
ACAD
1000
AcDbSavedByObjectVersion
1070
     0
  0
VISUALSTYLE
  5
35
102
{ACAD_XDICTIONARY
360
A017C
102
}
102
{ACAD_REACTORS
330
29
102
}
330
29
100
AcDbVisualStyle
  2

 70
    12
 71
     2
 72
     2
 73
     0
 90
        0
 40
-0.6
 41
-30.0
 62
     5
 63
     7
 74
     1
 91
        4
 64
     7
 65
   257
 75
     1
175
     1
 42
1.0
 92
        8
 66
     7
 43
1.0
 76
     1
 77
     6
 78
     2
 67
     7
 79
     5
170
     0
171
     0
290
     0
174
     0
 93
        1
 44
50.0
173
     0
291
     1
 45
0.0
1001
ACAD
1000
AcDbSavedByObjectVersion
1070
     0
  0
VISUALSTYLE
  5
39
102
{ACAD_XDICTIONARY
360
A0184
102
}
102
{ACAD_REACTORS
330
29
102
}
330
29
100
AcDbVisualStyle
  2

 70
    16
 71
     2
 72
     2
 73
     3
 90
        0
 40
-0.6
 41
-30.0
 62
     5
 63
     8
 74
     1
 91
        4
 64
     7
 65
   257
 75
     1
175
     1
 42
1.0
 92
        8
 66
     8
 43
1.0
 76
     1
 77
     6
 78
     2
 67
     7
 79
     5
170
     0
171
     0
290
     0
174
     0
 93
        1
 44
0.0
173
     0
291
     1
 45
0.0
1001
ACAD
1000
AcDbSavedByObjectVersion
1070
     0
  0
VISUALSTYLE
  5
32
102
{ACAD_XDICTIONARY
360
A0176
102
}
102
{ACAD_REACTORS
330
29
102
}
330
29
100
AcDbVisualStyle
  2

 70
     9
 71
     3
 72
     2
 73
     0
 90
        0
 40
-0.6
 41
-30.0
 62
     5
 63
     7
 74
     2
 91
        2
 64
     7
 65
   257
 75
     1
175
     1
 42
179.0
 92
        8
 66
     7
 43
1.0
 76
     1
 77
     6
 78
     2
 67
     7
 79
     3
170
     0
171
     0
290
     0
174
     0
 93
        1
 44
0.0
173
     0
291
     0
 45
0.0
1001
ACAD
1000
AcDbSavedByObjectVersion
1070
     0
  0
VISUALSTYLE
  5
34
102
{ACAD_XDICTIONARY
360
A017A
102
}
102
{ACAD_REACTORS
330
29
102
}
330
29
100
AcDbVisualStyle
  2

 70
    11
 71
     2
 72
     2
 73
     0
 90
        0
 40
-0.6
 41
-30.0
 62
     5
 63
     7
 74
     1
 91
        4
 64
     7
 65
   257
 75
     1
175
     1
 42
1.0
 92
        8
 66
     7
 43
1.0
 76
     1
 77
     6
 78
     2
 67
     7
 79
     5
170
     0
171
     0
290
     0
174
     0
 93
        1
 44
-50.0
173
     0
291
     1
 45
0.0
1001
ACAD
1000
AcDbSavedByObjectVersion
1070
     0
  0
VISUALSTYLE
  5
41
102
{ACAD_XDICTIONARY
360
A0194
102
}
102
{ACAD_REACTORS
330
29
102
}
330
29
100
AcDbVisualStyle
  2

 70
    22
 71
     2
 72
     2
 73
     0
 90
        0
 40
-0.6
 41
-30.0
 62
     5
 63
     7
 74
     1
 91
        4
 64
     7
 65
   257
 75
     1
175
     1
 42
1.0
 92
        8
 66
     7
 43
1.0
 76
     1
 77
     6
 78
     2
 67
     7
 79
     5
170
     0
171
     0
290
     0
174
     0
 93
        1
 44
0.0
173
     0
291
     1
 45
0.0
1001
ACAD
1000
AcDbSavedByObjectVersion
1070
     0
  0
VISUALSTYLE
  5
38
102
{ACAD_XDICTIONARY
360
A0182
102
}
102
{ACAD_REACTORS
330
29
102
}
330
29
100
AcDbVisualStyle
  2

 70
    15
 71
     2
 72
     2
 73
     0
 90
        0
 40
-0.6
 41
-30.0
 62
     5
 63
     7
 74
     1
 91
        4
 64
     7
 65
   257
 75
     1
175
     1
 42
1.0
 92
        8
 66
     7
 43
1.0
 76
     1
 77
     6
 78
     2
 67
     7
 79
     5
170
     0
171
     0
290
     0
174
     0
 93
        1
 44
0.0
173
     0
291
     1
 45
0.0
1001
ACAD
1000
AcDbSavedByObjectVersion
1070
     0
  0
VISUALSTYLE
  5
2A
102
{ACAD_XDICTIONARY
360
A0166
102
}
102
{ACAD_REACTORS
330
29
102
}
330
29
100
AcDbVisualStyle
  2

 70
     0
 71
     2
 72
     1
 73
     1
 90
        2
 40
-0.6
 41
30.0
 62
     5
 63
     7
 74
     0
 91
        0
 64
     7
 65
   257
 75
     1
175
     1
 42
1.0
 92
        8
 66
     7
 43
1.0
 76
     1
 77
     6
 78
     2
 67
     7
 79
     5
170
     0
171
     0
290
     0
174
     0
 93
       13
 44
0.0
173
     0
291
     1
 45
0.0
1001
ACAD
1000
AcDbSavedByObjectVersion
1070
     0
  0
VISUALSTYLE
  5
2B
102
{ACAD_XDICTIONARY
360
A0168
102
}
102
{ACAD_REACTORS
330
29
102
}
330
29
100
AcDbVisualStyle
  2

 70
     1
 71
     2
 72
     1
 73
     1
 90
        2
 40
-0.6
 41
30.0
 62
     5
 63
     7
 74
     1
 91
        0
 64
     7
 65
   257
 75
     1
175
     1
 42
1.0
 92
        0
 66
   257
 43
1.0
 76
     1
 77
     6
 78
     2
 67
     7
 79
     5
170
     0
171
     0
290
     0
174
     0
 93
       13
 44
0.0
173
     0
291
     1
 45
0.0
1001
ACAD
1000
AcDbSavedByObjectVersion
1070
     0
  0
VISUALSTYLE
  5
2C
102
{ACAD_XDICTIONARY
360
A016A
102
}
102
{ACAD_REACTORS
330
29
102
}
330
29
100
AcDbVisualStyle
  2

 70
     2
 71
     2
 72
     2
 73
     1
 90
        2
 40
-0.6
 41
30.0
 62
     5
 63
     7
 74
     0
 91
        0
 64
     7
 65
   257
 75
     1
175
     1
 42
1.0
 92
        0
 66
     7
 43
1.0
 76
     1
 77
     6
 78
     2
 67
     7
 79
     5
170
     0
171
     0
290
     0
174
     0
 93
       13
 44
0.0
173
     0
291
     1
 45
0.0
1001
ACAD
1000
AcDbSavedByObjectVersion
1070
     0
  0
VISUALSTYLE
  5
2D
102
{ACAD_XDICTIONARY
360
A016C
102
}
102
{ACAD_REACTORS
330
29
102
}
330
29
100
AcDbVisualStyle
  2

 70
     3
 71
     2
 72
     2
 73
     1
 90
        2
 40
-0.6
 41
30.0
 62
     5
 63
     7
 74
     1
 91
        0
 64
     7
 65
   257
 75
     1
175
     1
 42
1.0
 92
        0
 66
   257
 43
1.0
 76
     1
 77
     6
 78
     2
 67
     7
 79
     5
170
     0
171
     0
290
     0
174
     0
 93
       13
 44
0.0
173
     0
291
     1
 45
0.0
1001
ACAD
1000
AcDbSavedByObjectVersion
1070
     0
  0
VISUALSTYLE
  5
31
102
{ACAD_XDICTIONARY
360
A0174
102
}
102
{ACAD_REACTORS
330
29
102
}
330
29
100
AcDbVisualStyle
  2

 70
     6
 71
     1
 72
     2
 73
     2
 90
        0
 40
-0.6
 41
-30.0
 62
     5
 63
     7
 74
     2
 91
        2
 64
     7
 65
   257
 75
     2
175
     1
 42
40.0
 92
        0
 66
   257
 43
1.0
 76
     1
 77
     6
 78
     2
 67
     7
 79
     3
170
     0
171
     0
290
     0
174
     0
 93
        1
 44
0.0
173
     0
291
     0
 45
0.0
1001
ACAD
1000
AcDbSavedByObjectVersion
1070
     0
  0
VISUALSTYLE
  5
3F
102
{ACAD_XDICTIONARY
360
A0190
102
}
102
{ACAD_REACTORS
330
29
102
}
330
29
100
AcDbVisualStyle
  2

 70
    20
 71
     2
 72
     2
 73
     0
 90
        0
 40
-0.6
 41
-30.0
 62
     5
 63
     7
 74
     1
 91
        4
 64
     7
 65
   257
 75
     1
175
     1
 42
1.0
 92
       10
 66
     7
 43
1.0
 76
     1
 77
     6
 78
     2
 67
     7
 79
     5
170
     0
171
     0
290
     0
174
     0
 93
        1
 44
0.0
173
     0
291
     1
 45
0.0
1001
ACAD
1000
AcDbSavedByObjectVersion
1070
     0
  0
VISUALSTYLE
  5
37
102
{ACAD_XDICTIONARY
360
A0180
102
}
102
{ACAD_REACTORS
330
29
102
}
330
29
100
AcDbVisualStyle
  2

 70
    14
 71
     2
 72
     2
 73
     0
 90
        0
 40
-0.6
 41
-30.0
 62
     5
 63
     7
 74
     1
 91
        4
 64
     7
 65
   257
 75
     7
175
     7
 42
1.0
 92
        8
 66
     7
 43
1.0
 76
     1
 77
     6
 78
     2
 67
     7
 79
     5
170
     0
171
     0
290
     0
174
     0
 93
        1
 44
0.0
173
     0
291
     1
 45
0.0
1001
ACAD
1000
AcDbSavedByObjectVersion
1070
     0
  0
VISUALSTYLE
  5
40
102
{ACAD_XDICTIONARY
360
A0192
102
}
102
{ACAD_REACTORS
330
29
102
}
330
29
100
AcDbVisualStyle
  2

 70
    21
 71
     2
 72
     2
 73
     0
 90
        0
 40
-0.6
 41
-30.0
 62
     5
 63
     7
 74
     1
 91
        4
 64
     7
 65
   257
 75
     1
175
     1
 42
1.0
 92
        9
 66
     7
 43
1.0
 76
     1
 77
     6
 78
     2
 67
     7
 79
     5
170
     0
171
     0
290
     0
174
     0
 93
        1
 44
0.0
173
     0
291
     1
 45
0.0
1001
ACAD
1000
AcDbSavedByObjectVersion
1070
     0
  0
VISUALSTYLE
  5
33
102
{ACAD_XDICTIONARY
360
A0178
102
}
102
{ACAD_REACTORS
330
29
102
}
330
29
100
AcDbVisualStyle
  2

 70
     8
 71
     2
 72
     3
 73
     0
 90
        2
 40
-0.6
 41
30.0
 62
     5
 63
     7
 74
     0
 91
        0
 64
     7
 65
   257
 75
     1
175
     1
 42
1.0
 92
        8
 66
   257
 43
1.0
 76
     1
 77
     6
 78
     2
 67
     7
 79
     3
170
     0
171
     0
290
     0
174
     0
 93
       13
 44
0.0
173
     0
291
     0
 45
0.0
1001
ACAD
1000
AcDbSavedByObjectVersion
1070
     0
  0
VISUALSTYLE
  5
3E
102
{ACAD_XDICTIONARY
360
A018E
102
}
102
{ACAD_REACTORS
330
29
102
}
330
29
100
AcDbVisualStyle
  2

 70
    27
 71
     2
 72
     2
 73
     1
 90
        2
 40
-0.6
 41
30.0
 62
     5
 63
     7
 74
     0
 91
        4
 64
     7
 65
   257
 75
     1
175
     1
 42
1.0
 92
        8
 66
   257
 43
1.0
 76
     1
 77
     6
 78
     2
 67
     8
 79
     3
170
     0
171
     0
290
     0
174
     0
 93
        5
 44
0.0
173
     0
291
     0
 45
0.0
1001
ACAD
1000
AcDbSavedByObjectVersion
1070
     0
  0
VISUALSTYLE
  5
3D
102
{ACAD_XDICTIONARY
360
A018C
102
}
102
{ACAD_REACTORS
330
29
102
}
330
29
100
AcDbVisualStyle
  2

 70
    26
 71
     2
 72
     2
 73
     1
 90
        2
 40
-0.6
 41
30.0
 62
     5
 63
     7
 74
     1
 91
       10
 64
     7
 65
   257
 75
     2
175
     1
 42
1.0
 92
        8
 66
   257
 43
1.0
 76
     1
 77
     6
 78
     2
 67
     7
 79
     3
170
     0
171
     0
290
     0
174
     0
 93
        5
 44
0.0
173
     0
291
     0
 45
0.0
1001
ACAD
1000
AcDbSavedByObjectVersion
1070
     0
  0
VISUALSTYLE
  5
3A
102
{ACAD_XDICTIONARY
360
A0186
102
}
102
{ACAD_REACTORS
330
29
102
}
330
29
100
AcDbVisualStyle
  2

 70
    23
 71
     2
 72
     2
 73
     3
 90
        0
 40
-0.6
 41
-30.0
 62
     5
 63
     7
 74
     2
 91
        2
 64
     7
 65
     7
 75
     1
175
     1
 42
40.0
 92
        8
 66
     7
 43
1.0
 76
     1
 77
     6
 78
     2
 67
     7
 79
     3
170
     0
171
     0
290
     0
174
     0
 93
        1
 44
0.0
173
     0
291
     0
 45
0.0
1001
ACAD
1000
AcDbSavedByObjectVersion
1070
     0
  0
VISUALSTYLE
  5
3B
102
{ACAD_XDICTIONARY
360
A0188
102
}
102
{ACAD_REACTORS
330
29
102
}
330
29
100
AcDbVisualStyle
  2

 70
    24
 71
     1
 72
     2
 73
     2
 90
        0
 40
-0.6
 41
-30.0
 62
     5
 63
     7
 74
     2
 91
        2
 64
     7
 65
     7
 75
     1
175
     1
 42
40.0
 92
       11
 66
     7
 43
1.0
 76
     1
 77
     6
 78
     2
 67
     7
 79
     6
170
     0
171
     0
290
     0
174
     0
 93
        1
 44
0.0
173
     0
291
     0
 45
0.0
1001
ACAD
1000
AcDbSavedByObjectVersion
1070
     0
  0
VISUALSTYLE
  5
36
102
{ACAD_XDICTIONARY
360
A017E
102
}
102
{ACAD_REACTORS
330
29
102
}
330
29
100
AcDbVisualStyle
  2

 70
    13
 71
     2
 72
     2
 73
     0
 90
        0
 40
-0.6
 41
-30.0
 62
     5
 63
     7
 74
     1
 91
        4
 64
     7
 65
   257
 75
     1
175
     1
 42
1.0
 92
       12
 66
     7
 43
1.0
 76
     1
 77
     6
 78
     2
 67
     7
 79
     5
170
     0
171
     0
290
     0
174
     0
 93
        1
 44
0.0
173
     0
291
     1
 45
0.0
1001
ACAD
1000
AcDbSavedByObjectVersion
1070
     0
  0
VISUALSTYLE
  5
30
102
{ACAD_XDICTIONARY
360
A0172
102
}
102
{ACAD_REACTORS
330
29
102
}
330
29
100
AcDbVisualStyle
  2

 70
     5
 71
     0
 72
     2
 73
     0
 90
        0
 40
-0.6
 41
-30.0
 62
     5
 63
     7
 74
     1
 91
        4
 64
     7
 65
   257
 75
     1
175
     1
 42
1.0
 92
        0
 66
   257
 43
1.0
 76
     1
 77
     6
 78
     2
 67
     7
 79
     3
170
     0
171
     0
290
     0
174
     0
 93
        1
 44
0.0
173
     0
291
     0
 45
0.0
1001
ACAD
1000
AcDbSavedByObjectVersion
1070
     0
  0
VISUALSTYLE
  5
3C
102
{ACAD_XDICTIONARY
360
A018A
102
}
102
{ACAD_REACTORS
330
29
102
}
330
29
100
AcDbVisualStyle
  2

 70
    25
 71
     2
 72
     2
 73
     1
 90
        1
 40
0.5
 41
-30.0
 62
     5
 63
     7
 74
     1
 91
        0
 64
     7
 65
   257
 75
     1
175
     1
 42
1.0
 92
        8
 66
     7
 43
1.0
 76
     1
 77
     6
 78
     2
 67
     7
 79
     3
170
     0
171
     0
290
     0
174
     0
 93
       13
 44
0.0
173
     0
291
     0
 45
0.0
1001
ACAD
1000
AcDbSavedByObjectVersion
1070
     0
  0
DICTIONARYVAR
  5
866DD
102
{ACAD_REACTORS
330
866DA
102
}
330
866DA
100
DictionaryVariables
280
     0
  1
1:1
  0
DICTIONARYVAR
  5
866DC
102
{ACAD_REACTORS
330
866DA
102
}
330
866DA
100
DictionaryVariables
280
     0
  1
STANDARD
  0
DICTIONARYVAR
  5
866DB
102
{ACAD_REACTORS
330
866DA
102
}
330
866DA
100
DictionaryVariables
280
     0
  1
STANDARD
  0
DICTIONARYVAR
  5
9EF0A
102
{ACAD_REACTORS
330
866DA
102
}
330
866DA
100
DictionaryVariables
280
     0
  1
1
  0
DICTIONARYVAR
  5
9EF09
102
{ACAD_REACTORS
330
866DA
102
}
330
866DA
100
DictionaryVariables
280
     0
  1
1
  0
DICTIONARYVAR
  5
9EF08
102
{ACAD_REACTORS
330
866DA
102
}
330
866DA
100
DictionaryVariables
280
     0
  1
0
  0
DICTIONARYVAR
  5
9EF05
102
{ACAD_REACTORS
330
866DA
102
}
330
866DA
100
DictionaryVariables
280
     0
  1
0
  0
DICTIONARYVAR
  5
9EF06
102
{ACAD_REACTORS
330
866DA
102
}
330
866DA
100
DictionaryVariables
280
     0
  1
0
  0
DICTIONARYVAR
  5
9EF04
102
{ACAD_REACTORS
330
866DA
102
}
330
866DA
100
DictionaryVariables
280
     0
  1
2
  0
DICTIONARYVAR
  5
9EF03
102
{ACAD_REACTORS
330
866DA
102
}
330
866DA
100
DictionaryVariables
280
     0
  1
1
  0
DICTIONARYVAR
  5
9EF07
102
{ACAD_REACTORS
330
866DA
102
}
330
866DA
100
DictionaryVariables
280
     0
  1
127
  0
DICTIONARYVAR
  5
A015D
102
{ACAD_REACTORS
330
866DA
102
}
330
866DA
100
DictionaryVariables
280
     0
  1
2
  0
DICTIONARY
  5
8673F
102
{ACAD_REACTORS
330
86734
102
}
330
86734
100
AcDbDictionary
281
     1
  0
DICTIONARY
  5
A0197
330
6B
100
AcDbDictionary
280
     1
281
     1
  3
ACAD_XREC_ROUNDTRIP
360
A0198
  0
DICTIONARY
  5
A019A
330
73
100
AcDbDictionary
280
     1
281
     1
  3
ACAD_XREC_ROUNDTRIP
360
A019B
  0
DICTIONARY
  5
86875
330
6F
100
AcDbDictionary
280
     1
281
     1
  3
ACAD_XREC_ROUNDTRIP
360
A0199
  3
ADSK_XREC_LAYOUTTHUMBNAIL
360
86876
  0
DICTIONARY
  5
1A
330
19
100
AcDbDictionary
280
     1
281
     1
  3
ACAD_XREC_ROUNDTRIP
360
9EF11
  3
BUMPTILE
360
1C
  3
DIFFUSETILE
360
1B
  3
OPACITYTILE
360
1F
  3
REFLECTIONTILE
360
1E
  3
REFRACTIONTILE
360
20
  3
SPECULARTILE
360
1D
  0
DICTIONARY
  5
12
330
11
100
AcDbDictionary
280
     1
281
     1
  3
ACAD_XREC_ROUNDTRIP
360
9EF10
  3
BUMPTILE
360
14
  3
DIFFUSETILE
360
13
  3
OPACITYTILE
360
17
  3
REFLECTIONTILE
360
16
  3
REFRACTIONTILE
360
18
  3
SPECULARTILE
360
15
  0
DICTIONARY
  5
22
330
21
100
AcDbDictionary
280
     1
281
     1
  3
ACAD_XREC_ROUNDTRIP
360
9EF12
  3
BUMPTILE
360
24
  3
DIFFUSETILE
360
23
  3
OPACITYTILE
360
27
  3
REFLECTIONTILE
360
26
  3
REFRACTIONTILE
360
28
  3
SPECULARTILE
360
25
  0
DICTIONARY
  5
9EF0C
330
65
100
AcDbDictionary
280
     1
281
     1
  3
ACAD_ROUNDTRIP_2008_TABLESTYLE_CELLSTYLEMAP
360
A015E
  3
ACAD_XREC_ROUNDTRIP
360
A0196
  0
DICTIONARY
  5
A0170
330
2F
100
AcDbDictionary
280
     1
281
     1
  3
ACAD_XREC_ROUNDTRIP
360
A0171
  0
DICTIONARY
  5
A016E
330
2E
100
AcDbDictionary
280
     1
281
     1
  3
ACAD_XREC_ROUNDTRIP
360
A016F
  0
DICTIONARY
  5
A017C
330
35
100
AcDbDictionary
280
     1
281
     1
  3
ACAD_XREC_ROUNDTRIP
360
A017D
  0
DICTIONARY
  5
A0184
330
39
100
AcDbDictionary
280
     1
281
     1
  3
ACAD_XREC_ROUNDTRIP
360
A0185
  0
DICTIONARY
  5
A0176
330
32
100
AcDbDictionary
280
     1
281
     1
  3
ACAD_XREC_ROUNDTRIP
360
A0177
  0
DICTIONARY
  5
A017A
330
34
100
AcDbDictionary
280
     1
281
     1
  3
ACAD_XREC_ROUNDTRIP
360
A017B
  0
DICTIONARY
  5
A0194
330
41
100
AcDbDictionary
280
     1
281
     1
  3
ACAD_XREC_ROUNDTRIP
360
A0195
  0
DICTIONARY
  5
A0182
330
38
100
AcDbDictionary
280
     1
281
     1
  3
ACAD_XREC_ROUNDTRIP
360
A0183
  0
DICTIONARY
  5
A0166
330
2A
100
AcDbDictionary
280
     1
281
     1
  3
ACAD_XREC_ROUNDTRIP
360
A0167
  0
DICTIONARY
  5
A0168
330
2B
100
AcDbDictionary
280
     1
281
     1
  3
ACAD_XREC_ROUNDTRIP
360
A0169
  0
DICTIONARY
  5
A016A
330
2C
100
AcDbDictionary
280
     1
281
     1
  3
ACAD_XREC_ROUNDTRIP
360
A016B
  0
DICTIONARY
  5
A016C
330
2D
100
AcDbDictionary
280
     1
281
     1
  3
ACAD_XREC_ROUNDTRIP
360
A016D
  0
DICTIONARY
  5
A0174
330
31
100
AcDbDictionary
280
     1
281
     1
  3
ACAD_XREC_ROUNDTRIP
360
A0175
  0
DICTIONARY
  5
A0190
330
3F
100
AcDbDictionary
280
     1
281
     1
  3
ACAD_XREC_ROUNDTRIP
360
A0191
  0
DICTIONARY
  5
A0180
330
37
100
AcDbDictionary
280
     1
281
     1
  3
ACAD_XREC_ROUNDTRIP
360
A0181
  0
DICTIONARY
  5
A0192
330
40
100
AcDbDictionary
280
     1
281
     1
  3
ACAD_XREC_ROUNDTRIP
360
A0193
  0
DICTIONARY
  5
A0178
330
33
100
AcDbDictionary
280
     1
281
     1
  3
ACAD_XREC_ROUNDTRIP
360
A0179
  0
DICTIONARY
  5
A018E
330
3E
100
AcDbDictionary
280
     1
281
     1
  3
ACAD_XREC_ROUNDTRIP
360
A018F
  0
DICTIONARY
  5
A018C
330
3D
100
AcDbDictionary
280
     1
281
     1
  3
ACAD_XREC_ROUNDTRIP
360
A018D
  0
DICTIONARY
  5
A0186
330
3A
100
AcDbDictionary
280
     1
281
     1
  3
ACAD_XREC_ROUNDTRIP
360
A0187
  0
DICTIONARY
  5
A0188
330
3B
100
AcDbDictionary
280
     1
281
     1
  3
ACAD_XREC_ROUNDTRIP
360
A0189
  0
DICTIONARY
  5
A017E
330
36
100
AcDbDictionary
280
     1
281
     1
  3
ACAD_XREC_ROUNDTRIP
360
A017F
  0
DICTIONARY
  5
A0172
330
30
100
AcDbDictionary
280
     1
281
     1
  3
ACAD_XREC_ROUNDTRIP
360
A0173
  0
DICTIONARY
  5
A018A
330
3C
100
AcDbDictionary
280
     1
281
     1
  3
ACAD_XREC_ROUNDTRIP
360
A018B
  0
XRECORD
  5
A0198
102
{ACAD_REACTORS
330
A0197
102
}
330
A0197
100
AcDbXrecord
280
     1
102
SHADEPLOT
 70
     0
102
SHADEPLOTRESLEVEL
 70
     2
102
SHADEPLOTCUSTOMDPI
 70
   300
  0
XRECORD
  5
A019B
102
{ACAD_REACTORS
330
A019A
102
}
330
A019A
100
AcDbXrecord
280
     1
102
SHADEPLOT
 70
     0
102
SHADEPLOTRESLEVEL
 70
     2
102
SHADEPLOTCUSTOMDPI
 70
   300
  0
XRECORD
  5
A0199
102
{ACAD_REACTORS
330
86875
102
}
330
86875
100
AcDbXrecord
280
     1
102
SHADEPLOT
 70
     0
102
SHADEPLOTRESLEVEL
 70
     2
102
SHADEPLOTCUSTOMDPI
 70
   300
  0
XRECORD
  5
86876
102
{ACAD_REACTORS
330
86875
102
}
330
86875
100
AcDbXrecord
280
     1
310
28000000000100005A0000000100080000000000005A0000000000000000000000010000000000003028210000000000FFFFFF000000000000000000000000000000000000000000000000000000000000000000330000006600000099000000CC000000FF00000000330000333300006633000099330000CC330000FF3300
310
0000660000336600006666000099660000CC660000FF66000000990000339900006699000099990000CC990000FF99000000CC000033CC000066CC000099CC0000CCCC0000FFCC000000FF000033FF000066FF000099FF0000CCFF0000FFFF000000003300330033006600330099003300CC003300FF003300003333003333
310
33006633330099333300CC333300FF33330000663300336633006666330099663300CC663300FF66330000993300339933006699330099993300CC993300FF99330000CC330033CC330066CC330099CC3300CCCC3300FFCC330000FF330033FF330066FF330099FF3300CCFF3300FFFF330000006600330066006600660099
310
006600CC006600FF00660000336600333366006633660099336600CC336600FF33660000666600336666006666660099666600CC666600FF66660000996600339966006699660099996600CC996600FF99660000CC660033CC660066CC660099CC6600CCCC6600FFCC660000FF660033FF660066FF660099FF6600CCFF6600
310
FFFF660000009900330099006600990099009900CC009900FF00990000339900333399006633990099339900CC339900FF33990000669900336699006666990099669900CC669900FF66990000999900339999006699990099999900CC999900FF99990000CC990033CC990066CC990099CC9900CCCC9900FFCC990000FF99
310
0033FF990066FF990099FF9900CCFF9900FFFF99000000CC003300CC006600CC009900CC00CC00CC00FF00CC000033CC003333CC006633CC009933CC00CC33CC00FF33CC000066CC003366CC006666CC009966CC00CC66CC00FF66CC000099CC003399CC006699CC009999CC00CC99CC00FF99CC0000CCCC0033CCCC0066CC
310
CC0099CCCC00CCCCCC00FFCCCC0000FFCC0033FFCC0066FFCC0099FFCC00CCFFCC00FFFFCC000000FF003300FF006600FF009900FF00CC00FF00FF00FF000033FF003333FF006633FF009933FF00CC33FF00FF33FF000066FF003366FF006666FF009966FF00CC66FF00FF66FF000099FF003399FF006699FF009999FF00CC
310
99FF00FF99FF0000CCFF0033CCFF0066CCFF0099CCFF00CCCCFF00FFCCFF0000FFFF0033FFFF0066FFFF0099FFFF00CCFFFF00FFFFFF00000000000D0D0D001A1A1A00282828003535350043434300505050005D5D5D006B6B6B00787878008686860093939300A1A1A100AEAEAE00BBBBBB00C9C9C900D6D6D600E4E4E400
310
F1F1F100FFFFFF000000000000000000000000000000000000000000000000000000000000000000000000000000000000000000000000000000000000000000000000000000000000000000000000000000000000000000000000000000000000000000000000000000000000000000000000000000000000000000000000
310
00000000000000000000000000000000000000000000000000000000000000000000000000000000000000000000000000000000000000000000000000000000000000000000000000000000000000000000000000000000000000000000000000000000000000000000000000000000000000000000000000000000000000
310
00000000000000000000000000000000000000000000000000000000000000000000000000000000000000000000000000000000000000000000000000000000000000000000000000000000000000000000000000000000000000000000000000000000000000000000000000000000000000000000000000000000000000
310
00000000000000000000000000000000000000000000000000000000000000000000000000000000000000000000000000000000000000000000000000000000000000000000000000000000000000000000000000000000000000000000000000000000000000000000000000000000000000000000000000000000000000
310
00000000000000000000000000000000000000000000000000000000000000000000000000000000000000000000000000000000000000000000000000000000000000000000000000000000000000000000000000000000000000000000000000000000000000000000000000000000000000000000000000000000000000
310
00000000000000000000000000000000000000000000000000000000000000000000000000000000000000000000000000000000000000000000000000000000000000000000000000000000000000000000000000000000000000000000000000000000000000000000000000000000000000000000000000000000000000
310
00000000000000000000000000000000000000000000000000000000000000000000000000000000000000000000000000000000000000000000000000000000000000000000000000000000000000000000000000000000000000000000000000000000000000000000000000000000000000000000000000000000000000
310
00000000000000000000000000000000000000000000000000000000000000000000000000000000000000000000000000000000000000000000000000000000000000000000000000000000000000000000000000000000000000000000000000000000000000000000000000000000000000000000000000000000000000
310
00000000000000000000000000000000000000000000000000000000000000000000000000000000000000000000000000000000000000000000000000000000000000000000000000000000000000000000000000000000000000000000000000000000000000000000000000000000000000000000000000000000000000
310
00000000000000000000000000000000000000000000000000000000000000000000000000000000000000000000000000000000000000000000000000000000000000000000000000000000000000000000000000000000000000000000000000000000000000000000000000000000000000000000000000000000000000
310
00000000000000000000000000000000000000000000000000000000000000000000000000000000000000000000000000000000000000000000000000000000000000000000000000000000000000000000000000000000000000000000000000000000000000000000000000000000000000000000000000000000000000
310
00000000000000000000000000000000000000000000000000000000000000000000000000000000000000000000000000000000000000000000000000000000000000000000000000000000000000000000000000000000000000000000000000000000000000000000000000000000000000000000000000000000000000
310
00000000000000000000000000000000000000000000000000000000000000000000000000000000000000000000000000000000000000000000000000000000000000000000000000000000000000000000000000000000000000000000000000000000000000000000000000000000000000000000000000000000000000
310
00000000000000000000000000000000000000000000000000000000000000000000000000000000000000000000000000000000000000000000000000000000000000000000000000000000000000000000000000000000000000000000000000000000000000000000000000000000000000000000000000000000000000
310
00000000000000000000000000000000000000000000000000000000000000000000000000000000000000000000000000000000000000000000000000000000000000000000000000000000000000000000000000000000000000000000000000000000000000000000000000000000000000000000000000000000000000
310
00000000000000000000000000000000000000000000000000000000000000000000000000000000000000000000000000000000000000000000000000000000000000000000000000000000000000000000000000000000000000000000000000000000000000000000000000000000000000000000000000000000000000
310
00000000000000000000000000000000000000000000000000000000000000000000000000000000000000000000000000000000000000000000000000000000000000000000000000000000000000000000000000000000000000000000000000000000000000000000000000000000000000000000000000000000000000
310
00000000000000000000000000000000000000000000000000000000000000000000000000000000000000000000000000000000000000000000000000000000000000000000000000000000000000000000000000000000000000000000000000000000000000000000000000000000000000000000000000000000000000
310
00000000000000000000000000000000000000000000000000000000000000000000000000000000000000000000000000000000000000000000000000000000000000000000000000000000000000000000000000000000000000000000000000000000000000000000000000000000000000000000000000000000000000
310
00000000000000000000000000000000000000000000000000000000000000000000000000000000000000000000000000000000000000000000000000000000000000000000000000000000000000000000000000000000000000000000000000000000000000000000000000000000000000000000000000000000000000
310
00000000000000000000000000000000000000000000000000000000000000000000000000000000000000000000000000000000000000000000000000000000000000000000000000000000000000000000000000000000000000000000000000000000000000000000000000000000000000000000000000000000000000
310
00000000000000000000000000000000000000000000000000000000000000000000000000000000000000000000000000000000000000000000000000000000000000000000000000000000000000000000000000000000000000000000000000000000000000000000000000000000000000000000000000000000000000
310
00000000000000000000000000000000000000000000000000000000000000000000000000000000000000000000000000000000000000000000000000000000000000000000000000000000000000000000000000000000000000000000000000000000000000000000000000000000000000000000000000000000000000
310
00000000000000000000000000000000000000000000000000000000000000000000000000000000000000000000000000000000000000000000000000000000000000000000000000000000000000000000000000000000000000000000000000000000000000000000000000000000000000000000000000000000000000
310
00000000000000000000000000000000000000000000000000000000000000000000000000000000000000000000000000000000000000000000000000000000000000000000000000000000000000000000000000000000000000000000000000000000000000000000000000000000000000000000000000000000000000
310
00000000000000000000000000000000000000000000000000000000000000000000000000000000000000000000000000000000000000000000000000000000000000000000000000000000000000000000000000000000000000000000000000000000000000000000000000000000000000000000000000000000000000
310
00000000000000000000000000000000000000000000000000000000000000000000000000000000000000000000000000000000000000000000000000000000000000000000000000000000000000000000000000000000000000000000000000000000000000000000000000000000000000000000000000000000000000
310
00000000000000000000000000000000000000000000000000000000000000000000000000000000000000000000000000000000000000000000000000000000000000000000000000000000000000000000000000000000000000000000000000000000000000000000000000000000000000000000000000000000000000
310
00000000000000000000000000000000000000000000000000000000000000000000000000000000000000000000000000000000000000000000000000000000000000000000000000000000000000000000000000000000000000000000000000000000000000000000000000000000000000000000000000000000000000
310
00000000000000000000000000000000000000000000000000000000000000000000000000000000000000000000000000000000000000000000000000000000000000000000000000000000000000000000000000000000000000000000000000000000000000000000000000000000000000000000000000000000000000
310
00000000000000000000000000000000000000000000000000000000000000000000000000000000000000000000000000000000000000000000000000000000000000000000000000000000000000000000000000000000000000000000000000000000000000000000000000000000000000000000000000000000000000
310
00000000000000000000000000000000000000000000000000000000000000000000000000000000000000000000000000000000000000000000000000000000000000000000000000000000000000000000000000000000000000000000000000000000000000000000000000000000000000000000000000000000000000
310
00000000000000000000000000000000000000000000000000000000000000000000000000000000000000000000000000000000000000000000000000000000000000000000000000000000000000000000000000000000000000000000000000000000000000000000000000000000000000000000000000000000000000
310
00000000000000000000000000000000000000000000000000000000000000000000000000000000000000000000000000000000000000000000000000000000000000000000000000000000000000000000000000000000000000000000000000000000000000000000000000000000000000000000000000000000000000
310
00000000000000000000000000000000000000000000000000000000000000000000000000000000000000000000000000000000000000000000000000000000000000000000000000000000000000000000000000000000000000000000000000000000000000000000000000000000000000000000000000000000000000
310
00000000000000000000000000000000000000000000000000000000000000000000000000000000000000000000000000000000000000000000000000000000000000000000000000000000000000000000000000000000000000000000000000000000000000000000000000000000000000000000000000000000000000
310
00000000000000000000000000000000000000000000000000000000000000000000000000000000000000000000000000000000000000000000000000000000000000000000000000000000000000000000000000000000000000000000000000000000000000000000000000000000000000000000000000000000000000
310
00000000000000000000000000000000000000000000000000000000000000000000000000000000000000000000000000000000000000000000000000000000000000000000000000000000000000000000000000000000000000000000000000000000000000000000000000000000000000000000000000000000000000
310
00000000000000000000000000000000000000000000000000000000000000000000000000000000000000000000000000000000000000000000000000000000000000000000000000000000000000000000000000000000000000000000000000000000000000000000000000000000000000000000000000000000000000
310
00000000000000000000000000000000000000000000000000000000000000000000000000000000000000000000000000000000000000000000000000000000000000000000000000000000000000000000000000000000000000000000000000000000000000000000000000000000000000000000000000000000000000
310
00000000000000000000000000000000000000000000000000000000000000000000000000000000000000000000000000000000000000000000000000000000000000000000000000000000000000000000000000000000000000000000000000000000000000000000000000000000000000000000000000000000000000
310
00000000000000000000000000000000000000000000000000000000000000000000000000000000000000000000000000000000000000000000000000000000000000000000000000000000000000000000000000000000000000000000000000000000000000000000000000000000000000000000000000000000000000
310
00000000000000000000000000000000000000000000000000000000000000000000000000000000000000000000000000000000000000000000000000000000000000000000000000000000000000000000000000000000000000000000000000000000000000000000000000000000000000000000000000000000000000
310
00000000000000000000000000000000000000000000000000000000000000000000000000000000000000000000000000000000000000000000000000000000000000000000000000000000000000000000000000000000000000000000000000000000000000000000000000000000000000000000000000000000000000
310
00000000000000000000000000000000000000000000000000000000000000000000000000000000000000000000000000000000000000000000000000000000000000000000000000000000000000000000000000000000000000000000000000000000000000000000000000000000000000000000000000000000000000
310
00000000000000000000000000000000000000000000000000000000000000000000000000000000000000000000000000000000000000000000000000000000000000000000000000000000000000000000000000000000000000000000000000000000000000000000000000000000000000000000000000000000000000
310
00000000000000000000000000000000000000000000000000000000000000000000000000000000000000000000000000000000000000000000000000000000000000000000000000000000000000000000000000000000000000000000000000000000000000000000000000000000000000000000000000000000000000
310
00000000000000000000000000000000000000000000000000000000000000000000000000000000000000000000000000000000000000000000000000000000000000000000000000000000000000000000000000000000000000000000000000000000000000000000000000000000000000000000000000000000000000
310
00000000000000000000000000000000000000000000000000000000000000000000000000000000000000000000000000000000000000000000000000000000000000000000000000000000000000000000000000000000000000000000000000000000000000000000000000000000000000000000000000000000000000
310
00000000000000000000000000000000000000000000000000000000000000000000000000000000000000000000000000000000000000000000000000000000000000000000000000000000000000000000000000000000000000000000000000000000000000000000000000000000000000000000000000000000000000
310
00000000000000000000000000000000000000000000000000000000000000000000000000000000000000000000000000000000000000000000000000000000000000000000000000000000000000000000000000000000000000000000000000000000000000000000000000000000000000000000000000000000000000
310
00000000000000000000000000000000000000000000000000000000000000000000000000000000000000000000000000000000000000000000000000000000000000000000000000000000000000000000000000000000000000000000000000000000000000000000000000000000000000000000000000000000000000
310
00000000000000000000000000000000000000000000000000000000000000000000000000000000000000000000000000000000000000000000000000000000000000000000000000000000000000000000000000000000000000000000000000000000000000000000000000000000000000000000000000000000000000
310
00000000000000000000000000000000000000000000000000000000000000000000000000000000000000000000000000000000000000000000000000000000000000000000000000000000000000000000000000000000000000000000000000000000000000000000000000000000000000000000000000000000000000
310
00000000000000000000000000000000000000000000000000000000000000000000000000000000000000000000000000000000000000000000000000000000000000000000000000000000000000000000000000000000000000000000000000000000000000000000000000000000000000000000000000000000000000
310
00000000000000000000000000000000000000000000000000000000000000000000000000000000000000000000000000000000000000000000000000000000000000000000000000000000000000000000000000000000000000000000000000000000000000000000000000000000000000000000000000000000000000
310
00000000000000000000000000000000000000000000000000000000000000000000000000000000000000000000000000000000000000000000000000000000000000000000000000000000000000000000000000000000000000000000000000000000000000000000000000000000000000000000000000000000000000
310
00000000000000000000000000000000000000000000000000000000000000000000000000000000000000000000000000000000000000000000000000000000000000000000000000000000000000000000000000000000000000000000000000000000000000000000000000000000000000000000000000000000000000
310
00000000000000000000000000000000000000000000000000000000000000000000000000000000000000000000000000000000000000000000000000000000000000000000000000000000000000000000000000000000000000000000000000000000000000000000000000000000000000000000000000000000000000
310
00000000000000000000000000000000000000000000000000000000000000000000000000000000000000000000000000000000000000000000000000000000000000000000000000000000000000000000000000000000000000000000000000000000000000000000000000000000000000000000000000000000000000
310
00000000000000000000000000000000000000000000000000000000000000000000000000000000000000000000000000000000000000000000000000000000000000000000000000000000000000000000000000000000000000000000000000000000000000000000000000000000000000000000000000000000000000
310
00000000000000000000000000000000000000000000000000000000000000000000000000000000000000000000000000000000000000000000000000000000000000000000000000000000000000000000000000000000000000000000000000000000000000000000000000000000000000000000000000000000000000
310
00000000000000000000000000000000000000000000000000000000000000000000000000000000000000000000000000000000000000000000000000000000000000000000000000000000000000000000000000000000000000000000000000000000000000000000000000000000000000000000000000000000000000
310
00000000000000000000000000000000000000000000000000000000000000000000000000000000000000000000000000000000000000000000000000000000000000000000000000000000000000000000000000000000000000000000000000000000000000000000000000000000000000000000000000000000000000
310
00000000000000000000000000000000000000000000000000000000000000000000000000000000000000000000000000000000000000000000000000000000000000000000000000000000000000000000000000000000000000000000000000000000000000000000000000000000000000000000000000000000000000
310
00000000000000000000000000000000000000000000000000000000000000000000000000000000000000000000000000000000000000000000000000000000000000000000000000000000000000000000000000000000000000000000000000000000000000000000000000000000000000000000000000000000000000
310
00000000000000000000000000000000000000000000000000000000000000000000000000000000000000000000000000000000000000000000000000000000000000000000000000000000000000000000000000000000000000000000000000000000000000000000000000000000000000000000000000000000000000
310
00000000000000000000000000000000000000000000000000000000000000000000000000000000000000000000000000000000000000000000000000000000000000000000000000000000000000000000000000000000000000000000000000000000000000000000000000000000000000000000000000000000000000
310
00000000000000000000000000000000000000000000000000000000000000000000000000000000000000000000000000000000000000000000000000000000000000000000000000000000000000000000000000000000000000000000000000000000000000000000000000000000000000000000000000000000000000
310
00000000000000000000000000000000000000000000000000000000000000000000000000000000000000000000000000000000000000000000000000000000000000000000000000000000000000000000000000000000000000000000000000000000000000000000000000000000000000000000000000000000000000
310
00000000000000000000000000000000000000000000000000000000000000000000000000000000000000000000000000000000000000000000000000000000000000000000000000000000000000000000000000000000000000000000000000000000000000000000000000000000000000000000000000000000000000
310
00000000000000000000000000000000000000000000000000000000000000000000000000000000000000000000000000000000000000000000000000000000000000000000000000000000000000000000000000000000000000000000000000000000000000000000000000000000000000000000000000000000000000
310
00000000000000000000000000000000000000000000000000000000000000000000000000000000000000000000000000000000000000000000000000000000000000000000000000000000000000000000000000000000000000000000000000000000000000000000000000000000000000000000000000000000000000
310
0000000000000000000000000000000000000000000000000000000000000000000000000000000000002D2D2DDCDCDCDCDCDCDCDCDCDCDCDCDCDCDCDCDCDCDCDCDCDCDCDCDCDCDCDCDCDCDCDCDCDCDCDC00000000000000000000000000000000000000000000000000000000000000000000000000000000000000000000
310
00000000000000000000000000000000000000000000000000000000000000000000000000000000000000000000000000000000000000000000000000000000000000000000000000000000000000000000000000000000000000000000000000000000000000000000000000000000000000000000000000000000000000
310
00000000000000000000000000000000000000000000000000000000000000000000000000000000000000002D2D2D2D2D2D2D2D2D2D2D2D2D2D2D2D2D2D2D2D2D2D2D2D2D2D2D2D2D2D2D2D2D2D2D2D2D2DDC0000000000000000000000000000000000000000000000000000000000000000000000000000000000000000
310
00000000000000000000000000000000000000000000000000000000000000000000000000000000000000000000000000000000000000000000000000000000000000000000000000000000000000000000000000000000000000000000000000000000000000000000000000000000000000000000000000000000000000
310
000000000000000000000000000000000000000000000000000000000000000000000000000000000000000000002D2D2D2D2D2D2D2D2D2D2D2D2D2D2D2D2D2D2D2D2D2D2D2D2D2D2D2D2D2D2D2D2D2D2D2D2D2DDC000000000000000000000000000000000000000000000000000000000000000000000000000000000000
310
00000000000000000000000000000000000000000000000000000000000000000000000000000000000000000000000000000000000000000000000000000000000000000000000000000000000000000000000000000000000000000000000000000000000000000000000000000000000000000000000000000000000000
310
0000000000000000000000000000000000000000000000000000000000000000000000000000000000000000000000002D2D2D2D2D2D2D2D2D2D2D2D2D2D2D2D2D2D2D2D2D2D2D2D2D2D2D2D2D2D2D2D2D2D2D2D2D2DDC00000000000000000000000000000000000000000000000000000000000000000000000000000000
310
00000000000000000000000000000000000000000000000000000000000000000000000000000000000000000000000000000000000000000000000000000000000000000000000000000000000000000000000000000000000000000000000000000000000000000000000000000000000000000000000000000000000000
310
00000000000000000000000000000000000000000000000000000000000000000000000000000000000000000000000000002D2D2D2D2D2D2D2D2D2D2D2D2D2D2D2D2D2D2D2D2D2D2D2D2D2D2D2D2D2D2D2D2D2D2D2D2D2DDC0000000000000000000000000000000000000000000000000000000000000000000000000000
310
00000000000000000000000000000000000000000000000000000000000000000000000000000000000000000000000000000000000000000000000000000000000000000000000000000000000000000000000000000000000000000000000000000000000000000000000000000000000000000000000000000000000000
310
000000000000000000000000000000000000000000000000000000000000000000000000000000000000000000000000000000002D2D2D2D2D2D2D2D2D2D2D2D2D2D2D2D2D2D2D2D2D2D2D2D2D2D2D2D2D2D2D2D2D2D2D2D2D2DDC000000000000000000000000000000000000000000000000000000000000000000000000
310
00000000000000000000000000000000000000000000000000000000000000000000000000000000000000000000000000000000000000000000000000000000000000000000000000000000000000000000000000000000000000000000000000000000000000000000000000000000000000000000000000000000000000
310
0000000000000000000000000000000000000000000000000000000000000000000000000000000000000000000000000000000000002D2D2D2D2D2D2D2D2D2D2D2D2D2D2D2D2D2D2D2D2D2D2D2D2D2D2D2D2D2D2D2D2D2D2D2D2D2DDC00000000000000000000000000000000000000000000000000000000000000000000
310
00000000000000000000000000000000000000000000000000000000000000000000000000000000000000000000000000000000000000000000000000000000000000000000000000000000000000000000000000000000000000000000000000000000000000000000000000000000000000000000000000000000000000
310
00000000000000000000000000000000000000000000000000000000000000000000000000000000000000000000000000000000000000002D2D2D2D2D2D2D2D2D2D2D2D2D2D2D2D2D2D2D2D2D2D2D2D2D2D2D2D2D2D2D2D2D2D2D2D2D2DDC0000000000000000000000000000000000000000000000000000000000000000
310
00000000000000000000000000000000000000000000000000000000000000000000000000000000000000000000000000000000000000000000000000000000000000000000000000000000000000000000000000000000000000000000000000000000000000000000000000000000000000000000000000000000000000
310
000000000000000000000000000000000000000000000000000000000000000000000000000000000000000000000000000000000000000000002D2D2D2D2D2D2D2D2D2D2D2D2D2D2D2D2D2D2D2D2D2D2D2D2D2D2D2D2D2D2D2D2D2D2D2D2D2DDC000000000000000000000000000000000000000000000000000000000000
310
00000000000000000000000000000000000000000000000000000000000000000000000000000000000000000000000000000000000000000000000000000000000000000000000000000000000000000000000000000000000000000000000000000000000000000000000000000000000000000000000000000000000000
310
0000000000000000000000000000000000000000000000000000000000000000000000000000000000000000000000000000000000000000000000002D2D2D2D2D2D2D2D2D2D2D2D2D2D2D2D2D2D2D2D2D2D2D2D2D2D2D2D2D2D2D2D2D2D2D2D2D2DDC00000000000000000000000000000000000000000000000000000000
310
00000000000000000000000000000000000000000000000000000000000000000000000000000000000000000000000000000000000000000000000000000000000000000000000000000000000000000000000000000000000000000000000000000000000000000000000000000000000000000000000000000000000000
310
00000000000000000000000000000000000000000000000000000000000000000000000000000000000000000000000000000000000000000000000000002D2D2D2D2D2D2D2D2D2D2D2D2D2D2D2D2D2D2D2D2D2D2D2D2D2D2D2D2D2D2D2D2D2D2D2D2D2DDC0000000000000000000000000000000000000000000000000000
310
00000000000000000000000000000000000000000000000000000000000000000000000000000000000000000000000000000000000000000000000000000000000000000000000000000000000000000000000000000000000000000000000000000000000000000000000000000000000000000000000000000000000000
310
000000000000000000000000000000000000000000000000000000000000000000000000000000000000000000000000000000000000000000000000000000002D2D2D2D2D2D2D2D2D2D2D2D2D2D2D2D2D2D2D2D2D2D2D2D2D2D2D2D2D2D2D2D2D2D2D2D2D2DDC000000000000000000000000000000000000000000000000
310
00000000000000000000000000000000000000000000000000000000000000000000000000000000000000000000000000000000000000000000000000000000000000000000000000000000000000000000000000000000000000000000000000000000000000000000000000000000000000000000000000000000000000
310
0000000000000000000000000000000000000000000000000000000000000000000000000000000000000000000000000000000000000000000000000000000000002D2D2D2D2D2D2D2D2D2D2D2D2D2D2D2D2D2D2D2D2D2D2D2D2D2D2D2D2D2D2D2D2D2D2D2D2D2DDC00000000000000000000000000000000000000000000
310
00000000000000000000000000000000000000000000000000000000000000000000000000000000000000000000000000000000000000000000000000000000000000000000000000000000000000000000000000000000000000000000000000000000000000000000000000000000000000000000000000000000000000
310
00000000000000000000000000000000000000000000000000000000000000000000000000000000000000000000000000000000000000000000000000000000000000002D2D2D2D2D2D2D2D2D2D2D2D2D2D2D2D2D2D2D2D2D2D2D2D2D2D2D2D2D2D2D2D2D2D2D2D2D2DDC0000000000000000000000000000000000000000
310
00000000000000000000000000000000000000000000000000000000000000000000000000000000000000000000000000000000000000000000000000000000000000000000000000000000000000000000000000000000000000000000000000000000000000000000000000000000000000000000000000000000000000
310
000000000000000000000000000000000000000000000000000000000000000000000000000000000000000000000000000000000000000000000000000000000000000000002D2D2D2D2D2D2D2D2D2D2D2D2D2D2D2D2D2D2D2D2D2D2D2D2D2D2D2D2D2D2D2D2D2D2D2D2D2DDC000000000000000000000000000000000000
310
00000000000000000000000000000000000000000000000000000000000000000000000000000000000000000000000000000000000000000000000000000000000000000000000000000000000000000000000000000000000000000000000000000000000000000000000000000000000000000000000000000000000000
310
0000000000000000000000000000000000000000000000000000000000000000000000000000000000000000000000000000000000000000000000000000000000000000000000002D2D2D2D2D2D2D2D2D2D2D2D2D2D2D2D2D2D2D2D2D2D2D2D2D2D2D2D2D2D2D2D2D2D2D2D2D2DDC00000000000000000000000000000000
310
00000000000000000000000000000000000000000000000000000000000000000000000000000000000000000000000000000000000000000000000000000000000000000000000000000000000000000000000000000000000000000000000000000000000000000000000000000000000000000000000000000000000000
310
00000000000000000000000000000000000000000000000000000000000000000000000000000000000000000000000000000000000000000000000000000000000000000000000000002D2D2D2D2D2D2D2D2D2D2D2D2D2D2D2D2D2D2D2D2D2D2D2D2D2D2D2D2D2D2D2D2D2D2D2D2D2DDC0000000000000000000000000000
310
00000000000000000000000000000000000000000000000000000000000000000000000000000000000000000000000000000000000000000000000000000000000000000000000000000000000000000000000000000000000000000000000000000000000000000000000000000000000000000000000000000000000000
310
000000000000000000000000000000000000000000000000000000000000000000000000000000000000000000000000000000000000000000000000000000000000000000000000000000002D2D2D2D2D2D2D2D2D2D2D2D2D2D2D2D2D2D2D2D2D2D2D2D2D2D2D2D2D2D2D2D2D2D2D2D2D2DDC000000000000000000000000
310
00000000000000000000000000000000000000000000000000000000000000000000000000000000000000000000000000000000000000000000000000000000000000000000000000000000000000000000000000000000000000000000000000000000000000000000000000000000000000000000000000000000000000
310
0000000000000000000000000000000000000000000000000000000000000000000000000000000000000000000000000000000000000000000000000000000000000000000000000000000000002D2D2D2D2D2D2D2D2D2D2D2D2D2D2D2D2D2D2D2D2D2D2D2D2D2D2D2D2D2D2D2D2D2D2D2D2D2DDC00000000000000000000
310
00000000000000000000000000000000000000000000000000000000000000000000000000000000000000000000000000000000000000000000000000000000000000000000000000000000000000000000000000000000000000000000000000000000000000000000000000000000000000000000000000000000000000
310
00000000000000000000000000000000000000000000000000000000000000000000000000000000000000000000000000000000000000000000000000000000000000000000000000000000000000002D2D2D2D2D2D2D2D2D2D2D2D2D2D2D2D2D2D2D2D2D2D2D2D2D2D2D2D2D2D2D2D2D2D2D2D2D2DDC0000000000000000
310
00000000000000000000000000000000000000000000000000000000000000000000000000000000000000000000000000000000000000000000000000000000000000000000000000000000000000000000000000000000000000000000000000000000000000000000000000000000000000000000000000000000000000
310
000000000000000000000000000000000000000000000000000000000000000000000000000000000000000000000000000000000000000000000000000000000000000000000000000000000000000000002D2D2D2D2D2D2D2D2D2D2D2D2D2D2D2D2D2D2D2D2D2D2D2D2D2D2D2D2D2D2D2D2D2D2D2D2D2DDC000000000000
310
00000000000000000000000000000000000000000000000000000000000000000000000000000000000000000000000000000000000000000000000000000000000000000000000000000000000000000000000000000000000000000000000000000000000000000000000000000000000000000000000000000000000000
310
0000000000000000000000000000000000000000000000000000000000000000000000000000000000000000000000000000000000000000000000000000000000000000000000000000000000000000000000002D2D2D2D2D2D2D2D2D2D2D2D2D2D2D2D2D2D2D2D2D2D2D2D2D2D2D2D2D2D2D2D2D2D2D2D2D2DDC00000000
310
00000000000000000000000000000000000000000000000000000000000000000000000000000000000000000000000000000000000000000000000000000000000000000000000000000000000000000000000000000000000000000000000000000000000000000000000000000000000000000000000000000000000000
310
00000000000000000000000000000000000000000000000000000000000000000000000000000000000000000000000000000000000000000000000000000000000000000000000000000000000000000000000000002D2D2D2D2D2D2D2D2D2D2D2D2D2D2D2D2D2D2D2D2D2D2D2D2D2D2D2D2D2D2D2D2D2D2D2D2D2DDC0000
310
00000000000000000000000000000000000000000000000000000000000000000000000000000000000000000000000000000000000000000000000000000000000000000000000000000000000000000000000000000000000000000000000000000000000000000000000000000000000000000000000000000000000000
310
000000000000000000000000000000000000000000000000000000000000000000000000000000000000000000000000000000000000000000000000000000000000000000000000000000000000000000000000000000002D2D2D2D2D2D2D2D2D2D2D2D2D2D2D2D2D2D2D2D2D2D2D2D2D2D2D2D2D2D2D2D2D2D2D2D2D2DDC
310
00000000000000000000000000000000000000000000000000000000000000000000000000000000000000000000000000000000000000000000000000000000000000000000000000000000000000000000000000000000000000000000000000000000000000000000000000000000000000000000000000000000000000
310
0000000000000000000000000000000000000000000000000000000000000000000000000000000000000000000000000000000000000000000000000000000000000000000000000000000000000000000000000000000000002D2D2D2D2D2D2D2D2D2D2D2D2D2D2D2D2D2D2D2D2D2D2D2D2D2D2D2D2D2D2D2D2D2D2D2D2D
310
2DDC0000000000000000000000000000000000000000000000000000000000000000000000000000000000000000000000000000000000000000000000000000000000000000000000000000000000000000000000000000000000000000000000000000000000000000000000000000000000000000000000000000000000
310
00000000000000000000000000000000000000000000000000000000000000000000000000000000000000000000000000000000000000000000000000000000000000000000000000000000000000000000000000000000000000002D2D2D2D2D2D2D2D2D2D2D2D2D2D2D2D2D2D2D2D2D2D2D2D2D2D2D2D2D2D2D2D2D2D2D
310
2D2D2DDC000000000000000000000000000000000000000000000000000000000000000000000000000000000000000000000000000000000000000000000000000000000000000000000000000000000000000000000000000000000000000000000000000000000000000000000000000000000000000000000000000000
310
000000000000000000000000000000000000000000000000000000000000000000000000000000000000000000000000000000000000000000000000000000000000000000000000000000000000000000000000000000000000000000002D2D2D2D2D2D2D2D2D2D2D2D2D2D2D2D2D2D2D2D2D2D2D2D2D2D2D2D2D2D2D2D2D
310
2D2D2D2D2DDC00000000000000000000000000000000000000000000000000000000000000000000000000000000000000000000000000000000000000000000000000000000000000000000000000000000000000000000000000000000000000000000000000000000000000000000000000000000000000000000000000
310
0000000000000000000000000000000000000000000000000000000000000000000000000000000000000000000000000000000000000000000000000000000000000000000000000000000000000000000000000000000000000000000000002D2D2D2D2D2D2D2D2D2D2D2D2D2D2D2D2D2D2D2D2D2D2D2D2D2D2D2D2D2D2D
310
2D2D2D2D2D2D2DDC0000000000000000000000000000000000000000000000000000000000000000000000000000000000000000000000000000000000000000000000000000000000000000000000000000000000000000000000000000000000000000000000000000000000000000000000000000000000000000000000
310
00000000000000000000000000000000000000000000000000000000000000000000000000000000000000000000000000000000000000000000000000000000000000000000000000000000000000000000000000000000000000000000000000002D2D2D2D2D2D2D2D2D2D2D2D2D2D2D2D2D2D2D2D2D2D2D2D2D2D2D2D2D
310
2D2D2D2D2D2D2D2D2DDC000000000000000000000000000000000000000000000000000000000000000000000000000000000000000000000000000000000000000000000000000000000000000000000000000000000000000000000000000000000000000000000000000000000000000000000000000000000000000000
310
000000000000000000000000000000000000000000000000000000000000000000000000000000000000000000000000000000000000000000000000000000000000000000000000000000000000000000000000000000000000000000000000000000002D2D2D2D2D2D2D2D2D2D2D2D2D2D2D2D2D2D2D2D2D2D2D2D2D2D2D
310
2D2D2D2D2D2D2D2D2D2D2DDC00000000000000000000000000000000000000000000000000000000000000000000000000000000000000000000000000000000000000000000000000000000000000000000000000000000000000000000000000000000000000000000000000000000000000000000000000000000000000
310
0000000000000000000000000000000000000000000000000000000000000000000000000000000000000000000000000000000000000000000000000000000000000000000000000000000000000000000000000000000000000000000000000000000000002D2D2D2D2D2D2D2D2D2D2D2D2D2D2D2D2D2D2D2D2D2D2D2D2D
310
2D2D2D2D2D2D2D2D2D2D2D2D2DDC0000000000000000000000000000000000000000000000000000000000000000000000000000000000000000000000000000000000000000000000000000000000000000000000000000000000000000000000000000000000000000000000000000000000000000000000000000000000
310
00000000000000000000000000000000000000000000000000000000000000000000000000000000000000000000000000000000000000000000000000000000000000000000000000000000000000000000000000000000000000000000000000000000000000002D2D2D2D2D2D2D2D2D2D2D2D2D2D2D2D2D2D2D2D2D2D2D
310
2D2D2D2D2D2D2D2D2D2D2D2D2D2D2DDC000000000000000000000000000000000000000000000000000000000000000000000000000000000000000000000000000000000000000000000000000000000000000000000000000000000000000000000000000000000000000000000000000000000000000000000000000000
310
000000000000000000000000000000000000000000000000000000000000000000000000000000000000000000000000000000000000000000000000000000000000000000000000000000000000000000000000000000000000000000000000000000000000000000002D2D2D2D2D2D2D2D2D2D2D2D2D2D2D2D2D2D2D2D2D
310
2D2D2D2D2D2D2D2D2D2D2D2D2D2D2D2D2DDC00000000000000000000000000000000000000000000000000000000000000000000000000000000000000000000000000000000000000000000000000000000000000000000000000000000000000000000000000000000000000000000000000000000000000000000000000
310
0000000000000000000000000000000000000000000000000000000000000000000000000000000000000000000000000000000000000000000000000000000000000000000000000000000000000000000000000000000000000000000000000000000000000000000000002D2D2D2D2D2D2D2D2D2D2D2D2D2D2D2D2D2D2D
310
2D2D2D2D2D2D2D2D2D2D2D2D2D2D2D2D2D2D2DDC0000000000000000000000000000000000000000000000000000000000000000000000000000000000000000000000000000000000000000000000000000000000000000000000000000000000000000000000000000000000000000000000000000000000000000000000
310
00000000000000000000000000000000000000000000000000000000000000000000000000000000000000000000000000000000000000000000000000000000000000000000000000000000000000000000000000000000000000000000000000000000000000000000000000002D2D2D2D2D2D2D2D2D2D2D2D2D2D2D2D2D
310
2D2D2D2D2D2D2D2D2D2D2D2D2D2D2D2D2D2D2D2D2DDC000000000000000000000000000000000000000000000000000000000000000000000000000000000000000000000000000000000000000000000000000000000000000000000000000000000000000000000000000000000000000000000000000000000000000000
310
000000000000000000000000000000000000000000000000000000000000000000000000000000000000000000000000000000000000000000000000000000000000000000000000000000000000000000000000000000000000000000000000000000000000000000000000000000002D2D2D2D2D2D2D2D2D2D2D2D2D2D2D
310
2D2D2D2D2D2D2D2D2D2D2D2D2D2D2D2D2D2D2D2D2D2D2DDC00000000000000000000000000000000000000000000000000000000000000000000000000000000000000000000000000000000000000000000000000000000000000000000000000000000000000000000000000000000000000000000000000000000000000
310
0000000000000000000000000000000000000000000000000000000000000000000000000000000000000000000000000000000000000000000000000000000000000000000000000000000000000000000000000000000000000000000000000000000000000000000000000000000000002D2D2D2D2D2D2D2D2D2D2D2D2D
310
2D2D2D2D2D2D2D2D2D2D2D2D2D2D2D2D2D2D2D2D2D2D2D2D2D2D0000000000000000000000000000000000000000000000000000000000000000000000000000000000000000000000000000000000000000000000000000000000000000000000000000000000000000000000000000000000000000000000000000000000
310
0000000000000000000000000000000000000000000000000000000000000000000000000000000000000000000000000000000000000000000000000000000000000000000000000000000000000000000000000000000000000000000000000000000000000000000000000000000000000000DCDCDCDCDCDCDCDCDCDCDC
310
DCDCDCDCDCDCDCDCDCDCDCDCDCDCDCDCDCDCDCDCDCDCDCDCDCDCDCDC000000000000000000000000000000000000000000000000000000000000000000000000000000000000000000000000000000000000000000000000000000000000000000000000000000000000000000000000000000000000000000000000000000
310
00000000000000000000000000000000000000000000000000000000000000000000000000000000000000000000000000000000000000000000000000000000000000000000000000000000000000000000000000000000000000000000000000000000000000000000000000000000000000000000000000000000000000
310
00000000000000000000000000000000000000000000000000000000000000000000000000000000000000000000000000000000000000000000000000000000000000000000000000000000000000000000000000000000000000000000000000000000000000000000000000000000000000000000000000000000000000
310
00000000000000000000000000000000000000000000000000000000000000000000000000000000000000000000000000000000000000000000000000000000000000000000000000000000000000000000000000000000000000000000000000000000000000000000000000000000000000000000000000000000000000
310
00000000000000000000000000000000000000000000000000000000000000000000000000000000000000000000000000000000000000000000000000000000000000000000000000000000000000000000000000000000000000000000000000000000000000000000000000000000000000000000000000000000000000
310
00000000000000000000000000000000000000000000000000000000000000000000000000000000000000000000000000000000000000000000000000000000000000000000000000000000000000000000000000000000000000000000000000000000000000000000000000000000000000000000000000000000000000
310
00000000000000000000000000000000000000000000000000000000000000000000000000000000000000000000000000000000000000000000000000000000000000000000000000000000000000000000000000000000000000000000000000000000000000000000000000000000000000000000000000000000000000
310
00000000000000000000000000000000000000000000000000000000000000000000000000000000000000000000000000000000000000000000000000000000000000000000000000000000000000000000000000000000000000000000000000000000000000000000000000000000000000000000000000000000000000
310
00000000000000000000000000000000000000000000000000000000000000000000000000000000000000000000000000000000000000000000000000000000000000000000000000000000000000000000000000000000000000000000000000000000000000000000000000000000000000000000000000000000000000
310
00000000000000000000000000000000000000000000000000000000000000000000000000000000000000000000000000000000000000000000000000000000000000000000000000000000000000000000000000000000000000000000000000000000000000000000000000000000000000000000000000000000000000
310
00000000000000000000000000000000000000000000000000000000000000000000000000000000000000000000000000000000000000000000000000000000000000000000000000000000000000000000000000000000000000000000000000000000000000000000000000000000000000000000000000000000000000
310
00000000000000000000000000000000000000000000000000000000000000000000000000000000000000000000000000000000000000000000000000000000000000000000000000000000000000000000000000000000000000000000000000000000000000000000000000000000000000000000000000000000000000
310
00000000000000000000000000000000000000000000000000000000000000000000000000000000000000000000000000000000000000000000000000000000000000000000000000000000000000000000000000000000000000000000000000000000000000000000000000000000000000000000000000000000000000
310
00000000000000000000000000000000000000000000000000000000000000000000000000000000000000000000000000000000000000000000000000000000000000000000000000000000000000000000000000000000000000000000000000000000000000000000000000000000000000000000000000000000000000
310
00000000000000000000000000000000000000000000000000000000000000000000000000000000000000000000000000000000000000000000000000000000000000000000000000000000000000000000000000000000000000000000000000000000000000000000000000000000000000000000000000000000000000
310
00000000000000000000000000000000000000000000000000000000000000000000000000000000000000000000000000000000000000000000000000000000000000000000000000000000000000000000000000000000000000000000000000000000000000000000000000000000000000000000000000000000000000
310
00000000000000000000000000000000000000000000000000000000000000000000000000000000000000000000000000000000000000000000000000000000000000000000000000000000000000000000000000000000000000000000000000000000000000000000000000000000000000000000000000000000000000
310
00000000000000000000000000000000000000000000000000000000000000000000000000000000000000000000000000000000000000000000000000000000000000000000000000000000000000000000000000000000000000000000000000000000000000000000000000000000000000000000000000000000000000
310
00000000000000000000000000000000000000000000000000000000000000000000000000000000000000000000000000000000000000000000000000000000000000000000000000000000000000000000000000000000000000000000000000000000000000000000000000000000000000000000000000000000000000
310
00000000000000000000000000000000000000000000000000000000000000000000000000000000000000000000000000000000000000000000000000000000000000000000000000000000000000000000000000000000000000000000000000000000000000000000000000000000000000000000000000000000000000
310
00000000000000000000000000000000000000000000000000000000000000000000000000000000000000000000000000000000000000000000000000000000000000000000000000000000000000000000000000000000000000000000000000000000000000000000000000000000000000000000000000000000000000
310
00000000000000000000000000000000000000000000000000000000000000000000000000000000000000000000000000000000000000000000000000000000000000000000000000000000000000000000000000000000000000000000000000000000000000000000000000000000000000000000000000000000000000
310
00000000000000000000000000000000000000000000000000000000000000000000000000000000000000000000000000000000000000000000000000000000000000000000000000000000000000000000000000000000000000000000000000000000000000000000000000000000000000000000000000000000000000
310
00000000000000000000000000000000000000000000000000000000000000000000000000000000000000000000000000000000000000000000000000000000000000000000000000000000000000000000000000000000000000000000000000000000000000000000000000000000000000000000000000000000000000
310
00000000000000000000000000000000000000000000000000000000000000000000000000000000000000000000000000000000000000000000000000000000000000000000000000000000000000000000000000000000000000000000000000000000000000000000000000000000000000000000000000000000000000
310
00000000000000000000000000000000000000000000000000000000000000000000000000000000000000000000000000000000000000000000000000000000000000000000000000000000000000000000000000000000000000000000000000000000000000000000000000000000000000000000000000000000000000
310
00000000000000000000000000000000000000000000000000000000000000000000000000000000000000000000000000000000000000000000000000000000000000000000000000000000000000000000000000000000000000000000000000000000000000000000000000000000000000000000000000000000000000
310
00000000000000000000000000000000000000000000000000000000000000000000000000000000000000000000000000000000000000000000000000000000000000000000000000000000000000000000000000000000000000000000000000000000000000000000000000000000000000000000000000000000000000
310
00000000000000000000000000000000000000000000000000000000000000000000000000000000000000000000000000000000000000000000000000000000000000000000000000000000000000000000000000000000000000000000000000000000000000000000000000000000000000000000000000000000000000
310
00000000000000000000000000000000000000000000000000000000000000000000000000000000000000000000000000000000000000000000000000000000000000000000000000000000000000000000000000000000000000000000000000000000000000000000000000000000000000000000000000000000000000
310
00000000000000000000000000000000000000000000000000000000000000000000000000000000000000000000000000000000000000000000000000000000000000000000000000000000000000000000000000000000000000000000000000000000000000000000000000000000000000000000000000000000000000
310
00000000000000000000000000000000000000000000000000000000000000000000000000000000000000000000000000000000000000000000000000000000000000000000000000000000000000000000000000000000000000000000000000000000000000000000000000000000000000000000000000000000000000
310
00000000000000000000000000000000000000000000000000000000000000000000000000000000000000000000000000000000000000000000000000000000000000000000000000000000000000000000000000000000000000000000000000000000000000000000000000000000000000000000000000000000000000
310
0000000000000000000000000000000000000000000000000000000000000000000000000000000000000000000000000000000000000000000000000000000000000000000000000000000000000000000000000000000000000000000000000000000000
  0
XRECORD
  5
9EF11
102
{ACAD_REACTORS
330
1A
102
}
330
1A
100
AcDbXrecord
280
     1
102
MATERIAL
148
0.0
149
0.0
149
0.0
 93
        0
 94
      127
282
     0
 72
     0
 77
     0
171
     0
175
     0
179
     0
273
     0
  0
XRECORD
  5
1C
102
{ACAD_REACTORS
330
1A
102
}
330
1A
100
AcDbXrecord
280
     1
270
     1
271
     1
  0
XRECORD
  5
1B
102
{ACAD_REACTORS
330
1A
102
}
330
1A
100
AcDbXrecord
280
     1
270
     1
271
     1
  0
XRECORD
  5
1F
102
{ACAD_REACTORS
330
1A
102
}
330
1A
100
AcDbXrecord
280
     1
270
     1
271
     1
  0
XRECORD
  5
1E
102
{ACAD_REACTORS
330
1A
102
}
330
1A
100
AcDbXrecord
280
     1
270
     1
271
     1
  0
XRECORD
  5
20
102
{ACAD_REACTORS
330
1A
102
}
330
1A
100
AcDbXrecord
280
     1
270
     1
271
     1
  0
XRECORD
  5
1D
102
{ACAD_REACTORS
330
1A
102
}
330
1A
100
AcDbXrecord
280
     1
270
     1
271
     1
  0
XRECORD
  5
9EF10
102
{ACAD_REACTORS
330
12
102
}
330
12
100
AcDbXrecord
280
     1
102
MATERIAL
148
0.0
149
0.0
149
0.0
 93
        0
 94
      127
282
     0
 72
     0
 77
     0
171
     0
175
     0
179
     0
273
     0
  0
XRECORD
  5
14
102
{ACAD_REACTORS
330
12
102
}
330
12
100
AcDbXrecord
280
     1
270
     1
271
     1
  0
XRECORD
  5
13
102
{ACAD_REACTORS
330
12
102
}
330
12
100
AcDbXrecord
280
     1
270
     1
271
     1
  0
XRECORD
  5
17
102
{ACAD_REACTORS
330
12
102
}
330
12
100
AcDbXrecord
280
     1
270
     1
271
     1
  0
XRECORD
  5
16
102
{ACAD_REACTORS
330
12
102
}
330
12
100
AcDbXrecord
280
     1
270
     1
271
     1
  0
XRECORD
  5
18
102
{ACAD_REACTORS
330
12
102
}
330
12
100
AcDbXrecord
280
     1
270
     1
271
     1
  0
XRECORD
  5
15
102
{ACAD_REACTORS
330
12
102
}
330
12
100
AcDbXrecord
280
     1
270
     1
271
     1
  0
XRECORD
  5
9EF12
102
{ACAD_REACTORS
330
22
102
}
330
22
100
AcDbXrecord
280
     1
102
MATERIAL
148
0.0
149
0.0
149
0.0
 93
        0
 94
      127
282
     0
 72
     0
 77
     0
171
     0
175
     0
179
     0
273
     0
  0
XRECORD
  5
24
102
{ACAD_REACTORS
330
22
102
}
330
22
100
AcDbXrecord
280
     1
270
     1
271
     1
  0
XRECORD
  5
23
102
{ACAD_REACTORS
330
22
102
}
330
22
100
AcDbXrecord
280
     1
270
     1
271
     1
  0
XRECORD
  5
27
102
{ACAD_REACTORS
330
22
102
}
330
22
100
AcDbXrecord
280
     1
270
     1
271
     1
  0
XRECORD
  5
26
102
{ACAD_REACTORS
330
22
102
}
330
22
100
AcDbXrecord
280
     1
270
     1
271
     1
  0
XRECORD
  5
28
102
{ACAD_REACTORS
330
22
102
}
330
22
100
AcDbXrecord
280
     1
270
     1
271
     1
  0
XRECORD
  5
25
102
{ACAD_REACTORS
330
22
102
}
330
22
100
AcDbXrecord
280
     1
270
     1
271
     1
  0
CELLSTYLEMAP
  5
A015E
102
{ACAD_REACTORS
330
9EF0C
102
}
330
9EF0C
100
AcDbCellStyleMap
 90
        3
300
CELLSTYLE
  1
TABLEFORMAT_BEGIN
 90
        5
170
     1
 91
        0
 92
    32768
 62
   257
 93
        1
300
CONTENTFORMAT
  1
CONTENTFORMAT_BEGIN
 90
        0
 91
        0
 92
      512
 93
        0
300

 40
0.0
140
1.0
 94
        5
 62
     0
340
55
144
0.25
309
CONTENTFORMAT_END
171
     1
301
MARGIN
  1
CELLMARGIN_BEGIN
 40
0.06
 40
0.06
 40
0.06
 40
0.06
 40
0.18
 40
0.18
309
CELLMARGIN_END
 94
        6
 95
        1
302
GRIDFORMAT
  1
GRIDFORMAT_BEGIN
 90
        0
 91
        1
 62
     0
 92
       -2
340
0
 93
        0
 40
0.045
309
GRIDFORMAT_END
 95
        2
302
GRIDFORMAT
  1
GRIDFORMAT_BEGIN
 90
        0
 91
        1
 62
     0
 92
       -2
340
0
 93
        0
 40
0.045
309
GRIDFORMAT_END
 95
        4
302
GRIDFORMAT
  1
GRIDFORMAT_BEGIN
 90
        0
 91
        1
 62
     0
 92
       -2
340
0
 93
        0
 40
0.045
309
GRIDFORMAT_END
 95
        8
302
GRIDFORMAT
  1
GRIDFORMAT_BEGIN
 90
        0
 91
        1
 62
     0
 92
       -2
340
0
 93
        0
 40
0.045
309
GRIDFORMAT_END
 95
       16
302
GRIDFORMAT
  1
GRIDFORMAT_BEGIN
 90
        0
 91
        1
 62
     0
 92
       -2
340
0
 93
        0
 40
0.045
309
GRIDFORMAT_END
 95
       32
302
GRIDFORMAT
  1
GRIDFORMAT_BEGIN
 90
        0
 91
        1
 62
     0
 92
       -2
340
0
 93
        0
 40
0.045
309
GRIDFORMAT_END
309
TABLEFORMAT_END
  1
CELLSTYLE_BEGIN
 90
        1
 91
        1
300
_TITLE
309
CELLSTYLE_END
300
CELLSTYLE
  1
TABLEFORMAT_BEGIN
 90
        5
170
     1
 91
        0
 92
        0
 62
   257
 93
        1
300
CONTENTFORMAT
  1
CONTENTFORMAT_BEGIN
 90
        0
 91
        0
 92
      512
 93
        0
300

 40
0.0
140
1.0
 94
        5
 62
     0
340
55
144
0.18
309
CONTENTFORMAT_END
171
     1
301
MARGIN
  1
CELLMARGIN_BEGIN
 40
0.06
 40
0.06
 40
0.06
 40
0.06
 40
0.18
 40
0.18
309
CELLMARGIN_END
 94
        6
 95
        1
302
GRIDFORMAT
  1
GRIDFORMAT_BEGIN
 90
        0
 91
        1
 62
     0
 92
       -2
340
0
 93
        0
 40
0.045
309
GRIDFORMAT_END
 95
        2
302
GRIDFORMAT
  1
GRIDFORMAT_BEGIN
 90
        0
 91
        1
 62
     0
 92
       -2
340
0
 93
        0
 40
0.045
309
GRIDFORMAT_END
 95
        4
302
GRIDFORMAT
  1
GRIDFORMAT_BEGIN
 90
        0
 91
        1
 62
     0
 92
       -2
340
0
 93
        0
 40
0.045
309
GRIDFORMAT_END
 95
        8
302
GRIDFORMAT
  1
GRIDFORMAT_BEGIN
 90
        0
 91
        1
 62
     0
 92
       -2
340
0
 93
        0
 40
0.045
309
GRIDFORMAT_END
 95
       16
302
GRIDFORMAT
  1
GRIDFORMAT_BEGIN
 90
        0
 91
        1
 62
     0
 92
       -2
340
0
 93
        0
 40
0.045
309
GRIDFORMAT_END
 95
       32
302
GRIDFORMAT
  1
GRIDFORMAT_BEGIN
 90
        0
 91
        1
 62
     0
 92
       -2
340
0
 93
        0
 40
0.045
309
GRIDFORMAT_END
309
TABLEFORMAT_END
  1
CELLSTYLE_BEGIN
 90
        2
 91
        1
300
_HEADER
309
CELLSTYLE_END
300
CELLSTYLE
  1
TABLEFORMAT_BEGIN
 90
        5
170
     1
 91
        0
 92
        0
 62
   257
 93
        1
300
CONTENTFORMAT
  1
CONTENTFORMAT_BEGIN
 90
        0
 91
        0
 92
      512
 93
        0
300

 40
0.0
140
1.0
 94
        2
 62
     0
340
55
144
0.18
309
CONTENTFORMAT_END
171
     1
301
MARGIN
  1
CELLMARGIN_BEGIN
 40
0.06
 40
0.06
 40
0.06
 40
0.06
 40
0.18
 40
0.18
309
CELLMARGIN_END
 94
        6
 95
        1
302
GRIDFORMAT
  1
GRIDFORMAT_BEGIN
 90
        0
 91
        1
 62
     0
 92
       -2
340
0
 93
        0
 40
0.045
309
GRIDFORMAT_END
 95
        2
302
GRIDFORMAT
  1
GRIDFORMAT_BEGIN
 90
        0
 91
        1
 62
     0
 92
       -2
340
0
 93
        0
 40
0.045
309
GRIDFORMAT_END
 95
        4
302
GRIDFORMAT
  1
GRIDFORMAT_BEGIN
 90
        0
 91
        1
 62
     0
 92
       -2
340
0
 93
        0
 40
0.045
309
GRIDFORMAT_END
 95
        8
302
GRIDFORMAT
  1
GRIDFORMAT_BEGIN
 90
        0
 91
        1
 62
     0
 92
       -2
340
0
 93
        0
 40
0.045
309
GRIDFORMAT_END
 95
       16
302
GRIDFORMAT
  1
GRIDFORMAT_BEGIN
 90
        0
 91
        1
 62
     0
 92
       -2
340
0
 93
        0
 40
0.045
309
GRIDFORMAT_END
 95
       32
302
GRIDFORMAT
  1
GRIDFORMAT_BEGIN
 90
        0
 91
        1
 62
     0
 92
       -2
340
0
 93
        0
 40
0.045
309
GRIDFORMAT_END
309
TABLEFORMAT_END
  1
CELLSTYLE_BEGIN
 90
        3
 91
        2
300
_DATA
309
CELLSTYLE_END
  0
XRECORD
  5
A0196
102
{ACAD_REACTORS
330
9EF0C
102
}
330
9EF0C
100
AcDbXrecord
280
     1
102
ACAD_ROUNDTRIP_PRE2007_TABLESTYLE
 90
      512
 91
        0
  1

 92
      512
 93
        0
  2

 94
      512
 95
        0
  3

  0
XRECORD
  5
A0171
102
{ACAD_REACTORS
330
A0170
102
}
330
A0170
100
AcDbXrecord
280
     1
102
RTVSPropertyOp0
 70
     1
102
RTVSPropertyOp1
 70
     1
102
RTVSPropertyOp2
 70
     1
102
RTVSPropertyOp3
 70
     1
102
RTVSPropertyOp4
 70
     1
102
RTVSPropertyOp5
 70
     1
102
RTVSPropertyOp6
 70
     1
102
RTVSPropertyOp7
 70
     1
102
RTVSPropertyOp8
 70
     1
102
RTVSPropertyOp9
 70
     1
102
RTVSPropertyOp10
 70
     1
102
RTVSPropertyOp11
 70
     1
102
RTVSPropertyOp12
 70
     1
102
RTVSPropertyOp13
 70
     1
102
RTVSPropertyOp14
 70
     1
102
RTVSPropertyOp15
 70
     1
102
RTVSPropertyOp16
 70
     1
102
RTVSPropertyOp17
 70
     1
102
RTVSPropertyOp18
 70
     1
102
RTVSPropertyOp19
 70
     1
102
RTVSPropertyOp20
 70
     1
102
RTVSPropertyOp21
 70
     1
102
RTVSPropertyOp22
 70
     1
102
RTVSPropertyOp23
 70
     1
102
RTVSPropertyOp24
 70
     1
102
RTVSPropertyOp25
 70
     1
102
RTVSPropertyOp26
 70
     1
102
RTVSPropertyOp27
 70
     1
102
RTVSPropertyOp28
 70
     1
102
RTVSPropertyOp29
 70
     1
102
RTVSPropertyOp30
 70
     1
102
RTVSPropertyOp31
 70
     1
102
RTVSPropertyOp32
 70
     1
  0
XRECORD
  5
A016F
102
{ACAD_REACTORS
330
A016E
102
}
330
A016E
100
AcDbXrecord
280
     1
102
RTVSPropertyOp0
 70
     1
102
RTVSPropertyOp1
 70
     1
102
RTVSPropertyOp2
 70
     1
102
RTVSPropertyOp3
 70
     1
102
RTVSPropertyOp4
 70
     1
102
RTVSPropertyOp5
 70
     1
102
RTVSPropertyOp6
 70
     1
102
RTVSPropertyOp7
 70
     1
102
RTVSPropertyOp8
 70
     1
102
RTVSPropertyOp9
 70
     1
102
RTVSPropertyOp10
 70
     1
102
RTVSPropertyOp11
 70
     1
102
RTVSPropertyOp12
 70
     1
102
RTVSPropertyOp13
 70
     1
102
RTVSPropertyOp14
 70
     1
102
RTVSPropertyOp15
 70
     1
102
RTVSPropertyOp16
 70
     1
102
RTVSPropertyOp17
 70
     1
102
RTVSPropertyOp18
 70
     1
102
RTVSPropertyOp19
 70
     1
102
RTVSPropertyOp20
 70
     1
102
RTVSPropertyOp21
 70
     1
102
RTVSPropertyOp22
 70
     1
102
RTVSPropertyOp23
 70
     1
102
RTVSPropertyOp24
 70
     1
102
RTVSPropertyOp25
 70
     1
102
RTVSPropertyOp26
 70
     1
102
RTVSPropertyOp27
 70
     1
102
RTVSPropertyOp28
 70
     1
102
RTVSPropertyOp29
 70
     1
102
RTVSPropertyOp30
 70
     1
102
RTVSPropertyOp31
 70
     1
102
RTVSPropertyOp32
 70
     1
  0
XRECORD
  5
A017D
102
{ACAD_REACTORS
330
A017C
102
}
330
A017C
100
AcDbXrecord
280
     1
102
RTVSPropertyOp0
 70
     1
102
RTVSPropertyOp1
 70
     1
102
RTVSPropertyOp2
 70
     1
102
RTVSPropertyOp3
 70
     1
102
RTVSPropertyOp4
 70
     1
102
RTVSPropertyOp5
 70
     1
102
RTVSPropertyOp6
 70
     1
102
RTVSPropertyOp7
 70
     1
102
RTVSPropertyOp8
 70
     1
102
RTVSPropertyOp9
 70
     1
102
RTVSPropertyOp10
 70
     1
102
RTVSPropertyOp11
 70
     1
102
RTVSPropertyOp12
 70
     1
102
RTVSPropertyOp13
 70
     1
102
RTVSPropertyOp14
 70
     1
102
RTVSPropertyOp15
 70
     1
102
RTVSPropertyOp16
 70
     1
102
RTVSPropertyOp17
 70
     1
102
RTVSPropertyOp18
 70
     1
102
RTVSPropertyOp19
 70
     1
102
RTVSPropertyOp20
 70
     1
102
RTVSPropertyOp21
 70
     1
102
RTVSPropertyOp22
 70
     1
102
RTVSPropertyOp23
 70
     1
102
RTVSPropertyOp24
 70
     1
102
RTVSPropertyOp25
 70
     1
102
RTVSPropertyOp26
 70
     1
102
RTVSPropertyOp27
 70
     1
102
RTVSPropertyOp28
 70
     1
102
RTVSPropertyOp29
 70
     1
102
RTVSPropertyOp30
 70
     1
102
RTVSPropertyOp31
 70
     1
102
RTVSPropertyOp32
 70
     1
  0
XRECORD
  5
A0185
102
{ACAD_REACTORS
330
A0184
102
}
330
A0184
100
AcDbXrecord
280
     1
102
RTVSPropertyOp0
 70
     1
102
RTVSPropertyOp1
 70
     1
102
RTVSPropertyOp2
 70
     1
102
RTVSPropertyOp3
 70
     1
102
RTVSPropertyOp4
 70
     1
102
RTVSPropertyOp5
 70
     1
102
RTVSPropertyOp6
 70
     1
102
RTVSPropertyOp7
 70
     1
102
RTVSPropertyOp8
 70
     1
102
RTVSPropertyOp9
 70
     1
102
RTVSPropertyOp10
 70
     1
102
RTVSPropertyOp11
 70
     1
102
RTVSPropertyOp12
 70
     1
102
RTVSPropertyOp13
 70
     1
102
RTVSPropertyOp14
 70
     1
102
RTVSPropertyOp15
 70
     1
102
RTVSPropertyOp16
 70
     1
102
RTVSPropertyOp17
 70
     1
102
RTVSPropertyOp18
 70
     1
102
RTVSPropertyOp19
 70
     1
102
RTVSPropertyOp20
 70
     1
102
RTVSPropertyOp21
 70
     1
102
RTVSPropertyOp22
 70
     1
102
RTVSPropertyOp23
 70
     1
102
RTVSPropertyOp24
 70
     1
102
RTVSPropertyOp25
 70
     1
102
RTVSPropertyOp26
 70
     1
102
RTVSPropertyOp27
 70
     1
102
RTVSPropertyOp28
 70
     1
102
RTVSPropertyOp29
 70
     1
102
RTVSPropertyOp30
 70
     1
102
RTVSPropertyOp31
 70
     1
102
RTVSPropertyOp32
 70
     1
  0
XRECORD
  5
A0177
102
{ACAD_REACTORS
330
A0176
102
}
330
A0176
100
AcDbXrecord
280
     1
102
RTVSPropertyOp0
 70
     1
102
RTVSPropertyOp1
 70
     1
102
RTVSPropertyOp2
 70
     1
102
RTVSPropertyOp3
 70
     1
102
RTVSPropertyOp4
 70
     1
102
RTVSPropertyOp5
 70
     1
102
RTVSPropertyOp6
 70
     1
102
RTVSPropertyOp7
 70
     1
102
RTVSPropertyOp8
 70
     1
102
RTVSPropertyOp9
 70
     1
102
RTVSPropertyOp10
 70
     1
102
RTVSPropertyOp11
 70
     1
102
RTVSPropertyOp12
 70
     1
102
RTVSPropertyOp13
 70
     1
102
RTVSPropertyOp14
 70
     1
102
RTVSPropertyOp15
 70
     1
102
RTVSPropertyOp16
 70
     1
102
RTVSPropertyOp17
 70
     1
102
RTVSPropertyOp18
 70
     1
102
RTVSPropertyOp19
 70
     1
102
RTVSPropertyOp20
 70
     1
102
RTVSPropertyOp21
 70
     1
102
RTVSPropertyOp22
 70
     1
102
RTVSPropertyOp23
 70
     1
102
RTVSPropertyOp24
 70
     1
102
RTVSPropertyOp25
 70
     1
102
RTVSPropertyOp26
 70
     1
102
RTVSPropertyOp27
 70
     1
102
RTVSPropertyOp28
 70
     1
102
RTVSPropertyOp29
 70
     1
102
RTVSPropertyOp30
 70
     1
102
RTVSPropertyOp31
 70
     1
102
RTVSPropertyOp32
 70
     1
  0
XRECORD
  5
A017B
102
{ACAD_REACTORS
330
A017A
102
}
330
A017A
100
AcDbXrecord
280
     1
102
RTVSPropertyOp0
 70
     1
102
RTVSPropertyOp1
 70
     1
102
RTVSPropertyOp2
 70
     1
102
RTVSPropertyOp3
 70
     1
102
RTVSPropertyOp4
 70
     1
102
RTVSPropertyOp5
 70
     1
102
RTVSPropertyOp6
 70
     1
102
RTVSPropertyOp7
 70
     1
102
RTVSPropertyOp8
 70
     1
102
RTVSPropertyOp9
 70
     1
102
RTVSPropertyOp10
 70
     1
102
RTVSPropertyOp11
 70
     1
102
RTVSPropertyOp12
 70
     1
102
RTVSPropertyOp13
 70
     1
102
RTVSPropertyOp14
 70
     1
102
RTVSPropertyOp15
 70
     1
102
RTVSPropertyOp16
 70
     1
102
RTVSPropertyOp17
 70
     1
102
RTVSPropertyOp18
 70
     1
102
RTVSPropertyOp19
 70
     1
102
RTVSPropertyOp20
 70
     1
102
RTVSPropertyOp21
 70
     1
102
RTVSPropertyOp22
 70
     1
102
RTVSPropertyOp23
 70
     1
102
RTVSPropertyOp24
 70
     1
102
RTVSPropertyOp25
 70
     1
102
RTVSPropertyOp26
 70
     1
102
RTVSPropertyOp27
 70
     1
102
RTVSPropertyOp28
 70
     1
102
RTVSPropertyOp29
 70
     1
102
RTVSPropertyOp30
 70
     1
102
RTVSPropertyOp31
 70
     1
102
RTVSPropertyOp32
 70
     1
  0
XRECORD
  5
A0195
102
{ACAD_REACTORS
330
A0194
102
}
330
A0194
100
AcDbXrecord
280
     1
102
RTVSPropertyOp0
 70
     0
102
RTVSPropertyOp1
 70
     0
102
RTVSPropertyOp2
 70
     0
102
RTVSPropertyOp3
 70
     0
102
RTVSPropertyOp4
 70
     0
102
RTVSPropertyOp5
 70
     0
102
RTVSPropertyOp6
 70
     0
102
RTVSPropertyOp7
 70
     0
102
RTVSPropertyOp8
 70
     0
102
RTVSPropertyOp9
 70
     0
102
RTVSPropertyOp10
 70
     0
102
RTVSPropertyOp11
 70
     0
102
RTVSPropertyOp12
 70
     0
102
RTVSPropertyOp13
 70
     0
102
RTVSPropertyOp14
 70
     2
102
RTVSPropertyOp15
 70
     0
102
RTVSPropertyOp16
 70
     0
102
RTVSPropertyOp17
 70
     0
102
RTVSPropertyOp18
 70
     0
102
RTVSPropertyOp19
 70
     0
102
RTVSPropertyOp20
 70
     0
102
RTVSPropertyOp21
 70
     0
102
RTVSPropertyOp22
 70
     0
102
RTVSPropertyOp23
 70
     0
102
RTVSPropertyOp24
 70
     0
102
RTVSPropertyOp25
 70
     0
102
RTVSPropertyOp26
 70
     0
102
RTVSPropertyOp27
 70
     0
102
RTVSPropertyOp28
 70
     1
102
RTVSPropertyOp29
 70
     1
102
RTVSPropertyOp30
 70
     1
102
RTVSPropertyOp31
 70
     1
102
RTVSPropertyOp32
 70
     1
  0
XRECORD
  5
A0183
102
{ACAD_REACTORS
330
A0182
102
}
330
A0182
100
AcDbXrecord
280
     1
102
RTVSPropertyOp0
 70
     1
102
RTVSPropertyOp1
 70
     1
102
RTVSPropertyOp2
 70
     1
102
RTVSPropertyOp3
 70
     1
102
RTVSPropertyOp4
 70
     1
102
RTVSPropertyOp5
 70
     1
102
RTVSPropertyOp6
 70
     1
102
RTVSPropertyOp7
 70
     1
102
RTVSPropertyOp8
 70
     1
102
RTVSPropertyOp9
 70
     1
102
RTVSPropertyOp10
 70
     1
102
RTVSPropertyOp11
 70
     1
102
RTVSPropertyOp12
 70
     1
102
RTVSPropertyOp13
 70
     1
102
RTVSPropertyOp14
 70
     1
102
RTVSPropertyOp15
 70
     1
102
RTVSPropertyOp16
 70
     1
102
RTVSPropertyOp17
 70
     1
102
RTVSPropertyOp18
 70
     1
102
RTVSPropertyOp19
 70
     1
102
RTVSPropertyOp20
 70
     1
102
RTVSPropertyOp21
 70
     1
102
RTVSPropertyOp22
 70
     1
102
RTVSPropertyOp23
 70
     1
102
RTVSPropertyOp24
 70
     1
102
RTVSPropertyOp25
 70
     1
102
RTVSPropertyOp26
 70
     1
102
RTVSPropertyOp27
 70
     1
102
RTVSPropertyOp28
 70
     1
102
RTVSPropertyOp29
 70
     1
102
RTVSPropertyOp30
 70
     1
102
RTVSPropertyOp31
 70
     1
102
RTVSPropertyOp32
 70
     1
  0
XRECORD
  5
A0167
102
{ACAD_REACTORS
330
A0166
102
}
330
A0166
100
AcDbXrecord
280
     1
102
RTVSPropertyOp0
 70
     1
102
RTVSPropertyOp1
 70
     1
102
RTVSPropertyOp2
 70
     1
102
RTVSPropertyOp3
 70
     1
102
RTVSPropertyOp4
 70
     1
102
RTVSPropertyOp5
 70
     1
102
RTVSPropertyOp6
 70
     1
102
RTVSPropertyOp7
 70
     1
102
RTVSPropertyOp8
 70
     1
102
RTVSPropertyOp9
 70
     1
102
RTVSPropertyOp10
 70
     1
102
RTVSPropertyOp11
 70
     1
102
RTVSPropertyOp12
 70
     1
102
RTVSPropertyOp13
 70
     1
102
RTVSPropertyOp14
 70
     1
102
RTVSPropertyOp15
 70
     1
102
RTVSPropertyOp16
 70
     1
102
RTVSPropertyOp17
 70
     1
102
RTVSPropertyOp18
 70
     1
102
RTVSPropertyOp19
 70
     1
102
RTVSPropertyOp20
 70
     1
102
RTVSPropertyOp21
 70
     1
102
RTVSPropertyOp22
 70
     1
102
RTVSPropertyOp23
 70
     1
102
RTVSPropertyOp24
 70
     1
102
RTVSPropertyOp25
 70
     1
102
RTVSPropertyOp26
 70
     1
102
RTVSPropertyOp27
 70
     1
102
RTVSPropertyOp28
 70
     1
102
RTVSPropertyOp29
 70
     1
102
RTVSPropertyOp30
 70
     1
102
RTVSPropertyOp31
 70
     1
102
RTVSPropertyOp32
 70
     1
  0
XRECORD
  5
A0169
102
{ACAD_REACTORS
330
A0168
102
}
330
A0168
100
AcDbXrecord
280
     1
102
RTVSPropertyOp0
 70
     1
102
RTVSPropertyOp1
 70
     1
102
RTVSPropertyOp2
 70
     1
102
RTVSPropertyOp3
 70
     1
102
RTVSPropertyOp4
 70
     1
102
RTVSPropertyOp5
 70
     1
102
RTVSPropertyOp6
 70
     1
102
RTVSPropertyOp7
 70
     1
102
RTVSPropertyOp8
 70
     1
102
RTVSPropertyOp9
 70
     1
102
RTVSPropertyOp10
 70
     1
102
RTVSPropertyOp11
 70
     1
102
RTVSPropertyOp12
 70
     1
102
RTVSPropertyOp13
 70
     1
102
RTVSPropertyOp14
 70
     1
102
RTVSPropertyOp15
 70
     1
102
RTVSPropertyOp16
 70
     1
102
RTVSPropertyOp17
 70
     1
102
RTVSPropertyOp18
 70
     1
102
RTVSPropertyOp19
 70
     1
102
RTVSPropertyOp20
 70
     1
102
RTVSPropertyOp21
 70
     1
102
RTVSPropertyOp22
 70
     1
102
RTVSPropertyOp23
 70
     1
102
RTVSPropertyOp24
 70
     1
102
RTVSPropertyOp25
 70
     1
102
RTVSPropertyOp26
 70
     1
102
RTVSPropertyOp27
 70
     1
102
RTVSPropertyOp28
 70
     1
102
RTVSPropertyOp29
 70
     1
102
RTVSPropertyOp30
 70
     1
102
RTVSPropertyOp31
 70
     1
102
RTVSPropertyOp32
 70
     1
  0
XRECORD
  5
A016B
102
{ACAD_REACTORS
330
A016A
102
}
330
A016A
100
AcDbXrecord
280
     1
102
RTVSPropertyOp0
 70
     1
102
RTVSPropertyOp1
 70
     1
102
RTVSPropertyOp2
 70
     1
102
RTVSPropertyOp3
 70
     1
102
RTVSPropertyOp4
 70
     1
102
RTVSPropertyOp5
 70
     1
102
RTVSPropertyOp6
 70
     1
102
RTVSPropertyOp7
 70
     1
102
RTVSPropertyOp8
 70
     1
102
RTVSPropertyOp9
 70
     1
102
RTVSPropertyOp10
 70
     1
102
RTVSPropertyOp11
 70
     1
102
RTVSPropertyOp12
 70
     1
102
RTVSPropertyOp13
 70
     1
102
RTVSPropertyOp14
 70
     1
102
RTVSPropertyOp15
 70
     1
102
RTVSPropertyOp16
 70
     1
102
RTVSPropertyOp17
 70
     1
102
RTVSPropertyOp18
 70
     1
102
RTVSPropertyOp19
 70
     1
102
RTVSPropertyOp20
 70
     1
102
RTVSPropertyOp21
 70
     1
102
RTVSPropertyOp22
 70
     1
102
RTVSPropertyOp23
 70
     1
102
RTVSPropertyOp24
 70
     1
102
RTVSPropertyOp25
 70
     1
102
RTVSPropertyOp26
 70
     1
102
RTVSPropertyOp27
 70
     1
102
RTVSPropertyOp28
 70
     1
102
RTVSPropertyOp29
 70
     1
102
RTVSPropertyOp30
 70
     1
102
RTVSPropertyOp31
 70
     1
102
RTVSPropertyOp32
 70
     1
  0
XRECORD
  5
A016D
102
{ACAD_REACTORS
330
A016C
102
}
330
A016C
100
AcDbXrecord
280
     1
102
RTVSPropertyOp0
 70
     1
102
RTVSPropertyOp1
 70
     1
102
RTVSPropertyOp2
 70
     1
102
RTVSPropertyOp3
 70
     1
102
RTVSPropertyOp4
 70
     1
102
RTVSPropertyOp5
 70
     1
102
RTVSPropertyOp6
 70
     1
102
RTVSPropertyOp7
 70
     1
102
RTVSPropertyOp8
 70
     1
102
RTVSPropertyOp9
 70
     1
102
RTVSPropertyOp10
 70
     1
102
RTVSPropertyOp11
 70
     1
102
RTVSPropertyOp12
 70
     1
102
RTVSPropertyOp13
 70
     1
102
RTVSPropertyOp14
 70
     1
102
RTVSPropertyOp15
 70
     1
102
RTVSPropertyOp16
 70
     1
102
RTVSPropertyOp17
 70
     1
102
RTVSPropertyOp18
 70
     1
102
RTVSPropertyOp19
 70
     1
102
RTVSPropertyOp20
 70
     1
102
RTVSPropertyOp21
 70
     1
102
RTVSPropertyOp22
 70
     1
102
RTVSPropertyOp23
 70
     1
102
RTVSPropertyOp24
 70
     1
102
RTVSPropertyOp25
 70
     1
102
RTVSPropertyOp26
 70
     1
102
RTVSPropertyOp27
 70
     1
102
RTVSPropertyOp28
 70
     1
102
RTVSPropertyOp29
 70
     1
102
RTVSPropertyOp30
 70
     1
102
RTVSPropertyOp31
 70
     1
102
RTVSPropertyOp32
 70
     1
  0
XRECORD
  5
A0175
102
{ACAD_REACTORS
330
A0174
102
}
330
A0174
100
AcDbXrecord
280
     1
102
RTVSPropertyOp0
 70
     1
102
RTVSPropertyOp1
 70
     1
102
RTVSPropertyOp2
 70
     1
102
RTVSPropertyOp3
 70
     1
102
RTVSPropertyOp4
 70
     1
102
RTVSPropertyOp5
 70
     1
102
RTVSPropertyOp6
 70
     1
102
RTVSPropertyOp7
 70
     1
102
RTVSPropertyOp8
 70
     1
102
RTVSPropertyOp9
 70
     1
102
RTVSPropertyOp10
 70
     1
102
RTVSPropertyOp11
 70
     1
102
RTVSPropertyOp12
 70
     1
102
RTVSPropertyOp13
 70
     1
102
RTVSPropertyOp14
 70
     1
102
RTVSPropertyOp15
 70
     1
102
RTVSPropertyOp16
 70
     1
102
RTVSPropertyOp17
 70
     1
102
RTVSPropertyOp18
 70
     1
102
RTVSPropertyOp19
 70
     1
102
RTVSPropertyOp20
 70
     1
102
RTVSPropertyOp21
 70
     1
102
RTVSPropertyOp22
 70
     1
102
RTVSPropertyOp23
 70
     1
102
RTVSPropertyOp24
 70
     1
102
RTVSPropertyOp25
 70
     1
102
RTVSPropertyOp26
 70
     1
102
RTVSPropertyOp27
 70
     1
102
RTVSPropertyOp28
 70
     1
102
RTVSPropertyOp29
 70
     1
102
RTVSPropertyOp30
 70
     1
102
RTVSPropertyOp31
 70
     1
102
RTVSPropertyOp32
 70
     1
  0
XRECORD
  5
A0191
102
{ACAD_REACTORS
330
A0190
102
}
330
A0190
100
AcDbXrecord
280
     1
102
RTVSPropertyOp0
 70
     0
102
RTVSPropertyOp1
 70
     0
102
RTVSPropertyOp2
 70
     0
102
RTVSPropertyOp3
 70
     0
102
RTVSPropertyOp4
 70
     0
102
RTVSPropertyOp5
 70
     0
102
RTVSPropertyOp6
 70
     0
102
RTVSPropertyOp7
 70
     0
102
RTVSPropertyOp8
 70
     0
102
RTVSPropertyOp9
 70
     0
102
RTVSPropertyOp10
 70
     0
102
RTVSPropertyOp11
 70
     0
102
RTVSPropertyOp12
 70
     0
102
RTVSPropertyOp13
 70
     0
102
RTVSPropertyOp14
 70
     2
102
RTVSPropertyOp15
 70
     0
102
RTVSPropertyOp16
 70
     0
102
RTVSPropertyOp17
 70
     0
102
RTVSPropertyOp18
 70
     0
102
RTVSPropertyOp19
 70
     0
102
RTVSPropertyOp20
 70
     0
102
RTVSPropertyOp21
 70
     0
102
RTVSPropertyOp22
 70
     0
102
RTVSPropertyOp23
 70
     0
102
RTVSPropertyOp24
 70
     0
102
RTVSPropertyOp25
 70
     0
102
RTVSPropertyOp26
 70
     0
102
RTVSPropertyOp27
 70
     0
102
RTVSPropertyOp28
 70
     1
102
RTVSPropertyOp29
 70
     1
102
RTVSPropertyOp30
 70
     1
102
RTVSPropertyOp31
 70
     1
102
RTVSPropertyOp32
 70
     1
  0
XRECORD
  5
A0181
102
{ACAD_REACTORS
330
A0180
102
}
330
A0180
100
AcDbXrecord
280
     1
102
RTVSPropertyOp0
 70
     1
102
RTVSPropertyOp1
 70
     1
102
RTVSPropertyOp2
 70
     1
102
RTVSPropertyOp3
 70
     1
102
RTVSPropertyOp4
 70
     1
102
RTVSPropertyOp5
 70
     1
102
RTVSPropertyOp6
 70
     1
102
RTVSPropertyOp7
 70
     1
102
RTVSPropertyOp8
 70
     1
102
RTVSPropertyOp9
 70
     1
102
RTVSPropertyOp10
 70
     1
102
RTVSPropertyOp11
 70
     1
102
RTVSPropertyOp12
 70
     1
102
RTVSPropertyOp13
 70
     1
102
RTVSPropertyOp14
 70
     1
102
RTVSPropertyOp15
 70
     1
102
RTVSPropertyOp16
 70
     1
102
RTVSPropertyOp17
 70
     1
102
RTVSPropertyOp18
 70
     1
102
RTVSPropertyOp19
 70
     1
102
RTVSPropertyOp20
 70
     1
102
RTVSPropertyOp21
 70
     1
102
RTVSPropertyOp22
 70
     1
102
RTVSPropertyOp23
 70
     1
102
RTVSPropertyOp24
 70
     1
102
RTVSPropertyOp25
 70
     1
102
RTVSPropertyOp26
 70
     1
102
RTVSPropertyOp27
 70
     1
102
RTVSPropertyOp28
 70
     1
102
RTVSPropertyOp29
 70
     1
102
RTVSPropertyOp30
 70
     1
102
RTVSPropertyOp31
 70
     1
102
RTVSPropertyOp32
 70
     1
  0
XRECORD
  5
A0193
102
{ACAD_REACTORS
330
A0192
102
}
330
A0192
100
AcDbXrecord
280
     1
102
RTVSPropertyOp0
 70
     0
102
RTVSPropertyOp1
 70
     0
102
RTVSPropertyOp2
 70
     0
102
RTVSPropertyOp3
 70
     0
102
RTVSPropertyOp4
 70
     0
102
RTVSPropertyOp5
 70
     0
102
RTVSPropertyOp6
 70
     0
102
RTVSPropertyOp7
 70
     0
102
RTVSPropertyOp8
 70
     0
102
RTVSPropertyOp9
 70
     0
102
RTVSPropertyOp10
 70
     0
102
RTVSPropertyOp11
 70
     0
102
RTVSPropertyOp12
 70
     0
102
RTVSPropertyOp13
 70
     0
102
RTVSPropertyOp14
 70
     2
102
RTVSPropertyOp15
 70
     0
102
RTVSPropertyOp16
 70
     0
102
RTVSPropertyOp17
 70
     0
102
RTVSPropertyOp18
 70
     0
102
RTVSPropertyOp19
 70
     0
102
RTVSPropertyOp20
 70
     0
102
RTVSPropertyOp21
 70
     0
102
RTVSPropertyOp22
 70
     0
102
RTVSPropertyOp23
 70
     0
102
RTVSPropertyOp24
 70
     0
102
RTVSPropertyOp25
 70
     0
102
RTVSPropertyOp26
 70
     0
102
RTVSPropertyOp27
 70
     0
102
RTVSPropertyOp28
 70
     1
102
RTVSPropertyOp29
 70
     1
102
RTVSPropertyOp30
 70
     1
102
RTVSPropertyOp31
 70
     1
102
RTVSPropertyOp32
 70
     1
  0
XRECORD
  5
A0179
102
{ACAD_REACTORS
330
A0178
102
}
330
A0178
100
AcDbXrecord
280
     1
102
RTVSPropertyOp0
 70
     1
102
RTVSPropertyOp1
 70
     1
102
RTVSPropertyOp2
 70
     1
102
RTVSPropertyOp3
 70
     1
102
RTVSPropertyOp4
 70
     1
102
RTVSPropertyOp5
 70
     1
102
RTVSPropertyOp6
 70
     1
102
RTVSPropertyOp7
 70
     1
102
RTVSPropertyOp8
 70
     1
102
RTVSPropertyOp9
 70
     1
102
RTVSPropertyOp10
 70
     1
102
RTVSPropertyOp11
 70
     1
102
RTVSPropertyOp12
 70
     1
102
RTVSPropertyOp13
 70
     1
102
RTVSPropertyOp14
 70
     1
102
RTVSPropertyOp15
 70
     1
102
RTVSPropertyOp16
 70
     1
102
RTVSPropertyOp17
 70
     1
102
RTVSPropertyOp18
 70
     1
102
RTVSPropertyOp19
 70
     1
102
RTVSPropertyOp20
 70
     1
102
RTVSPropertyOp21
 70
     1
102
RTVSPropertyOp22
 70
     1
102
RTVSPropertyOp23
 70
     1
102
RTVSPropertyOp24
 70
     1
102
RTVSPropertyOp25
 70
     1
102
RTVSPropertyOp26
 70
     1
102
RTVSPropertyOp27
 70
     1
102
RTVSPropertyOp28
 70
     1
102
RTVSPropertyOp29
 70
     1
102
RTVSPropertyOp30
 70
     1
102
RTVSPropertyOp31
 70
     1
102
RTVSPropertyOp32
 70
     1
  0
XRECORD
  5
A018F
102
{ACAD_REACTORS
330
A018E
102
}
330
A018E
100
AcDbXrecord
280
     1
102
RTVSPropertyOp0
 70
     1
102
RTVSPropertyOp1
 70
     1
102
RTVSPropertyOp2
 70
     1
102
RTVSPropertyOp3
 70
     1
102
RTVSPropertyOp4
 70
     1
102
RTVSPropertyOp5
 70
     1
102
RTVSPropertyOp6
 70
     1
102
RTVSPropertyOp7
 70
     1
102
RTVSPropertyOp8
 70
     1
102
RTVSPropertyOp9
 70
     1
102
RTVSPropertyOp10
 70
     1
102
RTVSPropertyOp11
 70
     1
102
RTVSPropertyOp12
 70
     1
102
RTVSPropertyOp13
 70
     1
102
RTVSPropertyOp14
 70
     1
102
RTVSPropertyOp15
 70
     1
102
RTVSPropertyOp16
 70
     1
102
RTVSPropertyOp17
 70
     1
102
RTVSPropertyOp18
 70
     1
102
RTVSPropertyOp19
 70
     1
102
RTVSPropertyOp20
 70
     1
102
RTVSPropertyOp21
 70
     1
102
RTVSPropertyOp22
 70
     1
102
RTVSPropertyOp23
 70
     1
102
RTVSPropertyOp24
 70
     1
102
RTVSPropertyOp25
 70
     1
102
RTVSPropertyOp26
 70
     1
102
RTVSPropertyOp27
 70
     1
102
RTVSPropertyOp28
 70
     1
102
RTVSPropertyOp29
 70
     1
102
RTVSPropertyOp30
 70
     1
102
RTVSPropertyOp31
 70
     1
102
RTVSPropertyOp32
 70
     1
  0
XRECORD
  5
A018D
102
{ACAD_REACTORS
330
A018C
102
}
330
A018C
100
AcDbXrecord
280
     1
102
RTVSPropertyOp0
 70
     1
102
RTVSPropertyOp1
 70
     1
102
RTVSPropertyOp2
 70
     1
102
RTVSPropertyOp3
 70
     1
102
RTVSPropertyOp4
 70
     1
102
RTVSPropertyOp5
 70
     1
102
RTVSPropertyOp6
 70
     1
102
RTVSPropertyOp7
 70
     1
102
RTVSPropertyOp8
 70
     1
102
RTVSPropertyOp9
 70
     1
102
RTVSPropertyOp10
 70
     1
102
RTVSPropertyOp11
 70
     1
102
RTVSPropertyOp12
 70
     1
102
RTVSPropertyOp13
 70
     1
102
RTVSPropertyOp14
 70
     1
102
RTVSPropertyOp15
 70
     1
102
RTVSPropertyOp16
 70
     1
102
RTVSPropertyOp17
 70
     1
102
RTVSPropertyOp18
 70
     1
102
RTVSPropertyOp19
 70
     1
102
RTVSPropertyOp20
 70
     1
102
RTVSPropertyOp21
 70
     1
102
RTVSPropertyOp22
 70
     1
102
RTVSPropertyOp23
 70
     1
102
RTVSPropertyOp24
 70
     1
102
RTVSPropertyOp25
 70
     1
102
RTVSPropertyOp26
 70
     1
102
RTVSPropertyOp27
 70
     1
102
RTVSPropertyOp28
 70
     1
102
RTVSPropertyOp29
 70
     1
102
RTVSPropertyOp30
 70
     1
102
RTVSPropertyOp31
 70
     1
102
RTVSPropertyOp32
 70
     1
  0
XRECORD
  5
A0187
102
{ACAD_REACTORS
330
A0186
102
}
330
A0186
100
AcDbXrecord
280
     1
102
RTVSPropertyOp0
 70
     1
102
RTVSPropertyOp1
 70
     1
102
RTVSPropertyOp2
 70
     1
102
RTVSPropertyOp3
 70
     1
102
RTVSPropertyOp4
 70
     1
102
RTVSPropertyOp5
 70
     1
102
RTVSPropertyOp6
 70
     1
102
RTVSPropertyOp7
 70
     1
102
RTVSPropertyOp8
 70
     1
102
RTVSPropertyOp9
 70
     1
102
RTVSPropertyOp10
 70
     1
102
RTVSPropertyOp11
 70
     1
102
RTVSPropertyOp12
 70
     1
102
RTVSPropertyOp13
 70
     1
102
RTVSPropertyOp14
 70
     1
102
RTVSPropertyOp15
 70
     1
102
RTVSPropertyOp16
 70
     1
102
RTVSPropertyOp17
 70
     1
102
RTVSPropertyOp18
 70
     1
102
RTVSPropertyOp19
 70
     1
102
RTVSPropertyOp20
 70
     1
102
RTVSPropertyOp21
 70
     1
102
RTVSPropertyOp22
 70
     1
102
RTVSPropertyOp23
 70
     1
102
RTVSPropertyOp24
 70
     1
102
RTVSPropertyOp25
 70
     1
102
RTVSPropertyOp26
 70
     1
102
RTVSPropertyOp27
 70
     1
102
RTVSPropertyOp28
 70
     1
102
RTVSPropertyOp29
 70
     1
102
RTVSPropertyOp30
 70
     1
102
RTVSPropertyOp31
 70
     1
102
RTVSPropertyOp32
 70
     1
  0
XRECORD
  5
A0189
102
{ACAD_REACTORS
330
A0188
102
}
330
A0188
100
AcDbXrecord
280
     1
102
RTVSPropertyOp0
 70
     1
102
RTVSPropertyOp1
 70
     1
102
RTVSPropertyOp2
 70
     1
102
RTVSPropertyOp3
 70
     1
102
RTVSPropertyOp4
 70
     1
102
RTVSPropertyOp5
 70
     1
102
RTVSPropertyOp6
 70
     1
102
RTVSPropertyOp7
 70
     1
102
RTVSPropertyOp8
 70
     1
102
RTVSPropertyOp9
 70
     1
102
RTVSPropertyOp10
 70
     1
102
RTVSPropertyOp11
 70
     1
102
RTVSPropertyOp12
 70
     1
102
RTVSPropertyOp13
 70
     1
102
RTVSPropertyOp14
 70
     1
102
RTVSPropertyOp15
 70
     1
102
RTVSPropertyOp16
 70
     1
102
RTVSPropertyOp17
 70
     1
102
RTVSPropertyOp18
 70
     1
102
RTVSPropertyOp19
 70
     1
102
RTVSPropertyOp20
 70
     1
102
RTVSPropertyOp21
 70
     1
102
RTVSPropertyOp22
 70
     1
102
RTVSPropertyOp23
 70
     1
102
RTVSPropertyOp24
 70
     1
102
RTVSPropertyOp25
 70
     1
102
RTVSPropertyOp26
 70
     1
102
RTVSPropertyOp27
 70
     1
102
RTVSPropertyOp28
 70
     1
102
RTVSPropertyOp29
 70
     1
102
RTVSPropertyOp30
 70
     1
102
RTVSPropertyOp31
 70
     1
102
RTVSPropertyOp32
 70
     1
  0
XRECORD
  5
A017F
102
{ACAD_REACTORS
330
A017E
102
}
330
A017E
100
AcDbXrecord
280
     1
102
RTVSPropertyOp0
 70
     1
102
RTVSPropertyOp1
 70
     1
102
RTVSPropertyOp2
 70
     1
102
RTVSPropertyOp3
 70
     1
102
RTVSPropertyOp4
 70
     1
102
RTVSPropertyOp5
 70
     1
102
RTVSPropertyOp6
 70
     1
102
RTVSPropertyOp7
 70
     1
102
RTVSPropertyOp8
 70
     1
102
RTVSPropertyOp9
 70
     1
102
RTVSPropertyOp10
 70
     1
102
RTVSPropertyOp11
 70
     1
102
RTVSPropertyOp12
 70
     1
102
RTVSPropertyOp13
 70
     1
102
RTVSPropertyOp14
 70
     1
102
RTVSPropertyOp15
 70
     1
102
RTVSPropertyOp16
 70
     1
102
RTVSPropertyOp17
 70
     1
102
RTVSPropertyOp18
 70
     1
102
RTVSPropertyOp19
 70
     1
102
RTVSPropertyOp20
 70
     1
102
RTVSPropertyOp21
 70
     1
102
RTVSPropertyOp22
 70
     1
102
RTVSPropertyOp23
 70
     1
102
RTVSPropertyOp24
 70
     1
102
RTVSPropertyOp25
 70
     1
102
RTVSPropertyOp26
 70
     1
102
RTVSPropertyOp27
 70
     1
102
RTVSPropertyOp28
 70
     1
102
RTVSPropertyOp29
 70
     1
102
RTVSPropertyOp30
 70
     1
102
RTVSPropertyOp31
 70
     1
102
RTVSPropertyOp32
 70
     1
  0
XRECORD
  5
A0173
102
{ACAD_REACTORS
330
A0172
102
}
330
A0172
100
AcDbXrecord
280
     1
102
RTVSPropertyOp0
 70
     1
102
RTVSPropertyOp1
 70
     1
102
RTVSPropertyOp2
 70
     1
102
RTVSPropertyOp3
 70
     1
102
RTVSPropertyOp4
 70
     1
102
RTVSPropertyOp5
 70
     1
102
RTVSPropertyOp6
 70
     1
102
RTVSPropertyOp7
 70
     1
102
RTVSPropertyOp8
 70
     1
102
RTVSPropertyOp9
 70
     1
102
RTVSPropertyOp10
 70
     1
102
RTVSPropertyOp11
 70
     1
102
RTVSPropertyOp12
 70
     1
102
RTVSPropertyOp13
 70
     1
102
RTVSPropertyOp14
 70
     1
102
RTVSPropertyOp15
 70
     1
102
RTVSPropertyOp16
 70
     1
102
RTVSPropertyOp17
 70
     1
102
RTVSPropertyOp18
 70
     1
102
RTVSPropertyOp19
 70
     1
102
RTVSPropertyOp20
 70
     1
102
RTVSPropertyOp21
 70
     1
102
RTVSPropertyOp22
 70
     1
102
RTVSPropertyOp23
 70
     1
102
RTVSPropertyOp24
 70
     1
102
RTVSPropertyOp25
 70
     1
102
RTVSPropertyOp26
 70
     1
102
RTVSPropertyOp27
 70
     1
102
RTVSPropertyOp28
 70
     1
102
RTVSPropertyOp29
 70
     1
102
RTVSPropertyOp30
 70
     1
102
RTVSPropertyOp31
 70
     1
102
RTVSPropertyOp32
 70
     1
  0
XRECORD
  5
A018B
102
{ACAD_REACTORS
330
A018A
102
}
330
A018A
100
AcDbXrecord
280
     1
102
RTVSPropertyOp0
 70
     1
102
RTVSPropertyOp1
 70
     1
102
RTVSPropertyOp2
 70
     1
102
RTVSPropertyOp3
 70
     1
102
RTVSPropertyOp4
 70
     1
102
RTVSPropertyOp5
 70
     1
102
RTVSPropertyOp6
 70
     1
102
RTVSPropertyOp7
 70
     1
102
RTVSPropertyOp8
 70
     1
102
RTVSPropertyOp9
 70
     1
102
RTVSPropertyOp10
 70
     1
102
RTVSPropertyOp11
 70
     1
102
RTVSPropertyOp12
 70
     1
102
RTVSPropertyOp13
 70
     1
102
RTVSPropertyOp14
 70
     1
102
RTVSPropertyOp15
 70
     1
102
RTVSPropertyOp16
 70
     1
102
RTVSPropertyOp17
 70
     1
102
RTVSPropertyOp18
 70
     1
102
RTVSPropertyOp19
 70
     1
102
RTVSPropertyOp20
 70
     1
102
RTVSPropertyOp21
 70
     1
102
RTVSPropertyOp22
 70
     1
102
RTVSPropertyOp23
 70
     1
102
RTVSPropertyOp24
 70
     1
102
RTVSPropertyOp25
 70
     1
102
RTVSPropertyOp26
 70
     1
102
RTVSPropertyOp27
 70
     1
102
RTVSPropertyOp28
 70
     1
102
RTVSPropertyOp29
 70
     1
102
RTVSPropertyOp30
 70
     1
102
RTVSPropertyOp31
 70
     1
102
RTVSPropertyOp32
 70
     1
  0
ENDSEC
  0
EOF
