  0
SECTION
  2
HEADER
  9
$ACADVER
  1
AC1018
  9
$ACADMAINTVER
 70
   104
  9
$DWGCODEPAGE
  3
ANSI_1250
  9
$LASTSAVEDBY
  1
bonzo
  9
$INSBASE
 10
0.0
 20
0.0
 30
0.0
  9
$EXTMIN
 10
-62.32259899852195
 20
20.37611232632319
 30
0.0
  9
$EXTMAX
 10
-49.81063789704079
 20
33.36584149590485
 30
0.0
  9
$LIMMIN
 10
0.0
 20
0.0
  9
$LIMMAX
 10
12.0
 20
9.0
  9
$ORTHOMODE
 70
     1
  9
$REGENMODE
 70
     1
  9
$FILLMODE
 70
     1
  9
$QTEXTMODE
 70
     0
  9
$MIRRTEXT
 70
     1
  9
$LTSCALE
 40
1.0
  9
$ATTMODE
 70
     1
  9
$TEXTSIZE
 40
0.2
  9
$TRACEWID
 40
0.05
  9
$TEXTSTYLE
  7
Standard
  9
$CLAYER
  8
WYMIAR
  9
$CELTYPE
  6
ByLayer
  9
$CECOLOR
 62
   256
  9
$CELTSCALE
 40
1.0
  9
$DISPSILH
 70
     0
  9
$DIMSCALE
 40
0.02
  9
$DIMASZ
 40
3.0
  9
$DIMEXO
 40
20.0
  9
$DIMDLI
 40
0.0
  9
$DIMRND
 40
0.05
  9
$DIMDLE
 40
0.0
  9
$DIMEXE
 40
5.0
  9
$DIMTP
 40
0.0
  9
$DIMTM
 40
0.0
  9
$DIMTXT
 40
9.0
  9
$DIMCEN
 40
12.0
  9
$DIMTSZ
 40
0.0
  9
$DIMTOL
 70
     0
  9
$DIMLIM
 70
     0
  9
$DIMTIH
 70
     0
  9
$DIMTOH
 70
     0
  9
$DIMSE1
 70
     1
  9
$DIMSE2
 70
     1
  9
$DIMTAD
 70
     1
  9
$DIMZIN
 70
     1
  9
$DIMBLK
  1

  9
$DIMASO
 70
     1
  9
$DIMSHO
 70
     1
  9
$DIMPOST
  1

  9
$DIMAPOST
  1

  9
$DIMALT
 70
     0
  9
$DIMALTD
 70
     4
  9
$DIMALTF
 40
1.0
  9
$DIMLFAC
 40
1.0
  9
$DIMTOFL
 70
     1
  9
$DIMTVP
 40
0.0
  9
$DIMTIX
 70
     1
  9
$DIMSOXD
 70
     0
  9
$DIMSAH
 70
     1
  9
$DIMBLK1
  1
MAR-STRZ
  9
$DIMBLK2
  1
MAR-STRZ
  9
$DIMSTYLE
  2
AR SKALA 1-50
  9
$DIMCLRD
 70
   256
  9
$DIMCLRE
 70
   256
  9
$DIMCLRT
 70
   256
  9
$DIMTFAC
 40
0.01
  9
$DIMGAP
 40
6.0
  9
$DIMJUST
 70
     0
  9
$DIMSD1
 70
     0
  9
$DIMSD2
 70
     0
  9
$DIMTOLJ
 70
     1
  9
$DIMTZIN
 70
     0
  9
$DIMALTZ
 70
     0
  9
$DIMALTTZ
 70
     0
  9
$DIMUPT
 70
     0
  9
$DIMDEC
 70
     2
  9
$DIMTDEC
 70
     2
  9
$DIMALTU
 70
     2
  9
$DIMALTTD
 70
     4
  9
$DIMTXSTY
  7
AR 01 SWIS
  9
$DIMAUNIT
 70
     0
  9
$DIMADEC
 70
     1
  9
$DIMALTRND
 40
0.0
  9
$DIMAZIN
 70
     0
  9
$DIMDSEP
 70
    46
  9
$DIMATFIT
 70
     3
  9
$DIMFRAC
 70
     0
  9
$DIMLDRBLK
  1
MAR-STRZ
  9
$DIMLUNIT
 70
     2
  9
$DIMLWD
 70
    -2
  9
$DIMLWE
 70
    -2
  9
$DIMTMOVE
 70
     2
  9
$LUNITS
 70
     2
  9
$LUPREC
 70
     4
  9
$SKETCHINC
 40
0.1
  9
$FILLETRAD
 40
0.2
  9
$AUNITS
 70
     0
  9
$AUPREC
 70
     0
  9
$MENU
  1
.
  9
$ELEVATION
 40
0.0
  9
$PELEVATION
 40
0.0
  9
$THICKNESS
 40
0.0
  9
$LIMCHECK
 70
     0
  9
$CHAMFERA
 40
0.5
  9
$CHAMFERB
 40
0.5
  9
$CHAMFERC
 40
1.0
  9
$CHAMFERD
 40
0.0
  9
$SKPOLY
 70
     0
  9
$TDCREATE
 40
2455956.499359827
  9
$TDUCREATE
 40
2455956.416026493
  9
$TDUPDATE
 40
2459311.320905370
  9
$TDUUPDATE
 40
2459311.237572037
  9
$TDINDWG
 40
0.6592957755
  9
$TDUSRTIMER
 40
0.6592957755
  9
$USRTIMER
 70
     1
  9
$ANGBASE
 50
0.0
  9
$ANGDIR
 70
     0
  9
$PDMODE
 70
     0
  9
$PDSIZE
 40
0.0
  9
$PLINEWID
 40
0.0
  9
$SPLFRAME
 70
     0
  9
$SPLINETYPE
 70
     6
  9
$SPLINESEGS
 70
     8
  9
$HANDSEED
  5
75EC3
  9
$SURFTAB1
 70
     6
  9
$SURFTAB2
 70
     6
  9
$SURFTYPE
 70
     6
  9
$SURFU
 70
     6
  9
$SURFV
 70
     6
  9
$UCSBASE
  2

  9
$UCSNAME
  2

  9
$UCSORG
 10
0.0
 20
0.0
 30
0.0
  9
$UCSXDIR
 10
1.0
 20
0.0
 30
0.0
  9
$UCSYDIR
 10
0.0
 20
1.0
 30
0.0
  9
$UCSORTHOREF
  2

  9
$UCSORTHOVIEW
 70
     0
  9
$UCSORGTOP
 10
0.0
 20
0.0
 30
0.0
  9
$UCSORGBOTTOM
 10
0.0
 20
0.0
 30
0.0
  9
$UCSORGLEFT
 10
0.0
 20
0.0
 30
0.0
  9
$UCSORGRIGHT
 10
0.0
 20
0.0
 30
0.0
  9
$UCSORGFRONT
 10
0.0
 20
0.0
 30
0.0
  9
$UCSORGBACK
 10
0.0
 20
0.0
 30
0.0
  9
$PUCSBASE
  2

  9
$PUCSNAME
  2

  9
$PUCSORG
 10
0.0
 20
0.0
 30
0.0
  9
$PUCSXDIR
 10
1.0
 20
0.0
 30
0.0
  9
$PUCSYDIR
 10
0.0
 20
1.0
 30
0.0
  9
$PUCSORTHOREF
  2

  9
$PUCSORTHOVIEW
 70
     0
  9
$PUCSORGTOP
 10
0.0
 20
0.0
 30
0.0
  9
$PUCSORGBOTTOM
 10
0.0
 20
0.0
 30
0.0
  9
$PUCSORGLEFT
 10
0.0
 20
0.0
 30
0.0
  9
$PUCSORGRIGHT
 10
0.0
 20
0.0
 30
0.0
  9
$PUCSORGFRONT
 10
0.0
 20
0.0
 30
0.0
  9
$PUCSORGBACK
 10
0.0
 20
0.0
 30
0.0
  9
$USERI1
 70
     0
  9
$USERI2
 70
     0
  9
$USERI3
 70
     0
  9
$USERI4
 70
     0
  9
$USERI5
 70
     0
  9
$USERR1
 40
0.0
  9
$USERR2
 40
0.0
  9
$USERR3
 40
0.0
  9
$USERR4
 40
0.0
  9
$USERR5
 40
0.0
  9
$WORLDVIEW
 70
     1
  9
$SHADEDGE
 70
     3
  9
$SHADEDIF
 70
    70
  9
$TILEMODE
 70
     1
  9
$MAXACTVP
 70
    64
  9
$PINSBASE
 10
0.0
 20
0.0
 30
0.0
  9
$PLIMCHECK
 70
     0
  9
$PEXTMIN
 10
6.561544945354853
 20
3.282189374834842
 30
0.0
  9
$PEXTMAX
 10
416.7133315898103
 20
290.5875349075164
 30
0.0
  9
$PLIMMIN
 10
3.386557152386103
 20
0.1071894225185588
  9
$PLIMMAX
 10
423.5448823476986
 20
297.1601984557217
  9
$UNITMODE
 70
     0
  9
$VISRETAIN
 70
     1
  9
$PLINEGEN
 70
     0
  9
$PSLTSCALE
 70
     0
  9
$TREEDEPTH
 70
  3020
  9
$CMLSTYLE
  2
Standard
  9
$CMLJUST
 70
     0
  9
$CMLSCALE
 40
1.0
  9
$PROXYGRAPHICS
 70
     1
  9
$MEASUREMENT
 70
     0
  9
$CELWEIGHT
370
    -1
  9
$ENDCAPS
280
     0
  9
$JOINSTYLE
280
     0
  9
$LWDISPLAY
290
     0
  9
$INSUNITS
 70
     1
  9
$HYPERLINKBASE
  1

  9
$STYLESHEET
  1

  9
$XEDIT
290
     1
  9
$CEPSNTYPE
380
     0
  9
$PSTYLEMODE
290
     1
  9
$FINGERPRINTGUID
  2
{1B330B5B-CE04-4EC8-B886-8C8BFC3A02BF}
  9
$VERSIONGUID
  2
{1F9EE06D-2DD2-4A83-96A2-6EC8CBDAC698}
  9
$EXTNAMES
290
     1
  9
$PSVPSCALE
 40
0.0
  9
$OLESTARTUP
290
     0
  9
$SORTENTS
280
   127
  9
$INDEXCTL
280
     0
  9
$HIDETEXT
280
     1
  9
$XCLIPFRAME
290
     0
  9
$HALOGAP
280
     0
  9
$OBSCOLOR
 70
   257
  9
$OBSLTYPE
280
     0
  9
$INTERSECTIONDISPLAY
280
     0
  9
$INTERSECTIONCOLOR
 70
   257
  9
$DIMASSOC
280
     2
  9
$PROJECTNAME
  1

  0
ENDSEC
  0
SECTION
  2
CLASSES
  0
CLASS
  1
ACDBDICTIONARYWDFLT
  2
AcDbDictionaryWithDefault
  3
ObjectDBX Classes
 90
        0
 91
        1
280
     0
281
     0
  0
CLASS
  1
VISUALSTYLE
  2
AcDbVisualStyle
  3
ObjectDBX Classes
 90
     4095
 91
       16
280
     0
281
     0
  0
CLASS
  1
MATERIAL
  2
AcDbMaterial
  3
ObjectDBX Classes
 90
     1153
 91
        3
280
     0
281
     0
  0
CLASS
  1
DICTIONARYVAR
  2
AcDbDictionaryVar
  3
ObjectDBX Classes
 90
        0
 91
        9
280
     0
281
     0
  0
CLASS
  1
TABLESTYLE
  2
AcDbTableStyle
  3
ObjectDBX Classes
 90
     4095
 91
        1
280
     0
281
     0
  0
CLASS
  1
SORTENTSTABLE
  2
AcDbSortentsTable
  3
ObjectDBX Classes
 90
        0
 91
        7
280
     0
281
     0
  0
CLASS
  1
DIMASSOC
  2
AcDbDimAssoc
  3
"AcDbDimAssoc|Product Desc:     AcDim ARX App For Dimension|Company:          Autodesk, Inc.|WEB Address:      www.autodesk.com"
 90
        0
 91
        0
280
     0
281
     0
  0
CLASS
  1
SCALE
  2
AcDbScale
  3
ObjectDBX Classes
 90
     1153
 91
       33
280
     0
281
     0
  0
CLASS
  1
MLEADERSTYLE
  2
AcDbMLeaderStyle
  3
ACDB_MLEADERSTYLE_CLASS
 90
     4095
 91
        1
280
     0
281
     0
  0
CLASS
  1
CELLSTYLEMAP
  2
AcDbCellStyleMap
  3
ObjectDBX Classes
 90
     1152
 91
        3
280
     0
281
     0
  0
ENDSEC
  0
SECTION
  2
TABLES
  0
TABLE
  2
VPORT
  5
8
102
{ACAD_XDICTIONARY
360
84C
102
}
330
0
100
AcDbSymbolTable
 70
     1
  0
VPORT
  5
29
330
8
100
AcDbSymbolTableRecord
100
AcDbViewportTableRecord
  2
*Active
 70
     0
 10
0.0
 20
0.0
 11
1.0
 21
1.0
 12
-54.85848355019078
 22
27.05733977637585
 13
0.0
 23
0.0
 14
0.5
 24
0.5
 15
0.5
 25
0.5
 16
0.0
 26
0.0
 36
1.0
 17
0.0
 27
0.0
 37
-1000.0
 40
15.51052386408021
 41
2.060556464811783
 42
50.0
 43
4.148984367261674
 44
9.217858496371269
 50
0.0
 51
0.0
 71
     0
 72
   100
 73
     1
 74
     3
 75
     0
 76
     0
 77
     0
 78
     0
281
     0
 65
     1
110
0.0
120
0.0
130
0.0
111
1.0
121
0.0
131
0.0
112
0.0
122
1.0
132
0.0
 79
     0
146
0.0
  0
ENDTAB
  0
TABLE
  2
LTYPE
  5
5
330
0
100
AcDbSymbolTable
 70
     2
  0
LTYPE
  5
14
330
5
100
AcDbSymbolTableRecord
100
AcDbLinetypeTableRecord
  2
ByBlock
 70
     0
  3

 72
    65
 73
     0
 40
0.0
  0
LTYPE
  5
15
330
5
100
AcDbSymbolTableRecord
100
AcDbLinetypeTableRecord
  2
ByLayer
 70
     0
  3

 72
    65
 73
     0
 40
0.0
  0
LTYPE
  5
16
330
5
100
AcDbSymbolTableRecord
100
AcDbLinetypeTableRecord
  2
Continuous
 70
     0
  3
Solid line
 72
    65
 73
     0
 40
0.0
  0
LTYPE
  5
886
330
5
100
AcDbSymbolTableRecord
100
AcDbLinetypeTableRecord
  2
DASHED
 70
     0
  3
Dashed __ __ __ __ __ __ __ __ __ __ __ __ __ _
 72
    65
 73
     2
 40
0.75
 49
0.5
 74
     0
 49
-0.25
 74
     0
  0
ENDTAB
  0
TABLE
  2
LAYER
  5
2
102
{ACAD_XDICTIONARY
360
7D1
102
}
330
0
100
AcDbSymbolTable
 70
     4
  0
LAYER
  5
10
102
{ACAD_XDICTIONARY
360
10554
102
}
330
2
100
AcDbSymbolTableRecord
100
AcDbLayerTableRecord
  2
0
 70
     0
 62
     7
  6
Continuous
370
    80
390
F
  0
LAYER
  5
87B
102
{ACAD_XDICTIONARY
360
10556
102
}
330
2
100
AcDbSymbolTableRecord
100
AcDbLayerTableRecord
  2
STREFA BEZPIECZEŃSTWA
 70
     0
 62
     7
  6
DASHED
370
    80
390
F
1001
AcAecLayerStandard
1000

1000

  0
LAYER
  5
87D
102
{ACAD_XDICTIONARY
360
10558
102
}
330
2
100
AcDbSymbolTableRecord
100
AcDbLayerTableRecord
  2
WYMIAR
 70
     0
 62
     7
  6
Continuous
370
    80
390
F
1001
AcAecLayerStandard
1000

1000

  0
LAYER
  5
8CC
330
2
100
AcDbSymbolTableRecord
100
AcDbLayerTableRecord
  2
Defpoints
 70
     0
 62
     7
  6
Continuous
290
     0
370
     5
390
F
1001
RAK
1000
{ACET-LAYISO
1070
     0
1070
     7
1000
Continuous
1071
        5
1071
        0
1005
F
1000
ACET-LAYISO}
  0
ENDTAB
  0
TABLE
  2
STYLE
  5
3
330
0
100
AcDbSymbolTable
 70
     2
  0
STYLE
  5
11
330
3
100
AcDbSymbolTableRecord
100
AcDbTextStyleTableRecord
  2
Standard
 70
     0
 40
0.0
 41
1.0
 50
0.0
 71
     0
 42
0.2
  3
txt
  4

  0
STYLE
  5
8CE
330
3
100
AcDbSymbolTableRecord
100
AcDbTextStyleTableRecord
  2
AR 01 SWIS
 70
     0
 40
0.0
 41
1.0
 50
0.0
 71
     0
 42
55.0
  3

  4

1001
ACAD
1000
Swis721 Cn BT
1071
       34
  0
ENDTAB
  0
TABLE
  2
VIEW
  5
6
330
0
100
AcDbSymbolTable
 70
     0
  0
ENDTAB
  0
TABLE
  2
UCS
  5
7
330
0
100
AcDbSymbolTable
 70
     0
  0
ENDTAB
  0
TABLE
  2
APPID
  5
9
330
0
100
AcDbSymbolTable
 70
     9
  0
APPID
  5
12
330
9
100
AcDbSymbolTableRecord
100
AcDbRegAppTableRecord
  2
ACAD
 70
     0
  0
APPID
  5
7CB
330
9
100
AcDbSymbolTableRecord
100
AcDbRegAppTableRecord
  2
ACAD_PSEXT
 70
     0
  0
APPID
  5
875
330
9
100
AcDbSymbolTableRecord
100
AcDbRegAppTableRecord
  2
ACAD_EXEMPT_FROM_CAD_STANDARDS
 70
     0
  0
APPID
  5
87C
330
9
100
AcDbSymbolTableRecord
100
AcDbRegAppTableRecord
  2
AcAecLayerStandard
 70
     0
  0
APPID
  5
8D4
330
9
100
AcDbSymbolTableRecord
100
AcDbRegAppTableRecord
  2
RAK
 70
     0
  0
APPID
  5
8D5
330
9
100
AcDbSymbolTableRecord
100
AcDbRegAppTableRecord
  2
ACAD_DSTYLE_DIMJOGGED_JOGANGLE_SYMBOL
 70
     0
  0
APPID
  5
8D6
330
9
100
AcDbSymbolTableRecord
100
AcDbRegAppTableRecord
  2
ACAD_DSTYLE_DIMJAG
 70
     0
  0
APPID
  5
8D7
330
9
100
AcDbSymbolTableRecord
100
AcDbRegAppTableRecord
  2
ACAD_DSTYLE_DIMTALN
 70
     0
  0
APPID
  5
10546
330
9
100
AcDbSymbolTableRecord
100
AcDbRegAppTableRecord
  2
ACAD_MLEADERVER
 70
     0
  0
ENDTAB
  0
TABLE
  2
DIMSTYLE
  5
A
330
0
100
AcDbSymbolTable
 70
     2
100
AcDbDimStyleTable
 71
     1
340
8CF
  0
DIMSTYLE
105
8CF
330
A
100
AcDbSymbolTableRecord
100
AcDbDimStyleTableRecord
  2
AR SKALA 1-50
 70
     0
 40
0.02
 41
3.0
 42
20.0
 43
0.0
 44
5.0
 45
0.05
 73
     0
 74
     0
 75
     1
 76
     1
 77
     1
 78
     1
140
9.0
141
12.0
143
1.0
146
0.01
147
6.0
171
     4
172
     1
173
     1
174
     1
176
   256
177
   256
178
   256
179
     1
271
     2
272
     2
274
     4
279
     2
340
8CE
341
8BC
343
8BC
344
8BC
  0
DIMSTYLE
105
A46
330
A
100
AcDbSymbolTableRecord
100
AcDbDimStyleTableRecord
  2
Standard
 70
     0
340
11
  0
ENDTAB
  0
TABLE
  2
BLOCK_RECORD
  5
1
330
0
100
AcDbSymbolTable
 70
     6
  0
BLOCK_RECORD
  5
1F
102
{ACAD_XDICTIONARY
360
5F8
102
}
330
1
100
AcDbSymbolTableRecord
100
AcDbBlockTableRecord
  2
*Model_Space
340
22
  0
BLOCK_RECORD
  5
1B
330
1
100
AcDbSymbolTableRecord
100
AcDbBlockTableRecord
  2
*Paper_Space
340
1E
  0
BLOCK_RECORD
  5
8BC
330
1
100
AcDbSymbolTableRecord
100
AcDbBlockTableRecord
  2
MAR-STRZ
340
0
310
2800000020000000200000000100080000000000000400000000000000000000000000000000000000000000000080000080000000808000800000008000800080800000C0C0C000C0DCC000F0CAA6000020400000206000002080000020A0000020C0000020E00000400000004020000040400000406000004080000040A0
310
000040C0000040E00000600000006020000060400000606000006080000060A0000060C0000060E00000800000008020000080400000806000008080000080A0000080C0000080E00000A0000000A0200000A0400000A0600000A0800000A0A00000A0C00000A0E00000C0000000C0200000C0400000C0600000C0800000C0
310
A00000C0C00000C0E00000E0000000E0200000E0400000E0600000E0800000E0A00000E0C00000E0E00040000000400020004000400040006000400080004000A0004000C0004000E00040200000402020004020400040206000402080004020A0004020C0004020E000404000004040200040404000404060004040800040
310
40A0004040C0004040E00040600000406020004060400040606000406080004060A0004060C0004060E00040800000408020004080400040806000408080004080A0004080C0004080E00040A0000040A0200040A0400040A0600040A0800040A0A00040A0C00040A0E00040C0000040C0200040C0400040C0600040C08000
310
40C0A00040C0C00040C0E00040E0000040E0200040E0400040E0600040E0800040E0A00040E0C00040E0E00080000000800020008000400080006000800080008000A0008000C0008000E00080200000802020008020400080206000802080008020A0008020C0008020E00080400000804020008040400080406000804080
310
008040A0008040C0008040E00080600000806020008060400080606000806080008060A0008060C0008060E00080800000808020008080400080806000808080008080A0008080C0008080E00080A0000080A0200080A0400080A0600080A0800080A0A00080A0C00080A0E00080C0000080C0200080C0400080C0600080C0
310
800080C0A00080C0C00080C0E00080E0000080E0200080E0400080E0600080E0800080E0A00080E0C00080E0E000C0000000C0002000C0004000C0006000C0008000C000A000C000C000C000E000C0200000C0202000C0204000C0206000C0208000C020A000C020C000C020E000C0400000C0402000C0404000C0406000C0
310
408000C040A000C040C000C040E000C0600000C0602000C0604000C0606000C0608000C060A000C060C000C060E000C0800000C0802000C0804000C0806000C0808000C080A000C080C000C080E000C0A00000C0A02000C0A04000C0A06000C0A08000C0A0A000C0A0C000C0A0E000C0C00000C0C02000C0C04000C0C06000
310
C0C08000C0C0A000F0FBFF00A4A0A000808080000000FF0000FF000000FFFF00FF000000FF00FF00FFFF0000FFFFFF00000000000000000000000000000000000000000000000000000000000000000000000000000000000000000000000000FF000000000000000000000000000000000000000000000000000000000000
310
00FF00000000000000000000000000000000000000000000000000000000000000FF00000000000000000000000000000000000000000000000000000000000000FF00000000000000000000000000000000000000000000000000000000000000FF000000000000000000000000000000000000000000F900000000000000
310
0000FF00000000000000000000000000000000000000000000F90000000000000000FF0000000000000000000000000000000000000000000000F900000000000000FF000000000000000000000000000000000000000000000000F9000000000000FF00000000000000000000000000000000000000000000000000F90000
310
000000FF0000000000000000000000000000000000000000000000000000F900000000FF000000000000000000000000000000000000000000000000000000F9000000FF00000000000000000000000000000000000000000000000000000000F90000FF000000000000000000000000000000000000000000000000000000
310
0000F900FF000000000000000000000000000000000000000000000000000000000000F9FF00000000000000000000000000000000000000000000FFFFFFFFFFFFFFFFFFFFFFFFFFFFFFFFFFFF0000000000000000000000000000000000000000000000FFF900000000000000000000000000000000000000000000000000
310
0000000000FF00F90000000000000000000000000000000000000000000000000000000000FF0000F900000000000000000000000000000000000000000000000000000000FF000000F9000000000000000000000000000000000000000000000000000000FF00000000F90000000000000000000000000000000000000000
310
000000000000FF0000000000F900000000000000000000000000000000000000000000000000FF000000000000F9000000000000000000000000000000000000000000000000FF00000000000000F90000000000000000000000000000000000000000000000FF0000000000000000F9000000000000000000000000000000
310
00000000000000FF00000000000000000000000000000000000000000000000000000000000000FF00000000000000000000000000000000000000000000000000000000000000FF00000000000000000000000000000000000000000000000000000000000000FF0000000000000000000000000000000000000000000000
310
0000000000000000FF0000000000000000000000000000000000000000000000000000000000000000000000000000000000000000000000
102
{BLKREFS
331
75E70
331
75E71
331
75E74
331
75E75
102
}
  0
BLOCK_RECORD
  5
1D61C
102
{ACAD_XDICTIONARY
360
1D631
102
}
330
1
100
AcDbSymbolTableRecord
100
AcDbBlockTableRecord
  2
A$C6E466029
340
0
1001
ACAD
1000
DesignCenter Data
1002
{
1070
     1
1070
     1
1002
}
  0
BLOCK_RECORD
  5
27503
102
{ACAD_XDICTIONARY
360
275BD
102
}
330
1
100
AcDbSymbolTableRecord
100
AcDbBlockTableRecord
  2
A$C07CB6AC5
340
0
1001
ACAD
1000
DesignCenter Data
1002
{
1070
     1
1070
     1
1002
}
  0
BLOCK_RECORD
  5
30E79
102
{ACAD_XDICTIONARY
360
30EEA
102
}
330
1
100
AcDbSymbolTableRecord
100
AcDbBlockTableRecord
  2
A$C3E0C49E3
340
0
1001
ACAD
1000
DesignCenter Data
1002
{
1070
     1
1070
     1
1002
}
  0
BLOCK_RECORD
  5
441A2
102
{ACAD_XDICTIONARY
360
441A4
102
}
330
1
100
AcDbSymbolTableRecord
100
AcDbBlockTableRecord
  2
A$C1DAA2D2A
340
0
1001
ACAD
1000
DesignCenter Data
1002
{
1070
     1
1070
     1
1002
}
  0
BLOCK_RECORD
  5
60919
102
{ACAD_XDICTIONARY
360
60944
102
}
330
1
100
AcDbSymbolTableRecord
100
AcDbBlockTableRecord
  2
A$C741504E8
340
0
1001
ACAD
1000
DesignCenter Data
1002
{
1070
     1
1070
     1
1002
}
  0
ENDTAB
  0
ENDSEC
  0
SECTION
  2
BLOCKS
  0
BLOCK
  5
20
330
1F
100
AcDbEntity
  8
0
100
AcDbBlockBegin
  2
*Model_Space
 70
     0
 10
0.0
 20
0.0
 30
0.0
  3
*Model_Space
  1

  0
ENDBLK
  5
21
330
1F
100
AcDbEntity
  8
0
100
AcDbBlockEnd
  0
BLOCK
  5
1C
330
1B
100
AcDbEntity
 67
     1
  8
0
100
AcDbBlockBegin
  2
*Paper_Space
 70
     0
 10
0.0
 20
0.0
 30
0.0
  3
*Paper_Space
  1

  0
ENDBLK
  5
1D
330
1B
100
AcDbEntity
 67
     1
  8
0
100
AcDbBlockEnd
  0
BLOCK
  5
8BD
330
8BC
100
AcDbEntity
  8
0
100
AcDbBlockBegin
  2
MAR-STRZ
 70
     0
 10
0.0
 20
0.0
 30
0.0
  3
MAR-STRZ
  1

  0
LINE
  5
8BE
330
8BC
100
AcDbEntity
  8
0
100
AcDbLine
 10
0.0
 20
2.299999999999272
 30
0.0
 11
0.0
 21
-2.299999999999272
 31
0.0
  0
LINE
  5
8BF
330
8BC
100
AcDbEntity
  8
0
 62
    10
100
AcDbLine
 10
1.5
 20
1.5
 30
0.0
 11
-1.5
 21
-1.5
 31
0.0
  0
LINE
  5
8C0
330
8BC
100
AcDbEntity
  8
0
100
AcDbLine
 10
1.399999999999636
 20
0.0
 30
0.0
 11
-1.399999999999636
 21
0.0
 31
0.0
  0
ENDBLK
  5
8C1
330
8BC
100
AcDbEntity
  8
0
100
AcDbBlockEnd
  0
BLOCK
  5
1D633
330
1D61C
100
AcDbEntity
  8
0
100
AcDbBlockBegin
  2
A$C6E466029
 70
     0
 10
0.0
 20
0.0
 30
0.0
  3
A$C6E466029
  1

  0
LINE
  5
1D61D
330
1D61C
100
AcDbEntity
  8
0
100
AcDbLine
 10
0.1051007901540757
 20
0.0196592503770745
 30
0.0
 11
0.1025125997055838
 21
0.0199999921141831
 31
0.0
  0
LINE
  5
1D61E
330
1D61C
100
AcDbEntity
  8
0
100
AcDbLine
 10
0.1075125997006836
 20
0.0186602461520273
 30
0.0
 11
0.1051007901540757
 21
0.0196592503770745
 31
0.0
  0
LINE
  5
1D61F
330
1D61C
100
AcDbEntity
  8
0
100
AcDbLine
 10
0.1095836675105133
 20
0.0170710599260495
 30
0.0
 11
0.1075125997006836
 21
0.0186602461520273
 31
0.0
  0
LINE
  5
1D620
330
1D61C
100
AcDbEntity
  8
0
100
AcDbLine
 10
0.111172853734935
 20
0.0149999921141841
 30
0.0
 11
0.1095836675105133
 21
0.0170710599260495
 31
0.0
  0
LINE
  5
1D621
330
1D61C
100
AcDbEntity
  8
0
100
AcDbLine
 10
0.1121718579590052
 20
0.0125881825652101
 30
0.0
 11
0.111172853734935
 21
0.0149999921141841
 31
0.0
  0
LINE
  5
1D622
330
1D61C
100
AcDbEntity
  8
0
100
AcDbLine
 10
0.1125125996957763
 20
0.0099999921141851
 30
0.0
 11
0.1121718579590052
 21
0.0125881825652101
 31
0.0
  0
LINE
  5
1D623
330
1D61C
100
AcDbEntity
  8
0
100
AcDbLine
 10
0.1121718579590052
 20
0.0074118016631601
 30
0.0
 11
0.1125125996957763
 21
0.0099999921141851
 31
0.0
  0
LINE
  5
1D624
330
1D61C
100
AcDbEntity
  8
0
100
AcDbLine
 10
0.111172853734935
 20
0.0049999921141826
 30
0.0
 11
0.1121718579590052
 21
0.0074118016631601
 31
0.0
  0
LINE
  5
1D625
330
1D61C
100
AcDbEntity
  8
0
100
AcDbLine
 10
0.1095836675105133
 20
0.0029289243023172
 30
0.0
 11
0.111172853734935
 21
0.0049999921141826
 31
0.0
  0
LINE
  5
1D626
330
1D61C
100
AcDbEntity
  8
0
100
AcDbLine
 10
0.1075125997006836
 20
0.0013397380763394
 30
0.0
 11
0.1095836675105133
 21
0.0029289243023172
 31
0.0
  0
LINE
  5
1D627
330
1D61C
100
AcDbEntity
  8
0
100
AcDbLine
 10
0.1051007901540757
 20
0.0003407338512922
 30
0.0
 11
0.1075125997006836
 21
0.0013397380763394
 31
0.0
  0
LINE
  5
1D628
330
1D61C
100
AcDbEntity
  8
0
100
AcDbLine
 10
0.1025125997055838
 20
-0.0000000078858164
 30
0.0
 11
0.1051007901540757
 21
0.0003407338512922
 31
0.0
  0
LINE
  5
1D629
330
1D61C
100
AcDbEntity
  8
0
100
AcDbLine
 10
0.1025125997055838
 20
0.0199999921141831
 30
0.0
 11
0.0025125997055824
 21
0.0199999921141831
 31
0.0
  0
LINE
  5
1D62A
330
1D61C
100
AcDbEntity
  8
0
100
AcDbLine
 10
0.1025125997055838
 20
-0.0000000078858164
 30
0.0
 11
0.0025125997055824
 21
-0.0000000078858164
 31
0.0
  0
LINE
  5
1D62B
330
1D61C
100
AcDbEntity
  8
0
100
AcDbLine
 10
-0.0000000278010859
 20
0.0099999921141851
 30
0.0
 11
0.0556214901609025
 21
0.0099999921141851
 31
0.0
  0
LINE
  5
1D62C
330
1D61C
100
AcDbEntity
  8
0
100
AcDbLine
 10
0.0556214901609025
 20
0.0099999921141851
 30
0.0
 11
0.0905866383443268
 21
0.0099999921141851
 31
0.0
  0
LINE
  5
1D62D
330
1D61C
100
AcDbEntity
  8
0
100
AcDbLine
 10
0.0905866383443268
 20
0.0099999921141851
 30
0.0
 11
0.1025125997055838
 21
0.0099999921141851
 31
0.0
  0
LINE
  5
1D62E
330
1D61C
100
AcDbEntity
  8
0
100
AcDbLine
 10
0.1025125997055838
 20
0.0099999921141851
 30
0.0
 11
0.0905866396941662
 21
0.0099999921141851
 31
0.0
  0
LINE
  5
1D62F
330
1D61C
100
AcDbEntity
  8
0
100
AcDbLine
 10
0.0905866396941662
 20
0.0099999921141851
 30
0.0
 11
0.0556214927686085
 21
0.0099999921141851
 31
0.0
  0
LINE
  5
1D630
330
1D61C
100
AcDbEntity
  8
0
100
AcDbLine
 10
0.0556214927686085
 20
0.0099999921141851
 30
0.0
 11
-0.0000000241132341
 21
0.0099999921141851
 31
0.0
  0
ENDBLK
  5
1D634
330
1D61C
100
AcDbEntity
  8
0
100
AcDbBlockEnd
  0
BLOCK
  5
275BF
330
27503
100
AcDbEntity
  8
0
100
AcDbBlockBegin
  2
A$C07CB6AC5
 70
     0
 10
0.0
 20
0.0
 30
0.0
  3
A$C07CB6AC5
  1

  0
LINE
  5
27504
330
27503
100
AcDbEntity
  8
0
100
AcDbLine
 10
0.0012942090576118
 20
0.0464699775960185
 30
0.0
 11
0.0017179688086983
 21
0.0437161961416095
 31
0.0
  0
LINE
  5
27505
330
27503
100
AcDbEntity
  8
0
100
AcDbLine
 10
0.0009408715098616
 20
0.0624676042545573
 30
0.0
 11
0.0012942090576118
 21
0.0464699775960185
 31
0.0
  0
LINE
  5
27506
330
27503
100
AcDbEntity
  8
0
100
AcDbLine
 10
0.0017179688086983
 20
0.0437161961416095
 30
0.0
 11
0.002941350377391
 21
0.0409314418100522
 31
0.0
  0
LINE
  5
27507
330
27503
100
AcDbEntity
  8
0
100
AcDbLine
 10
0.002941350377391
 20
0.0409314418100522
 30
0.0
 11
0.0048420356893431
 21
0.0385585838046652
 31
0.0
  0
LINE
  5
27508
330
27503
100
AcDbEntity
  8
0
100
AcDbLine
 10
0.0048420356893431
 20
0.0385585838046652
 30
0.0
 11
0.0072904961815894
 21
0.0367593284771672
 31
0.0
  0
LINE
  5
27509
330
27503
100
AcDbEntity
  8
0
100
AcDbLine
 10
0.0072904961815894
 20
0.0367593284771672
 30
0.0
 11
0.008075705106279
 21
0.0364532137521891
 31
0.0
  0
LINE
  5
2750A
330
27503
100
AcDbEntity
  8
0
100
AcDbLine
 10
0.0157742090351079
 20
0.0444915959589665
 30
0.0
 11
0.0162396935336844
 21
0.0451280635907878
 31
0.0
  0
LINE
  5
2750B
330
27503
100
AcDbEntity
  8
0
100
AcDbLine
 10
0.0158228071867583
 20
0.0357385205763947
 30
0.0
 11
0.0161372893638401
 21
0.0357869877590034
 31
0.0
  0
LINE
  5
2750C
330
27503
100
AcDbEntity
  8
0
100
AcDbLine
 10
0.0189152513143043
 20
0.0370118130928674
 30
0.0
 11
0.0212819220573053
 21
0.0389156509724771
 31
0.0
  0
LINE
  5
2750D
330
27503
100
AcDbEntity
  8
0
100
AcDbLine
 10
0.0212819220573053
 20
0.0389156509724771
 30
0.0
 11
0.0230760168928086
 21
0.0413687579925792
 31
0.0
  0
LINE
  5
2750E
330
27503
100
AcDbEntity
  8
0
100
AcDbLine
 10
0.0230760168928086
 20
0.0413687579925792
 30
0.0
 11
0.0241752712226529
 21
0.0442039589637133
 31
0.0
  0
LINE
  5
2750F
330
27503
100
AcDbEntity
  8
0
100
AcDbLine
 10
0.0241752712226529
 20
0.0442039589637133
 30
0.0
 11
0.0244770380837807
 21
0.0469734985399626
 31
0.0
  0
LINE
  5
27510
330
27503
100
AcDbEntity
  8
0
100
AcDbLine
 10
0.0166019079914506
 20
0.0460622885053752
 30
0.0
 11
0.016738216363315
 21
0.0473132921080648
 31
0.0
  0
LINE
  5
27511
330
27503
100
AcDbEntity
  8
0
100
AcDbLine
 10
0.0244770380837807
 20
0.0469734985399626
 30
0.0
 11
0.0241237005360233
 21
0.0629711251985015
 31
0.0
  0
LINE
  5
27512
330
27503
100
AcDbEntity
  8
0
100
AcDbLine
 10
0.016738216363315
 20
0.0473132921080648
 30
0.0
 11
0.0164073029057192
 21
0.0622956510011008
 31
0.0
  0
LINE
  5
27513
330
27503
100
AcDbEntity
  8
0
100
AcDbLine
 10
0.0138775904819184
 20
0.0961614986563433
 30
0.0
 11
0.0145094880071284
 21
0.0953658938916036
 31
0.0
  0
LINE
  5
27514
330
27503
100
AcDbEntity
  8
0
100
AcDbLine
 10
0.0146854324407926
 20
0.0950528047286028
 30
0.0
 11
0.0145094880071284
 21
0.0953658938916036
 31
0.0
  0
LINE
  5
27515
330
27503
100
AcDbEntity
  8
0
100
AcDbLine
 10
0.0130636604810448
 20
0.09676484066825
 30
0.0
 11
0.0138775904819184
 21
0.0961614986563433
 31
0.0
  0
LINE
  5
27516
330
27503
100
AcDbEntity
  8
0
100
AcDbLine
 10
0.0121231659889887
 20
0.0971348031662771
 30
0.0
 11
0.0130636604810448
 21
0.09676484066825
 31
0.0
  0
LINE
  5
27517
330
27503
100
AcDbEntity
  8
0
100
AcDbLine
 10
0.0111202001511472
 20
0.0972461738175739
 30
0.0
 11
0.0121231659889887
 21
0.0971348031662771
 31
0.0
  0
LINE
  5
27518
330
27503
100
AcDbEntity
  8
0
100
AcDbLine
 10
0.0160319289829971
 20
0.0734987016592541
 30
0.0
 11
0.0159170007066862
 21
0.0787021669253818
 31
0.0
  0
LINE
  5
27519
330
27503
100
AcDbEntity
  8
0
100
AcDbLine
 10
0.0156534595019125
 20
0.0886593880074216
 30
0.0
 11
0.0156064679997528
 21
0.0895980736032414
 31
0.0
  0
LINE
  5
2751A
330
27503
100
AcDbEntity
  8
0
100
AcDbLine
 10
0.0156064679997528
 20
0.0895980736032414
 30
0.0
 11
0.0154883416870604
 21
0.091193601848957
 31
0.0
  0
LINE
  5
2751B
330
27503
100
AcDbEntity
  8
0
100
AcDbLine
 10
0.0154883416870604
 20
0.091193601848957
 30
0.0
 11
0.0153533824242302
 21
0.0924133316148286
 31
0.0
  0
LINE
  5
2751C
330
27503
100
AcDbEntity
  8
0
100
AcDbLine
 10
0.0152363513083529
 20
0.0932894547823153
 30
0.0
 11
0.0153533824242302
 21
0.0924133316148286
 31
0.0
  0
LINE
  5
2751D
330
27503
100
AcDbEntity
  8
0
100
AcDbLine
 10
0.0152363513083529
 20
0.0932894547823153
 30
0.0
 11
0.0150751439686658
 21
0.0941495689654986
 31
0.0
  0
LINE
  5
2751E
330
27503
100
AcDbEntity
  8
0
100
AcDbLine
 10
0.0146854324407926
 20
0.0950528047286028
 30
0.0
 11
0.0150751439686658
 21
0.0941495689654986
 31
0.0
  0
LINE
  5
2751F
330
27503
100
AcDbEntity
  8
0
100
AcDbLine
 10
0.0101231134318809
 20
0.0970913628963075
 30
0.0
 11
0.0111202001511472
 21
0.0972461738175739
 31
0.0
  0
LINE
  5
27520
330
27503
100
AcDbEntity
  8
0
100
AcDbLine
 10
0.0091998556433524
 20
0.0966809205109272
 30
0.0
 11
0.0101231134318809
 21
0.0970913628963075
 31
0.0
  0
LINE
  5
27521
330
27503
100
AcDbEntity
  8
0
100
AcDbLine
 10
0.0084133452780861
 20
0.0960428176316981
 30
0.0
 11
0.0091998556433524
 21
0.0966809205109272
 31
0.0
  0
LINE
  5
27522
330
27503
100
AcDbEntity
  8
0
100
AcDbLine
 10
0.0079448878796597
 20
0.0953966827361868
 30
0.0
 11
0.0084133452780861
 21
0.0960428176316981
 31
0.0
  0
LINE
  5
27523
330
27503
100
AcDbEntity
  8
0
100
AcDbLine
 10
0.0148489102225042
 20
0.092168882974093
 30
0.0
 11
0.014795440945889
 21
0.0917809206908089
 31
0.0
  0
LINE
  5
27524
330
27503
100
AcDbEntity
  8
0
100
AcDbLine
 10
0.0147524133754189
 20
0.0911178446009231
 30
0.0
 11
0.0147051435743535
 21
0.0895052903022418
 31
0.0
  0
LINE
  5
27525
330
27503
100
AcDbEntity
  8
0
100
AcDbLine
 10
0.0070248037000269
 20
0.0909500042862774
 30
0.0
 11
0.0069775338989686
 21
0.089337449987589
 31
0.0
  0
LINE
  5
27526
330
27503
100
AcDbEntity
  8
0
100
AcDbLine
 10
0.0147051435743535
 20
0.0895052903022418
 30
0.0
 11
0.0146944144802319
 21
0.0876319931655658
 31
0.0
  0
LINE
  5
27527
330
27503
100
AcDbEntity
  8
0
100
AcDbLine
 10
0.0069775338989686
 20
0.089337449987589
 30
0.0
 11
0.0069668048048399
 21
0.0874641528509202
 31
0.0
  0
LINE
  5
27528
330
27503
100
AcDbEntity
  8
0
100
AcDbLine
 10
0.0069668048048399
 20
0.0874641528509202
 30
0.0
 11
0.0069933475877022
 21
0.085457774980334
 31
0.0
  0
LINE
  5
27529
330
27503
100
AcDbEntity
  8
0
100
AcDbLine
 10
0.0019672480178841
 20
0.0159976259272057
 30
0.0
 11
0.0023205855656414
 21
-0.0000000007313403
 31
0.0
  0
LINE
  5
2752A
330
27503
100
AcDbEntity
  8
0
100
AcDbLine
 10
0.0163244127838311
 20
0.0273148323624426
 30
0.0
 11
0.0160080922366888
 21
0.0273495987847667
 31
0.0
  0
LINE
  5
2752B
330
27503
100
AcDbEntity
  8
0
100
AcDbLine
 10
0.0255034145918103
 20
0.0005035202126109
 30
0.0
 11
0.0251500770440529
 21
0.0165011468711427
 31
0.0
  0
LINE
  5
2752C
330
27503
100
AcDbEntity
  8
0
100
AcDbLine
 10
0.0177645928713375
 20
0.0008433137807131
 30
0.0
 11
0.0174336794137489
 21
0.0158256726737491
 31
0.0
  0
LINE
  5
2752D
330
27503
100
AcDbEntity
  8
0
100
AcDbLine
 10
0.0251500770440529
 20
0.0165011468711427
 30
0.0
 11
0.0247263172929735
 21
0.0192549283255517
 31
0.0
  0
LINE
  5
2752E
330
27503
100
AcDbEntity
  8
0
100
AcDbLine
 10
0.0174336794137489
 20
0.0158256726737491
 30
0.0
 11
0.0172422667400198
 21
0.0170695583181413
 31
0.0
  0
LINE
  5
2752F
330
27503
100
AcDbEntity
  8
0
100
AcDbLine
 10
0.0247263172929735
 20
0.0192549283255517
 30
0.0
 11
0.0235029357242809
 21
0.0220396826571161
 31
0.0
  0
LINE
  5
27530
330
27503
100
AcDbEntity
  8
0
100
AcDbLine
 10
0.0235029357242809
 20
0.0220396826571161
 30
0.0
 11
0.0216022504123217
 21
0.0244125406625031
 31
0.0
  0
LINE
  5
27531
330
27503
100
AcDbEntity
  8
0
100
AcDbLine
 10
0.0022690148790119
 20
0.0187671655034549
 30
0.0
 11
0.0019672480178841
 21
0.0159976259272057
 31
0.0
  0
LINE
  5
27532
330
27503
100
AcDbEntity
  8
0
100
AcDbLine
 10
0.0168391512102417
 20
0.0179871605989064
 30
0.0
 11
0.0163320797536315
 21
0.018620199933487
 31
0.0
  0
LINE
  5
27533
330
27503
100
AcDbEntity
  8
0
100
AcDbLine
 10
0.0216022504123217
 20
0.0244125406625031
 30
0.0
 11
0.0191537899200824
 21
0.026211795990001
 31
0.0
  0
LINE
  5
27534
330
27503
100
AcDbEntity
  8
0
100
AcDbLine
 10
0.0082999749663912
 20
0.0262992249796739
 30
0.0
 11
0.0075290347873604
 21
0.0259593113743009
 31
0.0
  0
LINE
  5
27535
330
27503
100
AcDbEntity
  8
0
100
AcDbLine
 10
0.0075290347873604
 20
0.0259593113743009
 30
0.0
 11
0.0051623640443665
 21
0.0240554734946912
 31
0.0
  0
LINE
  5
27536
330
27503
100
AcDbEntity
  8
0
100
AcDbLine
 10
0.0051623640443665
 20
0.0240554734946912
 30
0.0
 11
0.0033682692088632
 21
0.021602366474589
 31
0.0
  0
LINE
  5
27537
330
27503
100
AcDbEntity
  8
0
100
AcDbLine
 10
0.0033682692088632
 20
0.021602366474589
 30
0.0
 11
0.0022690148790119
 21
0.0187671655034549
 31
0.0
  0
LINE
  5
27538
330
27503
100
AcDbEntity
  8
0
100
AcDbLine
 10
0.0160894592737933
 20
0.0236656441918441
 30
0.0
 11
0.0161514650868426
 21
0.0216629169235532
 31
0.0
  0
LINE
  5
27539
330
27503
100
AcDbEntity
  8
0
100
AcDbLine
 10
0.0084238554114577
 20
0.0214950766089075
 30
0.0
 11
0.0085170986610095
 21
0.0196324824965615
 31
0.0
  0
LINE
  5
2753A
330
27503
100
AcDbEntity
  8
0
100
AcDbLine
 10
0.0083618495984084
 20
0.0234978038771985
 30
0.0
 11
0.0084238554114577
 21
0.0214950766089075
 31
0.0
  0
LINE
  5
2753B
330
27503
100
AcDbEntity
  8
0
100
AcDbLine
 10
0.0161514650868426
 20
0.0216629169235532
 30
0.0
 11
0.0162447083363944
 21
0.0198003228112143
 31
0.0
  0
LINE
  5
2753C
330
27503
100
AcDbEntity
  8
0
100
AcDbLine
 10
0.015710221382669
 20
0.0131877384681118
 30
0.0
 11
0.0163063849430429
 21
0.0140100161844643
 31
0.0
  0
LINE
  5
2753D
330
27503
100
AcDbEntity
  8
0
100
AcDbLine
 10
0.0149237110174028
 20
0.0125496355888828
 30
0.0
 11
0.015710221382669
 21
0.0131877384681118
 31
0.0
  0
LINE
  5
2753E
330
27503
100
AcDbEntity
  8
0
100
AcDbLine
 10
0.0163063849430429
 20
0.0140100161844643
 30
0.0
 11
0.0164677321736093
 21
0.0143578265123736
 31
0.0
  0
LINE
  5
2753F
330
27503
100
AcDbEntity
  8
0
100
AcDbLine
 10
0.0164677321736093
 20
0.0143578265123736
 30
0.0
 11
0.0166942169038009
 21
0.0149517980546463
 31
0.0
  0
LINE
  5
27540
330
27503
100
AcDbEntity
  8
0
100
AcDbLine
 10
0.0140004532288671
 20
0.0121391932035024
 30
0.0
 11
0.0149237110174028
 21
0.0125496355888828
 31
0.0
  0
LINE
  5
27541
330
27503
100
AcDbEntity
  8
0
100
AcDbLine
 10
0.0164298068490254
 20
0.0175995157276887
 30
0.0
 11
0.0165047453808072
 21
0.0171996847138942
 31
0.0
  0
LINE
  5
27542
330
27503
100
AcDbEntity
  8
0
100
AcDbLine
 10
0.0130033665096008
 20
0.011984382282229
 30
0.0
 11
0.0140004532288671
 21
0.0121391932035024
 31
0.0
  0
LINE
  5
27543
330
27503
100
AcDbEntity
  8
0
100
AcDbLine
 10
0.0120004006717594
 20
0.0120957529335328
 30
0.0
 11
0.0130033665096008
 21
0.011984382282229
 31
0.0
  0
LINE
  5
27544
330
27503
100
AcDbEntity
  8
0
100
AcDbLine
 10
0.0110599061797032
 20
0.0124657154315529
 30
0.0
 11
0.0120004006717594
 21
0.0120957529335328
 31
0.0
  0
LINE
  5
27545
330
27503
100
AcDbEntity
  8
0
100
AcDbLine
 10
0.0102459761788367
 20
0.0130690574434667
 30
0.0
 11
0.0110599061797032
 21
0.0124657154315529
 31
0.0
  0
LINE
  5
27546
330
27503
100
AcDbEntity
  8
0
100
AcDbLine
 10
0.0097494395060025
 20
0.0136942330882661
 30
0.0
 11
0.0102459761788367
 21
0.0130690574434667
 31
0.0
  0
LINE
  5
27547
330
27503
100
AcDbEntity
  8
0
100
AcDbLine
 10
0.0168172485495077
 20
0.0152744568770942
 30
0.0
 11
0.0169398162197823
 21
0.0161637831635133
 31
0.0
  0
LINE
  5
27548
330
27503
100
AcDbEntity
  8
0
100
AcDbLine
 10
0.0169398162197823
 20
0.0161637831635133
 30
0.0
 11
0.017018173811536
 21
0.0170386332634323
 31
0.0
  0
LINE
  5
27549
330
27503
100
AcDbEntity
  8
0
100
AcDbLine
 10
0.017018173811536
 20
0.0170386332634323
 30
0.0
 11
0.0170487629165379
 21
0.0175100264634978
 31
0.0
  0
LINE
  5
2754A
330
27503
100
AcDbEntity
  8
0
100
AcDbLine
 10
0.0149039669899409
 20
0.0496915203289845
 30
0.0
 11
0.0155358645151509
 21
0.0488959155642448
 31
0.0
  0
LINE
  5
2754B
330
27503
100
AcDbEntity
  8
0
100
AcDbLine
 10
0.0157118089488151
 20
0.0485828264012511
 30
0.0
 11
0.0155358645151509
 21
0.0488959155642448
 31
0.0
  0
LINE
  5
2754C
330
27503
100
AcDbEntity
  8
0
100
AcDbLine
 10
0.0140900369890744
 20
0.0502948623408983
 30
0.0
 11
0.0149039669899409
 21
0.0496915203289845
 31
0.0
  0
LINE
  5
2754D
330
27503
100
AcDbEntity
  8
0
100
AcDbLine
 10
0.0131495424970254
 20
0.0506648248389183
 30
0.0
 11
0.0140900369890744
 21
0.0502948623408983
 31
0.0
  0
LINE
  5
2754E
330
27503
100
AcDbEntity
  8
0
100
AcDbLine
 10
0.0121465766591769
 20
0.0507761954902222
 30
0.0
 11
0.0131495424970254
 21
0.0506648248389183
 31
0.0
  0
LINE
  5
2754F
330
27503
100
AcDbEntity
  8
0
100
AcDbLine
 10
0.0170583054910267
 20
0.0270287233319024
 30
0.0
 11
0.0168578458390414
 21
0.0361046867919797
 31
0.0
  0
LINE
  5
27550
330
27503
100
AcDbEntity
  8
0
100
AcDbLine
 10
0.0157207909882615
 20
0.0411620148382141
 30
0.0
 11
0.0157473337711167
 21
0.039155636967628
 31
0.0
  0
LINE
  5
27551
330
27503
100
AcDbEntity
  8
0
100
AcDbLine
 10
0.016418842499526
 20
0.0455901252885482
 30
0.0
 11
0.0163797589322599
 21
0.0459433532874769
 31
0.0
  0
LINE
  5
27552
330
27503
100
AcDbEntity
  8
0
100
AcDbLine
 10
0.0162627278163754
 20
0.0468194764549566
 30
0.0
 11
0.0163797589322599
 21
0.0459433532874769
 31
0.0
  0
LINE
  5
27553
330
27503
100
AcDbEntity
  8
0
100
AcDbLine
 10
0.0162627278163754
 20
0.0468194764549566
 30
0.0
 11
0.0161015204766883
 21
0.0476795906381469
 31
0.0
  0
LINE
  5
27554
330
27503
100
AcDbEntity
  8
0
100
AcDbLine
 10
0.0157118089488151
 20
0.0485828264012511
 30
0.0
 11
0.0161015204766883
 21
0.0476795906381469
 31
0.0
  0
LINE
  5
27555
330
27503
100
AcDbEntity
  8
0
100
AcDbLine
 10
0.0111494899399105
 20
0.0506213845689487
 30
0.0
 11
0.0121465766591769
 21
0.0507761954902222
 31
0.0
  0
LINE
  5
27556
330
27503
100
AcDbEntity
  8
0
100
AcDbLine
 10
0.0102262321513749
 20
0.0502109421835684
 30
0.0
 11
0.0111494899399105
 21
0.0506213845689487
 31
0.0
  0
LINE
  5
27557
330
27503
100
AcDbEntity
  8
0
100
AcDbLine
 10
0.0094397217861157
 20
0.0495728393043393
 30
0.0
 11
0.0102262321513749
 21
0.0502109421835684
 31
0.0
  0
LINE
  5
27558
330
27503
100
AcDbEntity
  8
0
100
AcDbLine
 10
0.0089712643876894
 20
0.0489267044088351
 30
0.0
 11
0.0094397217861157
 21
0.0495728393043393
 31
0.0
  0
LINE
  5
27559
330
27503
100
AcDbEntity
  8
0
100
AcDbLine
 10
0.015875286730541
 20
0.0456989046467342
 30
0.0
 11
0.0158218174539187
 21
0.0453109423634501
 31
0.0
  0
LINE
  5
2755A
330
27503
100
AcDbEntity
  8
0
100
AcDbLine
 10
0.0080521595334702
 20
0.0444951178466724
 30
0.0
 11
0.0080039104069911
 21
0.0428674716602373
 31
0.0
  0
LINE
  5
2755B
330
27503
100
AcDbEntity
  8
0
100
AcDbLine
 10
0.0157315200823831
 20
0.043035311974883
 30
0.0
 11
0.0157207909882615
 21
0.0411620148382141
 31
0.0
  0
LINE
  5
2755C
330
27503
100
AcDbEntity
  8
0
100
AcDbLine
 10
0.0080039104069911
 20
0.0428674716602373
 30
0.0
 11
0.0079931813128695
 21
0.0409941745235614
 31
0.0
  0
LINE
  5
2755D
330
27503
100
AcDbEntity
  8
0
100
AcDbLine
 10
0.0079931813128695
 20
0.0409941745235614
 30
0.0
 11
0.0080197240957318
 21
0.0389877966529824
 31
0.0
  0
LINE
  5
2755E
330
27503
100
AcDbEntity
  8
0
100
AcDbLine
 10
0.0003533639252566
 20
0.0890674577294206
 30
0.0
 11
0.0007771236763361
 21
0.0863136762750188
 31
0.0
  0
LINE
  5
2755F
330
27503
100
AcDbEntity
  8
0
100
AcDbLine
 10
0.0000000263774993
 20
0.1050650843879666
 30
0.0
 11
0.0003533639252566
 21
0.0890674577294206
 31
0.0
  0
LINE
  5
27560
330
27503
100
AcDbEntity
  8
0
100
AcDbLine
 10
0.0007771236763361
 20
0.0863136762750188
 30
0.0
 11
0.0020005052450287
 21
0.0835289219434614
 31
0.0
  0
LINE
  5
27561
330
27503
100
AcDbEntity
  8
0
100
AcDbLine
 10
0.0020005052450287
 20
0.0835289219434614
 30
0.0
 11
0.0039011905569879
 21
0.0811560639380673
 31
0.0
  0
LINE
  5
27562
330
27503
100
AcDbEntity
  8
0
100
AcDbLine
 10
0.0039011905569879
 20
0.0811560639380673
 30
0.0
 11
0.0063496510492271
 21
0.0793568086105694
 31
0.0
  0
LINE
  5
27563
330
27503
100
AcDbEntity
  8
0
100
AcDbLine
 10
0.0063496510492271
 20
0.0793568086105694
 30
0.0
 11
0.0071348599739238
 21
0.0790506938855984
 31
0.0
  0
LINE
  5
27564
330
27503
100
AcDbEntity
  8
0
100
AcDbLine
 10
0.0152988484013292
 20
0.0877255437241971
 30
0.0
 11
0.0156534595019125
 21
0.0886593880074216
 31
0.0
  0
LINE
  5
27565
330
27503
100
AcDbEntity
  8
0
100
AcDbLine
 10
0.0147076775772774
 20
0.0869172222966697
 30
0.0
 11
0.0152988484013292
 21
0.0877255437241971
 31
0.0
  0
LINE
  5
27566
330
27503
100
AcDbEntity
  8
0
100
AcDbLine
 10
0.0148819620544032
 20
0.078336000709804
 30
0.0
 11
0.0151964442314849
 21
0.0783844678924055
 31
0.0
  0
LINE
  5
27567
330
27503
100
AcDbEntity
  8
0
100
AcDbLine
 10
0.017974406181942
 20
0.0796092932262695
 30
0.0
 11
0.020341076924943
 21
0.0815131311058863
 31
0.0
  0
LINE
  5
27568
330
27503
100
AcDbEntity
  8
0
100
AcDbLine
 10
0.020341076924943
 20
0.0815131311058863
 30
0.0
 11
0.0221351717604463
 21
0.0839662381259885
 31
0.0
  0
LINE
  5
27569
330
27503
100
AcDbEntity
  8
0
100
AcDbLine
 10
0.0221351717604463
 20
0.0839662381259885
 30
0.0
 11
0.0232344260902906
 21
0.0868014390971155
 31
0.0
  0
LINE
  5
2756A
330
27503
100
AcDbEntity
  8
0
100
AcDbLine
 10
0.0232344260902906
 20
0.0868014390971155
 30
0.0
 11
0.0235361929514255
 21
0.0895709786733718
 31
0.0
  0
LINE
  5
2756B
330
27503
100
AcDbEntity
  8
0
100
AcDbLine
 10
0.0156534595019125
 20
0.0886593880074216
 30
0.0
 11
0.0157973712309527
 21
0.0899107722414741
 31
0.0
  0
LINE
  5
2756C
330
27503
100
AcDbEntity
  8
0
100
AcDbLine
 10
0.0235361929514255
 20
0.0895709786733718
 30
0.0
 11
0.0231828554036682
 21
0.1055686053319036
 31
0.0
  0
LINE
  5
2756D
330
27503
100
AcDbEntity
  8
0
100
AcDbLine
 10
0.0157973712309527
 20
0.0899107722414741
 30
0.0
 11
0.015466457773357
 21
0.10489313113451
 31
0.0
  0
LINE
  5
2756E
330
27503
100
AcDbEntity
  8
0
100
AcDbLine
 10
0.0231828554036682
 20
0.1055686053319036
 30
0.0
 11
0.0227590956525816
 21
0.1083223867863126
 31
0.0
  0
LINE
  5
2756F
330
27503
100
AcDbEntity
  8
0
100
AcDbLine
 10
0.015466457773357
 20
0.10489313113451
 30
0.0
 11
0.0152750450996351
 21
0.1061370167789022
 31
0.0
  0
LINE
  5
27570
330
27503
100
AcDbEntity
  8
0
100
AcDbLine
 10
0.0227590956525816
 20
0.1083223867863126
 30
0.0
 11
0.021535714083889
 21
0.111107141117877
 31
0.0
  0
LINE
  5
27571
330
27503
100
AcDbEntity
  8
0
100
AcDbLine
 10
0.021535714083889
 20
0.111107141117877
 30
0.0
 11
0.0196350287719369
 21
0.113479999123264
 31
0.0
  0
LINE
  5
27572
330
27503
100
AcDbEntity
  8
0
100
AcDbLine
 10
0.0003017932386271
 20
0.1078346239642158
 30
0.0
 11
0.0000000263774993
 21
0.1050650843879666
 31
0.0
  0
LINE
  5
27573
330
27503
100
AcDbEntity
  8
0
100
AcDbLine
 10
0.0148719295698499
 20
0.1070546190596673
 30
0.0
 11
0.0143648581132396
 21
0.1076876583942479
 31
0.0
  0
LINE
  5
27574
330
27503
100
AcDbEntity
  8
0
100
AcDbLine
 10
0.0196350287719369
 20
0.113479999123264
 30
0.0
 11
0.0171865682796906
 21
0.1152792544507619
 31
0.0
  0
LINE
  5
27575
330
27503
100
AcDbEntity
  8
0
100
AcDbLine
 10
0.0055618131469757
 20
0.1150267698350618
 30
0.0
 11
0.0031951424039818
 21
0.1131229319554521
 31
0.0
  0
LINE
  5
27576
330
27503
100
AcDbEntity
  8
0
100
AcDbLine
 10
0.0031951424039818
 20
0.1131229319554521
 30
0.0
 11
0.0014010475684785
 21
0.1106698249353499
 31
0.0
  0
LINE
  5
27577
330
27503
100
AcDbEntity
  8
0
100
AcDbLine
 10
0.0014010475684785
 20
0.1106698249353499
 30
0.0
 11
0.0003017932386271
 21
0.1078346239642158
 31
0.0
  0
LINE
  5
27578
330
27503
100
AcDbEntity
  8
0
100
AcDbLine
 10
0.0141222376334085
 20
0.112733102652605
 30
0.0
 11
0.0141842434464579
 21
0.1107303753843141
 31
0.0
  0
LINE
  5
27579
330
27503
100
AcDbEntity
  8
0
100
AcDbLine
 10
0.0064566337710659
 20
0.1105625350696684
 30
0.0
 11
0.0065498770206176
 21
0.1086999409573224
 31
0.0
  0
LINE
  5
2757A
330
27503
100
AcDbEntity
  8
0
100
AcDbLine
 10
0.0063946279580165
 20
0.1125652623379594
 30
0.0
 11
0.0064566337710659
 21
0.1105625350696684
 31
0.0
  0
LINE
  5
2757B
330
27503
100
AcDbEntity
  8
0
100
AcDbLine
 10
0.0141842434464579
 20
0.1107303753843141
 30
0.0
 11
0.0142774866960096
 21
0.1088677812719752
 31
0.0
  0
LINE
  5
2757C
330
27503
100
AcDbEntity
  8
0
100
AcDbLine
 10
0.0137429997422842
 20
0.1022551969288656
 30
0.0
 11
0.0143391633026582
 21
0.1030774746452252
 31
0.0
  0
LINE
  5
2757D
330
27503
100
AcDbEntity
  8
0
100
AcDbLine
 10
0.0129564893770109
 20
0.1016170940496366
 30
0.0
 11
0.0137429997422842
 21
0.1022551969288656
 31
0.0
  0
LINE
  5
2757E
330
27503
100
AcDbEntity
  8
0
100
AcDbLine
 10
0.0143391633026582
 20
0.1030774746452252
 30
0.0
 11
0.0145005105332246
 21
0.1034252849731345
 31
0.0
  0
LINE
  5
2757F
330
27503
100
AcDbEntity
  8
0
100
AcDbLine
 10
0.0145005105332246
 20
0.1034252849731345
 30
0.0
 11
0.0147269952634162
 21
0.1040192565154072
 31
0.0
  0
LINE
  5
27580
330
27503
100
AcDbEntity
  8
0
100
AcDbLine
 10
0.0120332315884824
 20
0.1012066516642633
 30
0.0
 11
0.0129564893770109
 21
0.1016170940496366
 31
0.0
  0
LINE
  5
27581
330
27503
100
AcDbEntity
  8
0
100
AcDbLine
 10
0.0144625852086406
 20
0.1066669741884496
 30
0.0
 11
0.0145375237404224
 21
0.1062671431746551
 31
0.0
  0
LINE
  5
27582
330
27503
100
AcDbEntity
  8
0
100
AcDbLine
 10
0.011036144869216
 20
0.1010518407429899
 30
0.0
 11
0.0120332315884824
 21
0.1012066516642633
 31
0.0
  0
LINE
  5
27583
330
27503
100
AcDbEntity
  8
0
100
AcDbLine
 10
0.0100331790313746
 20
0.1011632113942866
 30
0.0
 11
0.011036144869216
 21
0.1010518407429899
 31
0.0
  0
LINE
  5
27584
330
27503
100
AcDbEntity
  8
0
100
AcDbLine
 10
0.0090926845393184
 20
0.1015331738923137
 30
0.0
 11
0.0100331790313746
 21
0.1011632113942866
 31
0.0
  0
LINE
  5
27585
330
27503
100
AcDbEntity
  8
0
100
AcDbLine
 10
0.008278754538452
 20
0.1021365159042276
 30
0.0
 11
0.0090926845393184
 21
0.1015331738923137
 31
0.0
  0
LINE
  5
27586
330
27503
100
AcDbEntity
  8
0
100
AcDbLine
 10
0.0077822178656177
 20
0.102761691549027
 30
0.0
 11
0.008278754538452
 21
0.1021365159042276
 31
0.0
  0
LINE
  5
27587
330
27503
100
AcDbEntity
  8
0
100
AcDbLine
 10
0.0148500269091159
 20
0.1043419153378551
 30
0.0
 11
0.0149725945793904
 21
0.1052312416242742
 31
0.0
  0
LINE
  5
27588
330
27503
100
AcDbEntity
  8
0
100
AcDbLine
 10
0.0149725945793904
 20
0.1052312416242742
 30
0.0
 11
0.0150509521711513
 21
0.1061060917241932
 31
0.0
  0
LINE
  5
27589
330
27503
100
AcDbEntity
  8
0
100
AcDbLine
 10
0.0150509521711513
 20
0.1061060917241932
 30
0.0
 11
0.015081541276146
 21
0.1065774849242587
 31
0.0
  0
LINE
  5
2758A
330
27503
100
AcDbEntity
  8
0
100
AcDbLine
 10
0.0086503343802988
 20
0.0181035730775605
 30
0.0
 11
0.0086352249736947
 21
0.018036954250853
 31
0.0
  0
LINE
  5
2758B
330
27503
100
AcDbEntity
  8
0
100
AcDbLine
 10
0.0066831127399141
 20
0.1071710315383214
 30
0.0
 11
0.00666800333331
 21
0.1071044127116139
 31
0.0
  0
LINE
  5
2758C
330
27503
100
AcDbEntity
  8
0
100
AcDbLine
 10
0.0162396935336844
 20
0.0451280635907878
 30
0.0
 11
0.016418842499526
 21
0.0455901252885482
 31
0.0
  0
LINE
  5
2758D
330
27503
100
AcDbEntity
  8
0
100
AcDbLine
 10
0.016418842499526
 20
0.0455901252885482
 30
0.0
 11
0.0166019079914506
 21
0.0460622885053752
 31
0.0
  0
LINE
  5
2758E
330
27503
100
AcDbEntity
  8
0
100
AcDbLine
 10
0.0161372893638401
 20
0.0357869877590034
 30
0.0
 11
0.0168578458390414
 21
0.0361046867919797
 31
0.0
  0
LINE
  5
2758F
330
27503
100
AcDbEntity
  8
0
100
AcDbLine
 10
0.0168578458390414
 20
0.0361046867919797
 30
0.0
 11
0.0189152513143043
 21
0.0370118130928674
 31
0.0
  0
LINE
  5
27590
330
27503
100
AcDbEntity
  8
0
100
AcDbLine
 10
0.0069933475877022
 20
0.085457774980334
 30
0.0
 11
0.0071348599739238
 21
0.0790506938855984
 31
0.0
  0
LINE
  5
27591
330
27503
100
AcDbEntity
  8
0
100
AcDbLine
 10
0.014833002524604
 20
0.0923597631510305
 30
0.0
 11
0.014795440945889
 21
0.0917809206908089
 31
0.0
  0
LINE
  5
27592
330
27503
100
AcDbEntity
  8
0
100
AcDbLine
 10
0.014795440945889
 20
0.0917809206908089
 30
0.0
 11
0.0147524133754189
 21
0.0911178446009231
 31
0.0
  0
LINE
  5
27593
330
27503
100
AcDbEntity
  8
0
100
AcDbLine
 10
0.0146944144802319
 20
0.0876319931655658
 30
0.0
 11
0.0147076775772774
 21
0.0869172222966697
 31
0.0
  0
LINE
  5
27594
330
27503
100
AcDbEntity
  8
0
100
AcDbLine
 10
0.0147076775772774
 20
0.0869172222966697
 30
0.0
 11
0.0147209572630871
 21
0.0856256152949868
 31
0.0
  0
LINE
  5
27595
330
27503
100
AcDbEntity
  8
0
100
AcDbLine
 10
0.0097473746355874
 20
0.0137877216696723
 30
0.0
 11
0.0097494395060025
 21
0.0136942330882661
 31
0.0
  0
LINE
  5
27596
330
27503
100
AcDbEntity
  8
0
100
AcDbLine
 10
0.0097494395060025
 20
0.0136942330882661
 30
0.0
 11
0.0100369831959526
 21
0.0006754734660674
 31
0.0
  0
LINE
  5
27597
330
27503
100
AcDbEntity
  8
0
100
AcDbLine
 10
0.0172422667400198
 20
0.0170695583181413
 30
0.0
 11
0.0170487629165379
 21
0.0175100264634978
 31
0.0
  0
LINE
  5
27598
330
27503
100
AcDbEntity
  8
0
100
AcDbLine
 10
0.0170487629165379
 20
0.0175100264634978
 30
0.0
 11
0.0168391512102417
 21
0.0179871605989064
 31
0.0
  0
LINE
  5
27599
330
27503
100
AcDbEntity
  8
0
100
AcDbLine
 10
0.0191537899200824
 20
0.026211795990001
 30
0.0
 11
0.0170583054910267
 21
0.0270287233319024
 31
0.0
  0
LINE
  5
2759A
330
27503
100
AcDbEntity
  8
0
100
AcDbLine
 10
0.0170583054910267
 20
0.0270287233319024
 30
0.0
 11
0.0163244127838311
 21
0.0273148323624426
 31
0.0
  0
LINE
  5
2759B
330
27503
100
AcDbEntity
  8
0
100
AcDbLine
 10
0.0157473337711167
 20
0.039155636967628
 30
0.0
 11
0.0158228071867583
 21
0.0357385205763947
 31
0.0
  0
LINE
  5
2759C
330
27503
100
AcDbEntity
  8
0
100
AcDbLine
 10
0.0080197240957318
 20
0.0389877966529824
 30
0.0
 11
0.008075705106279
 21
0.0364532137521891
 31
0.0
  0
LINE
  5
2759D
330
27503
100
AcDbEntity
  8
0
100
AcDbLine
 10
0.0162447083363944
 20
0.0198003228112143
 30
0.0
 11
0.0163320797536315
 21
0.018620199933487
 31
0.0
  0
LINE
  5
2759E
330
27503
100
AcDbEntity
  8
0
100
AcDbLine
 10
0.0163320797536315
 20
0.018620199933487
 30
0.0
 11
0.0163628346490796
 21
0.0182047945654986
 31
0.0
  0
LINE
  5
2759F
330
27503
100
AcDbEntity
  8
0
100
AcDbLine
 10
0.0085170986610095
 20
0.0196324824965615
 30
0.0
 11
0.0086503343802988
 21
0.0181035730775605
 31
0.0
  0
LINE
  5
275A0
330
27503
100
AcDbEntity
  8
0
100
AcDbLine
 10
0.0163628346490796
 20
0.0182047945654986
 30
0.0
 11
0.0164298068490254
 21
0.0175995157276887
 31
0.0
  0
LINE
  5
275A1
330
27503
100
AcDbEntity
  8
0
100
AcDbLine
 10
0.0164298068490254
 20
0.0175995157276887
 30
0.0
 11
0.0164977939119098
 21
0.0169850647996199
 31
0.0
  0
LINE
  5
275A2
330
27503
100
AcDbEntity
  8
0
100
AcDbLine
 10
0.0158593790326336
 20
0.0458897848236717
 30
0.0
 11
0.0158218174539187
 21
0.0453109423634501
 31
0.0
  0
LINE
  5
275A3
330
27503
100
AcDbEntity
  8
0
100
AcDbLine
 10
0.0158218174539187
 20
0.0453109423634501
 30
0.0
 11
0.0157787898834485
 21
0.0446478662735714
 31
0.0
  0
LINE
  5
275A4
330
27503
100
AcDbEntity
  8
0
100
AcDbLine
 10
0.0157787898834485
 20
0.0446478662735714
 30
0.0
 11
0.0157742090351079
 21
0.0444915959589665
 31
0.0
  0
LINE
  5
275A5
330
27503
100
AcDbEntity
  8
0
100
AcDbLine
 10
0.0157742090351079
 20
0.0444915959589665
 30
0.0
 11
0.0157315200823831
 21
0.043035311974883
 31
0.0
  0
LINE
  5
275A6
330
27503
100
AcDbEntity
  8
0
100
AcDbLine
 10
0.0077801529952026
 20
0.1028551801304331
 30
0.0
 11
0.0077822178656177
 21
0.102761691549027
 31
0.0
  0
LINE
  5
275A7
330
27503
100
AcDbEntity
  8
0
100
AcDbLine
 10
0.0151964442314849
 20
0.0783844678924055
 30
0.0
 11
0.0159170007066862
 21
0.0787021669253818
 31
0.0
  0
LINE
  5
275A8
330
27503
100
AcDbEntity
  8
0
100
AcDbLine
 10
0.0159170007066862
 20
0.0787021669253818
 30
0.0
 11
0.017974406181942
 21
0.0796092932262695
 31
0.0
  0
LINE
  5
275A9
330
27503
100
AcDbEntity
  8
0
100
AcDbLine
 10
0.0152750450996351
 20
0.1061370167789022
 30
0.0
 11
0.015081541276146
 21
0.1065774849242587
 31
0.0
  0
LINE
  5
275AA
330
27503
100
AcDbEntity
  8
0
100
AcDbLine
 10
0.015081541276146
 20
0.1065774849242587
 30
0.0
 11
0.0148719295698499
 21
0.1070546190596673
 31
0.0
  0
LINE
  5
275AB
330
27503
100
AcDbEntity
  8
0
100
AcDbLine
 10
0.0142774866960096
 20
0.1088677812719752
 30
0.0
 11
0.0143648581132396
 21
0.1076876583942479
 31
0.0
  0
LINE
  5
275AC
330
27503
100
AcDbEntity
  8
0
100
AcDbLine
 10
0.0143648581132396
 20
0.1076876583942479
 30
0.0
 11
0.0143956130086949
 21
0.1072722530262595
 31
0.0
  0
LINE
  5
275AD
330
27503
100
AcDbEntity
  8
0
100
AcDbLine
 10
0.0065498770206176
 20
0.1086999409573224
 30
0.0
 11
0.0066831127399141
 21
0.1071710315383214
 31
0.0
  0
LINE
  5
275AE
330
27503
100
AcDbEntity
  8
0
100
AcDbLine
 10
0.0143956130086949
 20
0.1072722530262595
 30
0.0
 11
0.0144625852086406
 21
0.1066669741884496
 31
0.0
  0
LINE
  5
275AF
330
27503
100
AcDbEntity
  8
0
100
AcDbLine
 10
0.0144625852086406
 20
0.1066669741884496
 30
0.0
 11
0.0145305722715179
 21
0.1060525232603808
 31
0.0
  0
LINE
  5
275B0
330
27503
100
AcDbEntity
  8
0
100
AcDbLine
 10
0.00872306299798
 20
0.0601642114156178
 30
0.0
 11
0.0089712643876894
 21
0.0489267044088351
 31
0.0
  0
LINE
  5
275B1
330
27503
100
AcDbEntity
  8
0
100
AcDbLine
 10
0.0089712643876894
 20
0.0489267044088351
 30
0.0
 11
0.0089739295959603
 21
0.0488060350739588
 31
0.0
  0
LINE
  5
275B2
330
27503
100
AcDbEntity
  8
0
100
AcDbLine
 10
0.0147209572630871
 20
0.0856256152949868
 30
0.0
 11
0.0148819620544032
 21
0.078336000709804
 31
0.0
  0
LINE
  5
275B3
330
27503
100
AcDbEntity
  8
0
100
AcDbLine
 10
0.0148819620544032
 20
0.078336000709804
 30
0.0
 11
0.0149817157286592
 21
0.0738195771121255
 31
0.0
  0
LINE
  5
275B4
330
27503
100
AcDbEntity
  8
0
100
AcDbLine
 10
0.0071348599739238
 20
0.0790506938855984
 30
0.0
 11
0.0072735984583616
 21
0.0727692033070255
 31
0.0
  0
LINE
  5
275B5
330
27503
100
AcDbEntity
  8
0
100
AcDbLine
 10
0.0158228071867583
 20
0.0357385205763947
 30
0.0
 11
0.0160080922366888
 21
0.0273495987847667
 31
0.0
  0
LINE
  5
275B6
330
27503
100
AcDbEntity
  8
0
100
AcDbLine
 10
0.0160080922366888
 20
0.0273495987847667
 30
0.0
 11
0.0160894592737933
 21
0.0236656441918441
 31
0.0
  0
LINE
  5
275B7
330
27503
100
AcDbEntity
  8
0
100
AcDbLine
 10
0.008075705106279
 20
0.0364532137521891
 30
0.0
 11
0.0082999749663912
 21
0.0262992249796739
 31
0.0
  0
LINE
  5
275B8
330
27503
100
AcDbEntity
  8
0
100
AcDbLine
 10
0.0082999749663912
 20
0.0262992249796739
 30
0.0
 11
0.0083618495984084
 21
0.0234978038771985
 31
0.0
  0
LINE
  5
275B9
330
27503
100
AcDbEntity
  8
0
100
AcDbLine
 10
0.0077822178656177
 20
0.102761691549027
 30
0.0
 11
0.0079448878796597
 21
0.0953966827361868
 31
0.0
  0
LINE
  5
275BA
330
27503
100
AcDbEntity
  8
0
100
AcDbLine
 10
0.0079448878796597
 20
0.0953966827361868
 30
0.0
 11
0.0079475530879307
 21
0.0952760134013104
 31
0.0
  0
LINE
  5
275BB
330
27503
100
AcDbEntity
  8
0
100
AcDbLine
 10
0.0063327533260065
 20
0.1153666834404348
 30
0.0
 11
0.0063946279580165
 21
0.1125652623379594
 31
0.0
  0
LINE
  5
275BC
330
27503
100
AcDbEntity
  8
0
100
AcDbLine
 10
0.014040870596304
 20
0.1164170572455276
 30
0.0
 11
0.0141222376334085
 21
0.112733102652605
 31
0.0
  0
ENDBLK
  5
275C0
330
27503
100
AcDbEntity
  8
0
100
AcDbBlockEnd
  0
BLOCK
  5
30EEC
330
30E79
100
AcDbEntity
  8
0
100
AcDbBlockBegin
  2
A$C3E0C49E3
 70
     0
 10
0.0
 20
0.0
 30
0.0
  3
A$C3E0C49E3
  1

  0
LINE
  5
30E7A
330
30E79
100
AcDbEntity
  8
0
100
AcDbLine
 10
0.3004050335062871
 20
0.0050816782298888
 30
0.0
 11
0.2994060292812399
 21
0.0074934877788628
 31
0.0
  0
LINE
  5
30E7B
330
30E79
100
AcDbEntity
  8
0
100
AcDbLine
 10
0.3019942197322649
 20
0.1721225963261048
 30
0.0
 11
0.3004050335062871
 21
0.1724195708348724
 31
0.0
  0
LINE
  5
30E7C
330
30E79
100
AcDbEntity
  8
0
100
AcDbLine
 10
0.3064770970931079
 20
0.1717514705795793
 30
0.0
 11
0.3040652875441303
 21
0.171894719770787
 31
0.0
  0
LINE
  5
30E7D
330
30E79
100
AcDbEntity
  8
0
100
AcDbLine
 10
0.3019942197322649
 20
0.0030106104180234
 30
0.0
 11
0.3004050335062871
 21
0.0050816782298888
 31
0.0
  0
LINE
  5
30E7E
330
30E79
100
AcDbEntity
  8
0
100
AcDbLine
 10
0.3040652875441303
 20
0.171894719770787
 30
0.0
 11
0.3019942197322649
 21
0.1721225963261048
 31
0.0
  0
LINE
  5
30E7F
330
30E79
100
AcDbEntity
  8
0
100
AcDbLine
 10
0.2994060292812399
 20
0.0074934877788628
 30
0.0
 11
0.2990652875441313
 21
0.0100816782298878
 31
0.0
  0
LINE
  5
30E80
330
30E79
100
AcDbEntity
  8
0
100
AcDbLine
 10
0.3004050335062871
 20
0.1724195708348724
 30
0.0
 11
0.2994060292812399
 21
0.1727654049750846
 31
0.0
  0
LINE
  5
30E81
330
30E79
100
AcDbEntity
  8
0
100
AcDbLine
 10
0.3187245458070222
 20
0.0074934877788628
 30
0.0
 11
0.3177255415819751
 21
0.0050816782298888
 31
0.0
  0
LINE
  5
30E82
330
30E79
100
AcDbEntity
  8
0
100
AcDbLine
 10
0.3177255415819751
 20
0.0050816782298888
 30
0.0
 11
0.3161363553559973
 21
0.0030106104180234
 31
0.0
  0
LINE
  5
30E83
330
30E79
100
AcDbEntity
  8
0
100
AcDbLine
 10
0.3187245458070222
 20
0.1727654049750846
 30
0.0
 11
0.3177255415819751
 21
0.1724195708348724
 31
0.0
  0
LINE
  5
30E84
330
30E79
100
AcDbEntity
  8
0
100
AcDbLine
 10
0.3090652875441329
 20
0.0000816782298898
 30
0.0
 11
0.3064770970931079
 21
0.0004224199669984
 31
0.0
  0
LINE
  5
30E85
330
30E79
100
AcDbEntity
  8
0
100
AcDbLine
 10
0.3161363553559973
 20
0.0030106104180234
 30
0.0
 11
0.3140652875441319
 21
0.0014214241920456
 31
0.0
  0
LINE
  5
30E86
330
30E79
100
AcDbEntity
  8
0
100
AcDbLine
 10
0.3040652875441303
 20
0.0014214241920456
 30
0.0
 11
0.3019942197322649
 21
0.0030106104180234
 31
0.0
  0
LINE
  5
30E87
330
30E79
100
AcDbEntity
  8
0
100
AcDbLine
 10
0.3161363553559973
 20
0.1721225963261048
 30
0.0
 11
0.3140652875441319
 21
0.171894719770787
 31
0.0
  0
LINE
  5
30E88
330
30E79
100
AcDbEntity
  8
0
100
AcDbLine
 10
0.3190652875441309
 20
0.1731365307216102
 30
0.0
 11
0.3187245458070222
 21
0.1727654049750846
 31
0.0
  0
LINE
  5
30E89
330
30E79
100
AcDbEntity
  8
0
100
AcDbLine
 10
0.2994060292812399
 20
0.1727654049750846
 30
0.0
 11
0.2990652875441313
 21
0.1731365307216102
 31
0.0
  0
LINE
  5
30E8A
330
30E79
100
AcDbEntity
  8
0
100
AcDbLine
 10
0.3190652875441309
 20
0.0100816782298878
 30
0.0
 11
0.3187245458070222
 21
0.0074934877788628
 31
0.0
  0
LINE
  5
30E8B
330
30E79
100
AcDbEntity
  8
0
100
AcDbLine
 10
0.3116534779951579
 20
0.1717514705795793
 30
0.0
 11
0.3090652875441329
 21
0.171702610948131
 31
0.0
  0
LINE
  5
30E8C
330
30E79
100
AcDbEntity
  8
0
100
AcDbLine
 10
0.3140652875441319
 20
0.0014214241920456
 30
0.0
 11
0.3116534779951579
 21
0.0004224199669984
 31
0.0
  0
LINE
  5
30E8D
330
30E79
100
AcDbEntity
  8
0
100
AcDbLine
 10
0.3140652875441319
 20
0.171894719770787
 30
0.0
 11
0.3116534779951579
 21
0.1717514705795793
 31
0.0
  0
LINE
  5
30E8E
330
30E79
100
AcDbEntity
  8
0
100
AcDbLine
 10
0.3177255415819751
 20
0.1724195708348724
 30
0.0
 11
0.3161363553559973
 21
0.1721225963261048
 31
0.0
  0
LINE
  5
30E8F
330
30E79
100
AcDbEntity
  8
0
100
AcDbLine
 10
0.3090652875441329
 20
0.171702610948131
 30
0.0
 11
0.3064770970931079
 21
0.1717514705795793
 31
0.0
  0
LINE
  5
30E90
330
30E79
100
AcDbEntity
  8
0
100
AcDbLine
 10
0.2990652875441313
 20
0.3376118460974844
 30
0.0
 11
0.2990652875441313
 21
0.1731365307216102
 31
0.0
  0
LINE
  5
30E91
330
30E79
100
AcDbEntity
  8
0
100
AcDbLine
 10
0.3190652875441309
 20
0.3376118460974844
 30
0.0
 11
0.3190652875441309
 21
0.1731365307216102
 31
0.0
  0
LINE
  5
30E92
330
30E79
100
AcDbEntity
  8
0
100
AcDbLine
 10
0.3064770970931079
 20
0.0004224199669984
 30
0.0
 11
0.3040652875441303
 21
0.0014214241920456
 31
0.0
  0
LINE
  5
30E93
330
30E79
100
AcDbEntity
  8
0
100
AcDbLine
 10
0.6625882109993669
 20
0.0003407455528652
 30
0.0
 11
0.6600000205508821
 21
0.0000000038157566
 31
0.0
  0
LINE
  5
30E94
330
30E79
100
AcDbEntity
  8
0
100
AcDbLine
 10
0.6650000205459783
 20
0.0013397497779124
 30
0.0
 11
0.6625882109993669
 21
0.0003407455528652
 31
0.0
  0
LINE
  5
30E95
330
30E79
100
AcDbEntity
  8
0
100
AcDbLine
 10
0.6670710883558116
 20
0.0029289360038902
 30
0.0
 11
0.6650000205459783
 21
0.0013397497779124
 31
0.0
  0
LINE
  5
30E96
330
30E79
100
AcDbEntity
  8
0
100
AcDbLine
 10
0.6686602745802333
 20
0.0050000038157556
 30
0.0
 11
0.6670710883558116
 21
0.0029289360038902
 31
0.0
  0
LINE
  5
30E97
330
30E79
100
AcDbEntity
  8
0
100
AcDbLine
 10
0.6696592788042964
 20
0.0074118133647296
 30
0.0
 11
0.6686602745802333
 21
0.0050000038157556
 31
0.0
  0
LINE
  5
30E98
330
30E79
100
AcDbEntity
  8
0
100
AcDbLine
 10
0.670000020541071
 20
0.0100000038157582
 30
0.0
 11
0.6696592788042964
 21
0.0074118133647296
 31
0.0
  0
LINE
  5
30E99
330
30E79
100
AcDbEntity
  8
0
100
AcDbLine
 10
0.6696592788042964
 20
0.0125881942667796
 30
0.0
 11
0.670000020541071
 21
0.0100000038157582
 31
0.0
  0
LINE
  5
30E9A
330
30E79
100
AcDbEntity
  8
0
100
AcDbLine
 10
0.6686602745802333
 20
0.0150000038157572
 30
0.0
 11
0.6696592788042964
 21
0.0125881942667796
 31
0.0
  0
LINE
  5
30E9B
330
30E79
100
AcDbEntity
  8
0
100
AcDbLine
 10
0.6670710883558116
 20
0.0170710716276226
 30
0.0
 11
0.6686602745802333
 21
0.0150000038157572
 31
0.0
  0
LINE
  5
30E9C
330
30E79
100
AcDbEntity
  8
0
100
AcDbLine
 10
0.6650000205459783
 20
0.0186602578536004
 30
0.0
 11
0.6670710883558116
 21
0.0170710716276226
 31
0.0
  0
LINE
  5
30E9D
330
30E79
100
AcDbEntity
  8
0
100
AcDbLine
 10
0.6625882109993669
 20
0.0196592620786476
 30
0.0
 11
0.6650000205459783
 21
0.0186602578536004
 31
0.0
  0
LINE
  5
30E9E
330
30E79
100
AcDbEntity
  8
0
100
AcDbLine
 10
0.6600000205508821
 20
0.0200000038157562
 30
0.0
 11
0.6625882109993669
 21
0.0196592620786476
 31
0.0
  0
LINE
  5
30E9F
330
30E79
100
AcDbEntity
  8
0
100
AcDbLine
 10
0.0003407622966733
 20
0.0074118133647296
 30
0.0
 11
0.0000000205598738
 21
0.0100000038157582
 31
0.0
  0
LINE
  5
30EA0
330
30E79
100
AcDbEntity
  8
0
100
AcDbLine
 10
0.0013397665208252
 20
0.0050000038157556
 30
0.0
 11
0.0003407622966733
 21
0.0074118133647296
 31
0.0
  0
LINE
  5
30EA1
330
30E79
100
AcDbEntity
  8
0
100
AcDbLine
 10
0.0029289527453749
 20
0.0029289360038902
 30
0.0
 11
0.0013397665208252
 21
0.0050000038157556
 31
0.0
  0
LINE
  5
30EA2
330
30E79
100
AcDbEntity
  8
0
100
AcDbLine
 10
0.0050000205553786
 20
0.0013397497779124
 30
0.0
 11
0.0029289527453749
 21
0.0029289360038902
 31
0.0
  0
LINE
  5
30EA3
330
30E79
100
AcDbEntity
  8
0
100
AcDbLine
 10
0.0074118301021855
 20
0.0003407455528652
 30
0.0
 11
0.0050000205553786
 21
0.0013397497779124
 31
0.0
  0
LINE
  5
30EA4
330
30E79
100
AcDbEntity
  8
0
100
AcDbLine
 10
0.0100000205508835
 20
0.0000000038157566
 30
0.0
 11
0.0074118301021855
 21
0.0003407455528652
 31
0.0
  0
LINE
  5
30EA5
330
30E79
100
AcDbEntity
  8
0
100
AcDbLine
 10
0.0074118301021855
 20
0.0196592620786476
 30
0.0
 11
0.0100000205508835
 21
0.0200000038157562
 31
0.0
  0
LINE
  5
30EA6
330
30E79
100
AcDbEntity
  8
0
100
AcDbLine
 10
0.0050000205553751
 20
0.0186602578536004
 30
0.0
 11
0.0074118301021855
 21
0.0196592620786476
 31
0.0
  0
LINE
  5
30EA7
330
30E79
100
AcDbEntity
  8
0
100
AcDbLine
 10
0.0029289527453749
 20
0.0170710716276226
 30
0.0
 11
0.0050000205553751
 21
0.0186602578536004
 31
0.0
  0
LINE
  5
30EA8
330
30E79
100
AcDbEntity
  8
0
100
AcDbLine
 10
0.0013397665208252
 20
0.0150000038157572
 30
0.0
 11
0.0029289527453749
 21
0.0170710716276226
 31
0.0
  0
LINE
  5
30EA9
330
30E79
100
AcDbEntity
  8
0
100
AcDbLine
 10
0.0003407622966733
 20
0.0125881942667796
 30
0.0
 11
0.0013397665208252
 21
0.0150000038157572
 31
0.0
  0
LINE
  5
30EAA
330
30E79
100
AcDbEntity
  8
0
100
AcDbLine
 10
0.0000000205598738
 20
0.0100000038157582
 30
0.0
 11
0.0003407622966733
 21
0.0125881942667796
 31
0.0
  0
LINE
  5
30EAB
330
30E79
100
AcDbEntity
  8
0
100
AcDbLine
 10
0.5625882109995822
 20
0.0003407455528652
 30
0.0
 11
0.5600000205508806
 21
0.0000000038157566
 31
0.0
  0
LINE
  5
30EAC
330
30E79
100
AcDbEntity
  8
0
100
AcDbLine
 10
0.5650000205463855
 20
0.0013397497779124
 30
0.0
 11
0.5625882109995822
 21
0.0003407455528652
 31
0.0
  0
LINE
  5
30EAD
330
30E79
100
AcDbEntity
  8
0
100
AcDbLine
 10
0.5670710883563892
 20
0.0029289360038902
 30
0.0
 11
0.5650000205463855
 21
0.0013397497779124
 31
0.0
  0
LINE
  5
30EAE
330
30E79
100
AcDbEntity
  8
0
100
AcDbLine
 10
0.5686602745809389
 20
0.0050000038157556
 30
0.0
 11
0.5670710883563892
 21
0.0029289360038902
 31
0.0
  0
LINE
  5
30EAF
330
30E79
100
AcDbEntity
  8
0
100
AcDbLine
 10
0.5696592788050872
 20
0.0074118133647296
 30
0.0
 11
0.5686602745809389
 21
0.0050000038157556
 31
0.0
  0
LINE
  5
30EB0
330
30E79
100
AcDbEntity
  8
0
100
AcDbLine
 10
0.5700000205418903
 20
0.0100000038157582
 30
0.0
 11
0.5696592788050872
 21
0.0074118133647296
 31
0.0
  0
LINE
  5
30EB1
330
30E79
100
AcDbEntity
  8
0
100
AcDbLine
 10
0.5696592788050872
 20
0.0125881942667796
 30
0.0
 11
0.5700000205418903
 21
0.0100000038157582
 31
0.0
  0
LINE
  5
30EB2
330
30E79
100
AcDbEntity
  8
0
100
AcDbLine
 10
0.5686602745809389
 20
0.0150000038157572
 30
0.0
 11
0.5696592788050872
 21
0.0125881942667796
 31
0.0
  0
LINE
  5
30EB3
330
30E79
100
AcDbEntity
  8
0
100
AcDbLine
 10
0.5670710883563892
 20
0.0170710716276226
 30
0.0
 11
0.5686602745809389
 21
0.0150000038157572
 31
0.0
  0
LINE
  5
30EB4
330
30E79
100
AcDbEntity
  8
0
100
AcDbLine
 10
0.5650000205463855
 20
0.0186602578536004
 30
0.0
 11
0.5670710883563892
 21
0.0170710716276226
 31
0.0
  0
LINE
  5
30EB5
330
30E79
100
AcDbEntity
  8
0
100
AcDbLine
 10
0.5625882109995822
 20
0.0196592620786476
 30
0.0
 11
0.5650000205463855
 21
0.0186602578536004
 31
0.0
  0
LINE
  5
30EB6
330
30E79
100
AcDbEntity
  8
0
100
AcDbLine
 10
0.5600000205508806
 20
0.0200000038157562
 30
0.0
 11
0.5625882109995822
 21
0.0196592620786476
 31
0.0
  0
LINE
  5
30EB7
330
30E79
100
AcDbEntity
  8
0
100
AcDbLine
 10
0.3100000205508806
 20
0.0000000038157566
 30
0.0
 11
0.3098218333938014
 21
0.0001812793805378
 31
0.0
  0
LINE
  5
30EB8
330
30E79
100
AcDbEntity
  8
0
100
AcDbLine
 10
0.3102311812138652
 20
0.0002351710434318
 30
0.0
 11
0.3100000205508806
 21
0.0000000038157566
 31
0.0
  0
LINE
  5
30EB9
330
30E79
100
AcDbEntity
  8
0
100
AcDbLine
 10
0.3098218333938014
 20
0.0001812793805378
 30
0.0
 11
0.3090652875441329
 21
0.0000816782298898
 31
0.0
  0
LINE
  5
30EBA
330
30E79
100
AcDbEntity
  8
0
100
AcDbLine
 10
0.3116534779951579
 20
0.0004224199669984
 30
0.0
 11
0.3102311812138652
 21
0.0002351710434318
 31
0.0
  0
LINE
  5
30EBB
330
30E79
100
AcDbEntity
  8
0
100
AcDbLine
 10
0.3102311812138652
 20
0.0002351710434318
 30
0.0
 11
0.3098218333938014
 21
0.0001812793805378
 31
0.0
  0
LINE
  5
30EBC
330
30E79
100
AcDbEntity
  8
0
100
AcDbLine
 10
0.3190652875441309
 20
0.0100816782298878
 30
0.0
 11
0.3190652875441309
 21
0.0200000038157562
 31
0.0
  0
LINE
  5
30EBD
330
30E79
100
AcDbEntity
  8
0
100
AcDbLine
 10
0.2990652875441313
 20
0.0100816782298878
 30
0.0
 11
0.2990652875441313
 21
0.0200000038157562
 31
0.0
  0
LINE
  5
30EBE
330
30E79
100
AcDbEntity
  8
0
100
AcDbLine
 10
0.3190652875441309
 20
0.1731365307216102
 30
0.0
 11
0.3190652875441309
 21
0.0200000038157562
 31
0.0
  0
LINE
  5
30EBF
330
30E79
100
AcDbEntity
  8
0
100
AcDbLine
 10
0.2990652875441313
 20
0.1731365307216102
 30
0.0
 11
0.2990652875441313
 21
0.0200000038157562
 31
0.0
  0
LINE
  5
30EC0
330
30E79
100
AcDbEntity
  8
0
100
AcDbLine
 10
0.6600000205508821
 20
0.0000000038157566
 30
0.0
 11
0.5600000205508806
 21
0.0000000038157566
 31
0.0
  0
LINE
  5
30EC1
330
30E79
100
AcDbEntity
  8
0
100
AcDbLine
 10
0.6600000205508821
 20
0.0200000038157562
 30
0.0
 11
0.5600000205508806
 21
0.0200000038157562
 31
0.0
  0
LINE
  5
30EC2
330
30E79
100
AcDbEntity
  8
0
100
AcDbLine
 10
0.0100000205508835
 20
0.0000000038157566
 30
0.0
 11
0.3100000205508806
 21
0.0000000038157566
 31
0.0
  0
LINE
  5
30EC3
330
30E79
100
AcDbEntity
  8
0
100
AcDbLine
 10
0.0100000205508835
 20
0.0200000038157562
 30
0.0
 11
0.2990652875441313
 21
0.0200000038157562
 31
0.0
  0
LINE
  5
30EC4
330
30E79
100
AcDbEntity
  8
0
100
AcDbLine
 10
0.5600000205508806
 20
0.0000000038157566
 30
0.0
 11
0.3100000205508806
 21
0.0000000038157566
 31
0.0
  0
LINE
  5
30EC5
330
30E79
100
AcDbEntity
  8
0
100
AcDbLine
 10
0.5600000205508806
 20
0.0200000038157562
 30
0.0
 11
0.3190652875441309
 21
0.0200000038157562
 31
0.0
  0
LINE
  5
30EC6
330
30E79
100
AcDbEntity
  8
0
100
AcDbLine
 10
0.3190545349035219
 20
0.0100000038157582
 30
0.0
 11
0.4005866859169558
 21
0.0100000038157582
 31
0.0
  0
LINE
  5
30EC7
330
30E79
100
AcDbEntity
  8
0
100
AcDbLine
 10
0.4005866859169558
 20
0.0100000038157582
 30
0.0
 11
0.4850000197981004
 21
0.0100000038157582
 31
0.0
  0
LINE
  5
30EC8
330
30E79
100
AcDbEntity
  8
0
100
AcDbLine
 10
0.4850000197981004
 20
0.0100000038157582
 30
0.0
 11
0.5574873930442088
 21
0.0100000038157582
 31
0.0
  0
LINE
  5
30EC9
330
30E79
100
AcDbEntity
  8
0
100
AcDbLine
 10
0.5574873930442088
 20
0.0100000038157582
 30
0.0
 11
0.6131089110062007
 21
0.0100000038157582
 31
0.0
  0
LINE
  5
30ECA
330
30E79
100
AcDbEntity
  8
0
100
AcDbLine
 10
0.6131089110062007
 20
0.0100000038157582
 30
0.0
 11
0.648074059189618
 21
0.0100000038157582
 31
0.0
  0
LINE
  5
30ECB
330
30E79
100
AcDbEntity
  8
0
100
AcDbLine
 10
0.648074059189618
 20
0.0100000038157582
 30
0.0
 11
0.6600000205508821
 21
0.0100000038157582
 31
0.0
  0
LINE
  5
30ECC
330
30E79
100
AcDbEntity
  8
0
100
AcDbLine
 10
0.6600000205508821
 20
0.0100000038157582
 30
0.0
 11
0.6480740605394644
 21
0.0100000038157582
 31
0.0
  0
LINE
  5
30ECD
330
30E79
100
AcDbEntity
  8
0
100
AcDbLine
 10
0.6480740605394644
 20
0.0100000038157582
 30
0.0
 11
0.6131089136139032
 21
0.0100000038157582
 31
0.0
  0
LINE
  5
30ECE
330
30E79
100
AcDbEntity
  8
0
100
AcDbLine
 10
0.6131089136139032
 20
0.0100000038157582
 30
0.0
 11
0.5574873967320606
 21
0.0100000038157582
 31
0.0
  0
LINE
  5
30ECF
330
30E79
100
AcDbEntity
  8
0
100
AcDbLine
 10
0.5574873967320606
 20
0.0100000038157582
 30
0.0
 11
0.4850000243147754
 21
0.0100000038157582
 31
0.0
  0
LINE
  5
30ED0
330
30E79
100
AcDbEntity
  8
0
100
AcDbLine
 10
0.4850000243147754
 20
0.0100000038157582
 30
0.0
 11
0.4005866909546505
 21
0.0100000038157582
 31
0.0
  0
LINE
  5
30ED1
330
30E79
100
AcDbEntity
  8
0
100
AcDbLine
 10
0.4005866909546505
 20
0.0100000038157582
 30
0.0
 11
0.3190545349035219
 21
0.0100000038157582
 31
0.0
  0
LINE
  5
30ED2
330
30E79
100
AcDbEntity
  8
0
100
AcDbLine
 10
0.2990760401847403
 20
0.0100000038157582
 30
0.0
 11
0.2323543070201239
 21
0.0100000038157582
 31
0.0
  0
LINE
  5
30ED3
330
30E79
100
AcDbEntity
  8
0
100
AcDbLine
 10
0.2323543070201239
 20
0.0100000038157582
 30
0.0
 11
0.160000020550882
 21
0.0100000038157582
 31
0.0
  0
LINE
  5
30ED4
330
30E79
100
AcDbEntity
  8
0
100
AcDbLine
 10
0.160000020550882
 20
0.0100000038157582
 30
0.0
 11
0.0978679861949168
 21
0.0100000038157582
 31
0.0
  0
LINE
  5
30ED5
330
30E79
100
AcDbEntity
  8
0
100
AcDbLine
 10
0.0978679861949168
 20
0.0100000038157582
 30
0.0
 11
0.0501923994155504
 21
0.0100000038157582
 31
0.0
  0
LINE
  5
30ED6
330
30E79
100
AcDbEntity
  8
0
100
AcDbLine
 10
0.0501923994155504
 20
0.0100000038157582
 30
0.0
 11
0.0202222726641601
 21
0.0100000038157582
 31
0.0
  0
LINE
  5
30ED7
330
30E79
100
AcDbEntity
  8
0
100
AcDbLine
 10
0.0202222726641601
 20
0.0100000038157582
 30
0.0
 11
0.0100000205508835
 21
0.0100000038157582
 31
0.0
  0
LINE
  5
30ED8
330
30E79
100
AcDbEntity
  8
0
100
AcDbLine
 10
0.0100000205508835
 20
0.0100000038157582
 30
0.0
 11
0.0202222726641601
 21
0.0100000038157582
 31
0.0
  0
LINE
  5
30ED9
330
30E79
100
AcDbEntity
  8
0
100
AcDbLine
 10
0.0202222726641601
 20
0.0100000038157582
 30
0.0
 11
0.0501923994155504
 21
0.0100000038157582
 31
0.0
  0
LINE
  5
30EDA
330
30E79
100
AcDbEntity
  8
0
100
AcDbLine
 10
0.0501923994155504
 20
0.0100000038157582
 30
0.0
 11
0.0978679861949168
 21
0.0100000038157582
 31
0.0
  0
LINE
  5
30EDB
330
30E79
100
AcDbEntity
  8
0
100
AcDbLine
 10
0.0978679861949168
 20
0.0100000038157582
 30
0.0
 11
0.160000020550882
 21
0.0100000038157582
 31
0.0
  0
LINE
  5
30EDC
330
30E79
100
AcDbEntity
  8
0
100
AcDbLine
 10
0.160000020550882
 20
0.0100000038157582
 30
0.0
 11
0.2323543070201239
 21
0.0100000038157582
 31
0.0
  0
LINE
  5
30EDD
330
30E79
100
AcDbEntity
  8
0
100
AcDbLine
 10
0.2323543070201239
 20
0.0100000038157582
 30
0.0
 11
0.2990760401847403
 21
0.0100000038157582
 31
0.0
  0
LINE
  5
30EDE
330
30E79
100
AcDbEntity
  8
0
100
AcDbLine
 10
0.3190545349035219
 20
0.0100000038157582
 30
0.0
 11
0.3747047818265123
 21
0.0100000038157582
 31
0.0
  0
LINE
  5
30EDF
330
30E79
100
AcDbEntity
  8
0
100
AcDbLine
 10
0.3747047818265123
 20
0.0100000038157582
 30
0.0
 11
0.4350000205508806
 21
0.0100000038157582
 31
0.0
  0
LINE
  5
30EE0
330
30E79
100
AcDbEntity
  8
0
100
AcDbLine
 10
0.4350000205508806
 20
0.0100000038157582
 30
0.0
 11
0.486776715847519
 21
0.0100000038157582
 31
0.0
  0
LINE
  5
30EE1
330
30E79
100
AcDbEntity
  8
0
100
AcDbLine
 10
0.486776715847519
 20
0.0100000038157582
 30
0.0
 11
0.5265063714969891
 21
0.0100000038157582
 31
0.0
  0
LINE
  5
30EE2
330
30E79
100
AcDbEntity
  8
0
100
AcDbLine
 10
0.5265063714969891
 20
0.0100000038157582
 30
0.0
 11
0.5514814771231471
 21
0.0100000038157582
 31
0.0
  0
LINE
  5
30EE3
330
30E79
100
AcDbEntity
  8
0
100
AcDbLine
 10
0.5514814771231471
 20
0.0100000038157582
 30
0.0
 11
0.5600000205508806
 21
0.0100000038157582
 31
0.0
  0
LINE
  5
30EE4
330
30E79
100
AcDbEntity
  8
0
100
AcDbLine
 10
0.5600000205508806
 20
0.0100000038157582
 30
0.0
 11
0.5514814771231471
 21
0.0100000038157582
 31
0.0
  0
LINE
  5
30EE5
330
30E79
100
AcDbEntity
  8
0
100
AcDbLine
 10
0.5514814771231471
 20
0.0100000038157582
 30
0.0
 11
0.5265063714969891
 21
0.0100000038157582
 31
0.0
  0
LINE
  5
30EE6
330
30E79
100
AcDbEntity
  8
0
100
AcDbLine
 10
0.5265063714969891
 20
0.0100000038157582
 30
0.0
 11
0.486776715847519
 21
0.0100000038157582
 31
0.0
  0
LINE
  5
30EE7
330
30E79
100
AcDbEntity
  8
0
100
AcDbLine
 10
0.486776715847519
 20
0.0100000038157582
 30
0.0
 11
0.4350000205508806
 21
0.0100000038157582
 31
0.0
  0
LINE
  5
30EE8
330
30E79
100
AcDbEntity
  8
0
100
AcDbLine
 10
0.4350000205508806
 20
0.0100000038157582
 30
0.0
 11
0.3747047818265088
 21
0.0100000038157582
 31
0.0
  0
LINE
  5
30EE9
330
30E79
100
AcDbEntity
  8
0
100
AcDbLine
 10
0.3747047818265088
 20
0.0100000038157582
 30
0.0
 11
0.3190545349035219
 21
0.0100000038157582
 31
0.0
  0
ENDBLK
  5
30EED
330
30E79
100
AcDbEntity
  8
0
100
AcDbBlockEnd
  0
BLOCK
  5
441A6
330
441A2
100
AcDbEntity
  8
0
100
AcDbBlockBegin
  2
A$C1DAA2D2A
 70
     0
 10
0.0
 20
0.0
 30
0.0
  3
A$C1DAA2D2A
  1

  0
LINE
  5
441A3
330
441A2
100
AcDbEntity
  8
0
100
AcDbLine
 10
0.0000000455200997
 20
0.8519064261395037
 30
0.0
 11
0.4918484521640743
 21
-0.0000000037896513
 31
0.0
  0
ENDBLK
  5
441A7
330
441A2
100
AcDbEntity
  8
0
100
AcDbBlockEnd
  0
BLOCK
  5
60946
330
60919
100
AcDbEntity
  8
0
100
AcDbBlockBegin
  2
A$C741504E8
 70
     0
 10
0.0
 20
0.0
 30
0.0
  3
A$C741504E8
  1

  0
LINE
  5
6091A
330
60919
100
AcDbEntity
  8
0
100
AcDbLine
 10
1.716186381955381
 20
0.0000000197944416
 30
0.0
 11
0.0999999849766198
 21
0.0000000197944416
 31
0.0
  0
LINE
  5
6091B
330
60919
100
AcDbEntity
  8
0
100
AcDbLine
 10
-0.0000000150233888
 20
0.1000000197944395
 30
0.0
 11
1.716186381955381
 21
0.1000000197944502
 31
0.0
  0
LINE
  5
6091C
330
60919
100
AcDbEntity
  8
0
100
AcDbLine
 10
-0.0000000150233888
 20
0.7981271284142473
 30
0.0
 11
1.716186381955381
 21
0.7981271284142438
 31
0.0
  0
LINE
  5
6091D
330
60919
100
AcDbEntity
  8
0
100
AcDbLine
 10
0.2444903318126563
 20
0.1000000197944502
 30
0.0
 11
0.3644903318126467
 21
0.1000000197944502
 31
0.0
  0
LINE
  5
6091E
330
60919
100
AcDbEntity
  8
0
100
AcDbLine
 10
0.3644903318126467
 20
0.1000000197944502
 30
0.0
 11
0.3644903318126467
 21
0.7000000197944481
 31
0.0
  0
LINE
  5
6091F
330
60919
100
AcDbEntity
  8
0
100
AcDbLine
 10
0.3644903318126467
 20
0.7000000197944481
 30
0.0
 11
0.2444903318126563
 21
0.7000000197944481
 31
0.0
  0
LINE
  5
60920
330
60919
100
AcDbEntity
  8
0
100
AcDbLine
 10
0.4260850646335542
 20
0.1000000197944502
 30
0.0
 11
0.5460850646335587
 21
0.1000000197944502
 31
0.0
  0
LINE
  5
60921
330
60919
100
AcDbEntity
  8
0
100
AcDbLine
 10
0.5460850646335587
 20
0.1000000197944502
 30
0.0
 11
0.5460850646335587
 21
0.7000000197944481
 31
0.0
  0
LINE
  5
60922
330
60919
100
AcDbEntity
  8
0
100
AcDbLine
 10
0.5460850646335587
 20
0.7000000197944481
 30
0.0
 11
0.4260850646335542
 21
0.7000000197944481
 31
0.0
  0
LINE
  5
60923
330
60919
100
AcDbEntity
  8
0
100
AcDbLine
 10
0.4260850646335542
 20
0.7000000197944481
 30
0.0
 11
0.4260850646335542
 21
0.1000000197944502
 31
0.0
  0
LINE
  5
60924
330
60919
100
AcDbEntity
  8
0
100
AcDbLine
 10
0.619821303318112
 20
0.1000000197944502
 30
0.0
 11
0.7398213033181094
 21
0.1000000197944502
 31
0.0
  0
LINE
  5
60925
330
60919
100
AcDbEntity
  8
0
100
AcDbLine
 10
0.7398213033181094
 20
0.1000000197944502
 30
0.0
 11
0.7398213033181094
 21
0.7000000197944481
 31
0.0
  0
LINE
  5
60926
330
60919
100
AcDbEntity
  8
0
100
AcDbLine
 10
0.7398213033181094
 20
0.7000000197944481
 30
0.0
 11
0.619821303318112
 21
0.7000000197944481
 31
0.0
  0
LINE
  5
60927
330
60919
100
AcDbEntity
  8
0
100
AcDbLine
 10
0.619821303318112
 20
0.7000000197944481
 30
0.0
 11
0.619821303318112
 21
0.1000000197944502
 31
0.0
  0
LINE
  5
60928
330
60919
100
AcDbEntity
  8
0
100
AcDbLine
 10
0.8023617686104955
 20
0.1000000197944502
 30
0.0
 11
0.9223617686105001
 21
0.1000000197944502
 31
0.0
  0
LINE
  5
60929
330
60919
100
AcDbEntity
  8
0
100
AcDbLine
 10
0.9223617686105001
 20
0.1000000197944502
 30
0.0
 11
0.9223617686105001
 21
0.7000000197944481
 31
0.0
  0
LINE
  5
6092A
330
60919
100
AcDbEntity
  8
0
100
AcDbLine
 10
0.9223617686105001
 20
0.7000000197944481
 30
0.0
 11
0.8023617686104955
 21
0.7000000197944481
 31
0.0
  0
LINE
  5
6092B
330
60919
100
AcDbEntity
  8
0
100
AcDbLine
 10
0.8023617686104955
 20
0.7000000197944481
 30
0.0
 11
0.8023617686104955
 21
0.1000000197944502
 31
0.0
  0
LINE
  5
6092C
330
60919
100
AcDbEntity
  8
0
100
AcDbLine
 10
0.9837001916905165
 20
0.1000000197944502
 30
0.0
 11
1.103700191690514
 21
0.1000000197944502
 31
0.0
  0
LINE
  5
6092D
330
60919
100
AcDbEntity
  8
0
100
AcDbLine
 10
1.103700191690514
 20
0.1000000197944502
 30
0.0
 11
1.103700191690514
 21
0.7000000197944481
 31
0.0
  0
LINE
  5
6092E
330
60919
100
AcDbEntity
  8
0
100
AcDbLine
 10
1.103700191690514
 20
0.7000000197944481
 30
0.0
 11
0.9837001916905165
 21
0.7000000197944481
 31
0.0
  0
LINE
  5
6092F
330
60919
100
AcDbEntity
  8
0
100
AcDbLine
 10
0.9837001916905165
 20
0.7000000197944481
 30
0.0
 11
0.9837001916905165
 21
0.1000000197944502
 31
0.0
  0
LINE
  5
60930
330
60919
100
AcDbEntity
  8
0
100
AcDbLine
 10
1.289913513372624
 20
0.1000000197944502
 30
0.0
 11
1.409913513372629
 21
0.1000000197944502
 31
0.0
  0
LINE
  5
60931
330
60919
100
AcDbEntity
  8
0
100
AcDbLine
 10
1.284035337386782
 20
0.1000000197944502
 30
0.0
 11
1.284035337386782
 21
0.7000000197944481
 31
0.0
  0
LINE
  5
60932
330
60919
100
AcDbEntity
  8
0
100
AcDbLine
 10
1.409913513372629
 20
0.7000000197944481
 30
0.0
 11
1.289913513372624
 21
0.7000000197944481
 31
0.0
  0
LINE
  5
60933
330
60919
100
AcDbEntity
  8
0
100
AcDbLine
 10
1.164035337386778
 20
0.7000000197944481
 30
0.0
 11
1.164035337386778
 21
0.1000000197944502
 31
0.0
  0
LINE
  5
60934
330
60919
100
AcDbEntity
  8
0
100
AcDbLine
 10
1.466781632714898
 20
0.1000000197944502
 30
0.0
 11
1.586781632714902
 21
0.1000000197944502
 31
0.0
  0
LINE
  5
60935
330
60919
100
AcDbEntity
  8
0
100
AcDbLine
 10
1.460903456729056
 20
0.1000000197944502
 30
0.0
 11
1.460903456729056
 21
0.7000000197944481
 31
0.0
  0
LINE
  5
60936
330
60919
100
AcDbEntity
  8
0
100
AcDbLine
 10
1.586781632714902
 20
0.7000000197944481
 30
0.0
 11
1.466781632714898
 21
0.7000000197944481
 31
0.0
  0
LINE
  5
60937
330
60919
100
AcDbEntity
  8
0
100
AcDbLine
 10
1.340903456729051
 20
0.7000000197944481
 30
0.0
 11
1.340903456729051
 21
0.1000000197944502
 31
0.0
  0
LINE
  5
60938
330
60919
100
AcDbEntity
  8
0
100
AcDbLine
 10
1.656336559518123
 20
0.1000000197944502
 30
0.0
 11
1.716186381955381
 21
0.1000000197944502
 31
0.0
  0
LINE
  5
60939
330
60919
100
AcDbEntity
  8
0
100
AcDbLine
 10
1.716186381955381
 20
0.7000000197944481
 30
0.0
 11
1.656336559518123
 21
0.7000000197944481
 31
0.0
  0
LINE
  5
6093A
330
60919
100
AcDbEntity
  8
0
100
AcDbLine
 10
1.530458383532277
 20
0.7000000197944481
 30
0.0
 11
1.530458383532277
 21
0.1000000197944502
 31
0.0
  0
LINE
  5
6093B
330
60919
100
AcDbEntity
  8
0
100
AcDbLine
 10
0.2191598432908961
 20
0.765099155810546
 30
0.0
 11
1.719159843290896
 21
0.765099155810546
 31
0.0
  0
LINE
  5
6093C
330
60919
100
AcDbEntity
  8
0
100
AcDbLine
 10
1.719159843290896
 20
0.7350991558105449
 30
0.0
 11
0.2191598432908961
 21
0.7350991558105449
 31
0.0
  0
LINE
  5
6093D
330
60919
100
AcDbEntity
  8
0
100
AcDbLine
 10
0.2262984868462041
 20
0.0648644309956552
 30
0.0
 11
1.716186381955381
 21
0.0648644309956552
 31
0.0
  0
LINE
  5
6093E
330
60919
100
AcDbEntity
  8
0
100
AcDbLine
 10
1.716186381955381
 20
0.0348644309956541
 30
0.0
 11
0.2262984868462041
 21
0.0348644309956541
 31
0.0
  0
LINE
  5
6093F
330
60919
100
AcDbEntity
  8
0
100
AcDbLine
 10
1.473590264190001
 20
0.098127128414248
 30
0.0
 11
1.473590264190001
 21
0.6981271284142494
 31
0.0
  0
LINE
  5
60940
330
60919
100
AcDbEntity
  8
0
100
AcDbLine
 10
1.650458383532281
 20
0.098127128414248
 30
0.0
 11
1.650458383532281
 21
0.6981271284142494
 31
0.0
  0
LINE
  5
60941
330
60919
100
AcDbEntity
  8
0
100
AcDbLine
 10
1.530458383532277
 20
0.6981271284142494
 30
0.0
 11
1.530458383532277
 21
0.098127128414248
 31
0.0
  0
LINE
  5
60942
330
60919
100
AcDbEntity
  8
0
100
AcDbLine
 10
1.586781632714902
 20
0.7000000197944481
 30
0.0
 11
1.716186381955381
 21
0.7000000197944516
 31
0.0
  0
LINE
  5
60943
330
60919
100
AcDbEntity
  8
0
100
AcDbLine
 10
1.716186381955381
 20
0.7000000197944516
 30
0.0
 11
0.2154076642784304
 21
0.7000000197944445
 31
0.0
  0
ENDBLK
  5
60947
330
60919
100
AcDbEntity
  8
0
100
AcDbBlockEnd
  0
ENDSEC
  0
SECTION
  2
ENTITIES
  0
LINE
  5
6229F
330
1F
100
AcDbEntity
  8
0
100
AcDbLine
 10
-52.49114387924098
 20
24.03884392501434
 30
0.0
 11
-53.13382285473458
 21
24.64959497201292
 31
0.0
  0
LINE
  5
622A0
330
1F
100
AcDbEntity
  8
0
100
AcDbLine
 10
-53.81069861308795
 20
24.03884392501434
 30
0.0
 11
-53.16980951734852
 21
24.64789401247394
 31
0.0
  0
LINE
  5
622A1
330
1F
100
AcDbEntity
  8
0
100
AcDbLine
 10
-52.49114387924098
 20
25.30156278889449
 30
0.0
 11
-53.13857859218572
 21
24.68629226679512
 31
0.0
  0
LINE
  5
622A2
330
1F
100
AcDbEntity
  8
0
100
AcDbLine
 10
-53.81069861308794
 20
25.30156278889449
 30
0.0
 11
-53.1646028815713
 21
24.68756472838217
 31
0.0
  0
LINE
  5
622A3
330
1F
100
AcDbEntity
  8
0
100
AcDbLine
 10
-52.49114387924098
 20
24.95130370663985
 30
0.0
 11
-52.49114387924098
 21
25.29284392501434
 31
0.0
  0
LINE
  5
622A4
330
1F
100
AcDbEntity
  8
0
100
AcDbLine
 10
-53.81069861308794
 20
25.27697478240702
 30
0.0
 11
-53.81069861308795
 21
24.6508242786118
 31
0.0
  0
LINE
  5
622A5
330
1F
100
AcDbEntity
  8
0
100
AcDbLine
 10
-53.16811196688987
 20
25.30156278889449
 30
0.0
 11
-53.81069861308794
 21
25.30156278889449
 31
0.0
  0
LINE
  5
622A6
330
1F
100
AcDbEntity
  8
0
100
AcDbLine
 10
-52.49114387924098
 20
24.03884392501434
 30
0.0
 11
-52.49114387924098
 21
24.36710370663985
 31
0.0
  0
LINE
  5
622A7
330
1F
100
AcDbEntity
  8
0
100
AcDbLine
 10
-52.49114387924098
 20
24.36710370663985
 30
0.0
 11
-52.49114387924098
 21
24.95130370663985
 31
0.0
  0
LINE
  5
622A8
330
1F
100
AcDbEntity
  8
0
100
AcDbLine
 10
-53.81069861308795
 20
24.63082427861179
 30
0.0
 11
-53.81069861308795
 21
24.03884392501434
 31
0.0
  0
LINE
  5
622A9
330
1F
100
AcDbEntity
  8
0
100
AcDbLine
 10
-52.49114387924098
 20
25.30156278889449
 30
0.0
 11
-53.14811196688987
 21
25.30156278889449
 31
0.0
  0
LINE
  5
622AA
330
1F
100
AcDbEntity
  8
0
100
AcDbLine
 10
-53.14811196688987
 20
25.30156278889449
 30
0.0
 11
-53.16811196688987
 21
25.30156278889449
 31
0.0
  0
LINE
  5
622AB
330
1F
100
AcDbEntity
  8
0
100
AcDbLine
 10
-52.49114387924098
 20
24.03884392501434
 30
0.0
 11
-53.81069861308795
 21
24.03884392501434
 31
0.0
  0
CIRCLE
  5
622AC
330
1F
100
AcDbEntity
  8
0
100
AcDbCircle
 10
-53.15262306559899
 20
24.66581538766354
 30
0.0
 40
0.0248304211084971
  0
LINE
  5
622B2
330
1F
100
AcDbEntity
  8
0
100
AcDbLine
 10
-52.47664621144259
 20
25.31534022074544
 30
0.0
 11
-52.47664621144259
 21
24.02506649316338
 31
0.0
  0
LINE
  5
622B3
330
1F
100
AcDbEntity
  8
0
100
AcDbLine
 10
-53.82519628088632
 20
25.31534022074544
 30
0.0
 11
-52.47664621144259
 21
25.31534022074544
 31
0.0
  0
LINE
  5
622B4
330
1F
100
AcDbEntity
  8
0
100
AcDbLine
 10
-53.82519628088633
 20
24.02506649316338
 30
0.0
 11
-52.47664621144259
 21
24.02506649316338
 31
0.0
  0
LINE
  5
622B5
330
1F
100
AcDbEntity
  8
0
100
AcDbLine
 10
-53.82519628088632
 20
25.31534022074544
 30
0.0
 11
-53.82519628088633
 21
24.02506649316338
 31
0.0
  0
LINE
  5
66F0C
330
1F
100
AcDbEntity
  8
0
100
AcDbLine
 10
-53.81069861308794
 20
25.27697478240702
 30
0.0
 11
-53.81069861308794
 21
25.30156278889449
 31
0.0
  0
LINE
  5
66F62
330
1F
100
AcDbEntity
  8
0
100
AcDbLine
 10
-52.46346246056387
 20
27.71305786475963
 30
0.0
 11
-52.46346246056387
 21
28.05459808313412
 31
0.0
  0
LINE
  5
66F63
330
1F
100
AcDbEntity
  8
0
100
AcDbLine
 10
-53.78301719441083
 20
28.0387289405268
 30
0.0
 11
-53.78301719441084
 21
27.41257843673158
 31
0.0
  0
LINE
  5
66F64
330
1F
100
AcDbEntity
  8
0
100
AcDbLine
 10
-53.14043054821276
 20
28.06331694701427
 30
0.0
 11
-53.78301719441083
 21
28.06331694701427
 31
0.0
  0
LINE
  5
66F65
330
1F
100
AcDbEntity
  8
0
100
AcDbLine
 10
-52.46346246056387
 20
26.80059808313412
 30
0.0
 11
-52.46346246056387
 21
27.12885786475963
 31
0.0
  0
LINE
  5
66F66
330
1F
100
AcDbEntity
  8
0
100
AcDbLine
 10
-52.46346246056387
 20
27.12885786475963
 30
0.0
 11
-52.46346246056387
 21
27.71305786475963
 31
0.0
  0
LINE
  5
66F67
330
1F
100
AcDbEntity
  8
0
100
AcDbLine
 10
-53.78301719441084
 20
27.39257843673157
 30
0.0
 11
-53.78301719441084
 21
26.80059808313412
 31
0.0
  0
LINE
  5
66F68
330
1F
100
AcDbEntity
  8
0
100
AcDbLine
 10
-52.46346246056387
 20
28.06331694701427
 30
0.0
 11
-53.12043054821277
 21
28.06331694701427
 31
0.0
  0
LINE
  5
66F69
330
1F
100
AcDbEntity
  8
0
100
AcDbLine
 10
-53.12043054821277
 20
28.06331694701427
 30
0.0
 11
-53.14043054821276
 21
28.06331694701427
 31
0.0
  0
LINE
  5
66F6A
330
1F
100
AcDbEntity
  8
0
100
AcDbLine
 10
-52.46346246056387
 20
26.80059808313412
 30
0.0
 11
-53.78301719441084
 21
26.80059808313412
 31
0.0
  0
LINE
  5
66F71
330
1F
100
AcDbEntity
  8
0
100
AcDbLine
 10
-52.44896479276548
 20
28.07709437886522
 30
0.0
 11
-52.44896479276548
 21
26.78682065128317
 31
0.0
  0
LINE
  5
66F72
330
1F
100
AcDbEntity
  8
0
100
AcDbLine
 10
-53.79751486220921
 20
28.07709437886522
 30
0.0
 11
-52.44896479276548
 21
28.07709437886522
 31
0.0
  0
LINE
  5
66F73
330
1F
100
AcDbEntity
  8
0
100
AcDbLine
 10
-53.79751486220922
 20
26.78682065128317
 30
0.0
 11
-52.44896479276548
 21
26.78682065128317
 31
0.0
  0
LINE
  5
66F74
330
1F
100
AcDbEntity
  8
0
100
AcDbLine
 10
-53.79751486220921
 20
28.07709437886522
 30
0.0
 11
-53.79751486220922
 21
26.78682065128317
 31
0.0
  0
LINE
  5
6B288
330
1F
100
AcDbEntity
  8
0
100
AcDbLine
 10
-54.12153800805282
 20
28.42756954578336
 30
0.0
 11
-54.76421698354642
 21
29.03832059278195
 31
0.0
  0
LINE
  5
6B289
330
1F
100
AcDbEntity
  8
0
100
AcDbLine
 10
-55.44109274189978
 20
28.42756954578336
 30
0.0
 11
-54.80020364616037
 21
29.03661963324297
 31
0.0
  0
LINE
  5
6B28A
330
1F
100
AcDbEntity
  8
0
100
AcDbLine
 10
-54.12153800805282
 20
29.69028840966351
 30
0.0
 11
-54.76897272099757
 21
29.07501788756415
 31
0.0
  0
LINE
  5
6B28B
330
1F
100
AcDbEntity
  8
0
100
AcDbLine
 10
-55.44109274189978
 20
29.69028840966351
 30
0.0
 11
-54.79499701038314
 21
29.0762903491512
 31
0.0
  0
LINE
  5
6B28C
330
1F
100
AcDbEntity
  8
0
100
AcDbLine
 10
-54.12153800805282
 20
29.34002932740888
 30
0.0
 11
-54.12153800805282
 21
29.68156954578337
 31
0.0
  0
LINE
  5
6B28D
330
1F
100
AcDbEntity
  8
0
100
AcDbLine
 10
-55.44109274189978
 20
29.66570040317604
 30
0.0
 11
-55.44109274189978
 21
29.03954989938082
 31
0.0
  0
LINE
  5
6B28E
330
1F
100
AcDbEntity
  8
0
100
AcDbLine
 10
-54.79850609570171
 20
29.69028840966351
 30
0.0
 11
-55.44109274189978
 21
29.69028840966351
 31
0.0
  0
LINE
  5
6B28F
330
1F
100
AcDbEntity
  8
0
100
AcDbLine
 10
-54.12153800805282
 20
28.42756954578336
 30
0.0
 11
-54.12153800805282
 21
28.75582932740888
 31
0.0
  0
LINE
  5
6B290
330
1F
100
AcDbEntity
  8
0
100
AcDbLine
 10
-54.12153800805282
 20
28.75582932740888
 30
0.0
 11
-54.12153800805282
 21
29.34002932740888
 31
0.0
  0
LINE
  5
6B291
330
1F
100
AcDbEntity
  8
0
100
AcDbLine
 10
-55.44109274189978
 20
29.01954989938082
 30
0.0
 11
-55.44109274189978
 21
28.42756954578336
 31
0.0
  0
LINE
  5
6B292
330
1F
100
AcDbEntity
  8
0
100
AcDbLine
 10
-54.12153800805282
 20
29.69028840966351
 30
0.0
 11
-54.77850609570172
 21
29.69028840966351
 31
0.0
  0
LINE
  5
6B293
330
1F
100
AcDbEntity
  8
0
100
AcDbLine
 10
-54.77850609570172
 20
29.69028840966351
 30
0.0
 11
-54.79850609570171
 21
29.69028840966351
 31
0.0
  0
LINE
  5
6B294
330
1F
100
AcDbEntity
  8
0
100
AcDbLine
 10
-54.12153800805282
 20
28.42756954578336
 30
0.0
 11
-55.44109274189978
 21
28.42756954578336
 31
0.0
  0
CIRCLE
  5
6B295
330
1F
100
AcDbEntity
  8
0
100
AcDbCircle
 10
-54.78301719441084
 20
29.05454100843257
 30
0.0
 40
0.0248304211084971
  0
ARC
  5
6B296
330
1F
100
AcDbEntity
  8
0
100
AcDbCircle
 10
-54.28368653370835
 20
29.37182670174687
 30
0.0
 40
0.532935279234085
100
AcDbArc
 50
180.4937219122279
 51
196.3927529514441
  0
ARC
  5
6B297
330
1F
100
AcDbEntity
  8
0
100
AcDbCircle
 10
-53.39277014962407
 20
29.41549231404723
 30
0.0
 40
1.415554200586691
100
AcDbArc
 50
187.879996243708
 51
194.0086191108529
  0
ARC
  5
6B298
330
1F
100
AcDbEntity
  8
0
100
AcDbCircle
 10
-53.86654069547365
 20
29.4596678332341
 30
0.0
 40
0.9800103257468235
100
AcDbArc
 50
185.6319887749354
 51
194.381366926223
  0
ARC
  5
6B299
330
1F
100
AcDbEntity
  8
0
100
AcDbCircle
 10
-53.56834887636853
 20
29.38527591466339
 30
0.0
 40
1.258890265692462
100
AcDbArc
 50
187.7158050035386
 51
194.101360183585
  0
LINE
  5
6B29A
330
1F
100
AcDbEntity
  8
0
100
AcDbLine
 10
-54.81660202679106
 20
29.36723441639707
 30
0.0
 11
-54.8418202795263
 21
29.36349106108794
 31
0.0
  0
LINE
  5
6B29B
330
1F
100
AcDbEntity
  8
0
100
AcDbLine
 10
-54.10704034025443
 20
29.70406584151446
 30
0.0
 11
-54.10704034025443
 21
28.41379211393241
 31
0.0
  0
LINE
  5
6B29C
330
1F
100
AcDbEntity
  8
0
100
AcDbLine
 10
-55.45559040969816
 20
29.70406584151446
 30
0.0
 11
-54.10704034025443
 21
29.70406584151446
 31
0.0
  0
LINE
  5
6B29D
330
1F
100
AcDbEntity
  8
0
100
AcDbLine
 10
-55.45559040969817
 20
28.41379211393241
 30
0.0
 11
-54.10704034025443
 21
28.41379211393241
 31
0.0
  0
LINE
  5
6B29E
330
1F
100
AcDbEntity
  8
0
100
AcDbLine
 10
-55.45559040969816
 20
29.70406584151446
 30
0.0
 11
-55.45559040969817
 21
28.41379211393241
 31
0.0
  0
LINE
  5
72BD9
330
1F
100
AcDbEntity
  8
0
100
AcDbLine
 10
-57.81448348670186
 20
29.33961493751846
 30
0.0
 11
-57.80878981375964
 21
29.3403986435138
 31
0.0
  0
LINE
  5
72BDA
330
1F
100
AcDbEntity
  8
0
100
AcDbLine
 10
-57.81978914524232
 20
29.33731722780084
 30
0.0
 11
-57.81448348670186
 21
29.33961493751846
 31
0.0
  0
LINE
  5
72BDB
330
1F
100
AcDbEntity
  8
0
100
AcDbLine
 10
-57.82434521751948
 20
29.3336620994811
 30
0.0
 11
-57.81978914524232
 21
29.33731722780084
 31
0.0
  0
LINE
  5
72BDC
330
1F
100
AcDbEntity
  8
0
100
AcDbLine
 10
-57.82784121473692
 20
29.3288986435138
 30
0.0
 11
-57.82434521751948
 21
29.3336620994811
 31
0.0
  0
LINE
  5
72BDD
330
1F
100
AcDbEntity
  8
0
100
AcDbLine
 10
-57.83003889046169
 20
29.32335148155117
 30
0.0
 11
-57.82784121473692
 21
29.3288986435138
 31
0.0
  0
LINE
  5
72BDE
330
1F
100
AcDbEntity
  8
0
100
AcDbLine
 10
-57.83078847672499
 20
29.31739864351381
 30
0.0
 11
-57.83003889046169
 21
29.32335148155117
 31
0.0
  0
LINE
  5
72BDF
330
1F
100
AcDbEntity
  8
0
100
AcDbLine
 10
-57.83003889046169
 20
29.31144580547645
 30
0.0
 11
-57.83078847672499
 21
29.31739864351381
 31
0.0
  0
LINE
  5
72BE0
330
1F
100
AcDbEntity
  8
0
100
AcDbLine
 10
-57.82784121473692
 20
29.30589864351381
 30
0.0
 11
-57.83003889046169
 21
29.31144580547645
 31
0.0
  0
LINE
  5
72BE1
330
1F
100
AcDbEntity
  8
0
100
AcDbLine
 10
-57.82434521751948
 20
29.30113518754652
 30
0.0
 11
-57.82784121473692
 21
29.30589864351381
 31
0.0
  0
LINE
  5
72BE2
330
1F
100
AcDbEntity
  8
0
100
AcDbLine
 10
-57.81978914524232
 20
29.29748005922675
 30
0.0
 11
-57.82434521751948
 21
29.30113518754652
 31
0.0
  0
LINE
  5
72BE3
330
1F
100
AcDbEntity
  8
0
100
AcDbLine
 10
-57.81448348670186
 20
29.29518234950915
 30
0.0
 11
-57.81978914524232
 21
29.29748005922675
 31
0.0
  0
LINE
  5
72BE4
330
1F
100
AcDbEntity
  8
0
100
AcDbLine
 10
-57.80878981375964
 20
29.2943986435138
 30
0.0
 11
-57.81448348670186
 21
29.29518234950915
 31
0.0
  0
LINE
  5
72BE5
330
1F
100
AcDbEntity
  8
0
100
AcDbLine
 10
-57.79004811639545
 20
28.82038955699593
 30
0.0
 11
-57.78974574857
 21
29.2943986435138
 31
0.0
  0
LINE
  5
72BE6
330
1F
100
AcDbEntity
  8
0
100
AcDbLine
 10
-57.50954078590992
 20
29.33961493751846
 30
0.0
 11
-57.5089494398265
 21
29.3403986435138
 31
0.0
  0
LINE
  5
72BE7
330
1F
100
AcDbEntity
  8
0
100
AcDbLine
 10
-57.51009183273497
 20
29.33731722780084
 30
0.0
 11
-57.50954078590992
 21
29.33961493751846
 31
0.0
  0
LINE
  5
72BE8
330
1F
100
AcDbEntity
  8
0
100
AcDbLine
 10
-57.51051366747749
 20
29.33405882207189
 30
0.0
 11
-57.51009183273497
 21
29.33731722780084
 31
0.0
  0
LINE
  5
72BE9
330
1F
100
AcDbEntity
  8
0
100
AcDbLine
 10
-57.51009183273497
 20
29.29748005922675
 30
0.0
 11
-57.51051366747749
 21
29.30073846495571
 31
0.0
  0
LINE
  5
72BEA
330
1F
100
AcDbEntity
  8
0
100
AcDbLine
 10
-57.50954078590992
 20
29.29518234950915
 30
0.0
 11
-57.51009183273497
 21
29.29748005922675
 31
0.0
  0
LINE
  5
72BEB
330
1F
100
AcDbEntity
  8
0
100
AcDbLine
 10
-57.5089494398265
 20
29.2943986435138
 30
0.0
 11
-57.50954078590992
 21
29.29518234950915
 31
0.0
  0
LINE
  5
72BEC
330
1F
100
AcDbEntity
  8
0
100
AcDbLine
 10
-57.50700292314999
 20
28.82038955699593
 30
0.0
 11
-57.50697151916329
 21
29.2943986435138
 31
0.0
  0
LINE
  5
72BED
330
1F
100
AcDbEntity
  8
0
100
AcDbLine
 10
-56.77372648868294
 20
29.33961493751846
 30
0.0
 11
-56.77173091864474
 21
29.3403986435138
 31
0.0
  0
LINE
  5
72C0A
330
1F
100
AcDbEntity
  8
0
100
AcDbLine
 10
-57.5089494398265
 20
29.2943986435138
 30
0.0
 11
-57.50697151916329
 21
29.2943986435138
 31
0.0
  0
LINE
  5
72C13
330
1F
100
AcDbEntity
  8
0
100
AcDbLine
 10
-57.51051366747749
 20
29.33405882207189
 30
0.0
 11
-57.80878981375964
 21
29.33405882207189
 31
0.0
  0
LINE
  5
72C16
330
1F
100
AcDbEntity
  8
0
100
AcDbLine
 10
-55.95297372427736
 20
29.33405882207189
 30
0.0
 11
-57.11007907131436
 21
29.33405882207189
 31
0.0
  0
LINE
  5
72C17
330
1F
100
AcDbEntity
  8
0
100
AcDbLine
 10
-57.80984227377207
 20
29.30073846495571
 30
0.0
 11
-57.51051366747749
 21
29.30073846495571
 31
0.0
  0
LINE
  5
72C18
330
1F
100
AcDbEntity
  8
0
100
AcDbLine
 10
-57.11007907131436
 20
29.30073846495571
 30
0.0
 11
-55.95297372427736
 21
29.30073846495571
 31
0.0
  0
LINE
  5
72C19
330
1F
100
AcDbEntity
  8
0
100
AcDbLine
 10
-57.78974574857
 20
29.2943986435138
 30
0.0
 11
-57.80878981375964
 21
29.2943986435138
 31
0.0
  0
LINE
  5
72C1A
330
1F
100
AcDbEntity
  8
0
100
AcDbLine
 10
-57.5089494398265
 20
29.3403986435138
 30
0.0
 11
-57.80878981375964
 21
29.3403986435138
 31
0.0
  0
LINE
  5
72C1B
330
1F
100
AcDbEntity
  8
0
100
AcDbLine
 10
-57.5089494398265
 20
29.2943986435138
 30
0.0
 11
-57.78974574857
 21
29.2943986435138
 31
0.0
  0
LINE
  5
72C1C
330
1F
100
AcDbEntity
  8
0
100
AcDbLine
 10
-55.94769504581669
 20
29.2943986435138
 30
0.0
 11
-57.10653692300015
 21
29.2943986435138
 31
0.0
  0
ARC
  5
72C1F
330
1F
100
AcDbEntity
  8
0
100
AcDbCircle
 10
-57.80668393589502
 20
29.31731550550082
 30
0.0
 40
0.0168752295208051
100
AcDbArc
 50
97.16869021516554
 51
259.2130127358568
  0
LINE
  5
72C20
330
1F
100
AcDbEntity
  8
0
100
AcDbLine
 10
-57.81448348670186
 20
28.81960585100057
 30
0.0
 11
-57.80878981375964
 21
28.82038955699593
 31
0.0
  0
LINE
  5
72C21
330
1F
100
AcDbEntity
  8
0
100
AcDbLine
 10
-57.81978914524232
 20
28.81730814128297
 30
0.0
 11
-57.81448348670186
 21
28.81960585100057
 31
0.0
  0
LINE
  5
72C22
330
1F
100
AcDbEntity
  8
0
100
AcDbLine
 10
-57.82434521751948
 20
28.81365301296321
 30
0.0
 11
-57.81978914524232
 21
28.81730814128297
 31
0.0
  0
LINE
  5
72C23
330
1F
100
AcDbEntity
  8
0
100
AcDbLine
 10
-57.82784121473692
 20
28.80888955699593
 30
0.0
 11
-57.82434521751948
 21
28.81365301296321
 31
0.0
  0
LINE
  5
72C24
330
1F
100
AcDbEntity
  8
0
100
AcDbLine
 10
-57.83003889046169
 20
28.80334239503329
 30
0.0
 11
-57.82784121473692
 21
28.80888955699593
 31
0.0
  0
LINE
  5
72C25
330
1F
100
AcDbEntity
  8
0
100
AcDbLine
 10
-57.83078847672499
 20
28.79738955699593
 30
0.0
 11
-57.83003889046169
 21
28.80334239503329
 31
0.0
  0
LINE
  5
72C26
330
1F
100
AcDbEntity
  8
0
100
AcDbLine
 10
-57.83003889046169
 20
28.79143671895857
 30
0.0
 11
-57.83078847672499
 21
28.79738955699593
 31
0.0
  0
LINE
  5
72C27
330
1F
100
AcDbEntity
  8
0
100
AcDbLine
 10
-57.82784121473692
 20
28.78588955699592
 30
0.0
 11
-57.83003889046169
 21
28.79143671895857
 31
0.0
  0
LINE
  5
72C28
330
1F
100
AcDbEntity
  8
0
100
AcDbLine
 10
-57.82434521751948
 20
28.78112610102864
 30
0.0
 11
-57.82784121473692
 21
28.78588955699592
 31
0.0
  0
LINE
  5
72C29
330
1F
100
AcDbEntity
  8
0
100
AcDbLine
 10
-57.81978914524232
 20
28.77747097270887
 30
0.0
 11
-57.82434521751948
 21
28.78112610102864
 31
0.0
  0
LINE
  5
72C2A
330
1F
100
AcDbEntity
  8
0
100
AcDbLine
 10
-57.81448348670186
 20
28.77517326299128
 30
0.0
 11
-57.81978914524232
 21
28.77747097270887
 31
0.0
  0
LINE
  5
72C2B
330
1F
100
AcDbEntity
  8
0
100
AcDbLine
 10
-57.80878981375964
 20
28.77438955699592
 30
0.0
 11
-57.81448348670186
 21
28.77517326299128
 31
0.0
  0
LINE
  5
72C2C
330
1F
100
AcDbEntity
  8
0
100
AcDbLine
 10
-57.50954078590992
 20
28.81960585100057
 30
0.0
 11
-57.5089494398265
 21
28.82038955699593
 31
0.0
  0
LINE
  5
72C2D
330
1F
100
AcDbEntity
  8
0
100
AcDbLine
 10
-57.51009183273497
 20
28.81730814128297
 30
0.0
 11
-57.50954078590992
 21
28.81960585100057
 31
0.0
  0
LINE
  5
72C2E
330
1F
100
AcDbEntity
  8
0
100
AcDbLine
 10
-57.51051366747749
 20
28.81404973555401
 30
0.0
 11
-57.51009183273497
 21
28.81730814128297
 31
0.0
  0
LINE
  5
72C2F
330
1F
100
AcDbEntity
  8
0
100
AcDbLine
 10
-57.51009183273497
 20
28.77747097270887
 30
0.0
 11
-57.51051366747749
 21
28.78072937843784
 31
0.0
  0
LINE
  5
72C30
330
1F
100
AcDbEntity
  8
0
100
AcDbLine
 10
-57.50954078590992
 20
28.77517326299128
 30
0.0
 11
-57.51009183273497
 21
28.77747097270887
 31
0.0
  0
LINE
  5
72C31
330
1F
100
AcDbEntity
  8
0
100
AcDbLine
 10
-57.5089494398265
 20
28.77438955699592
 30
0.0
 11
-57.50954078590992
 21
28.77517326299128
 31
0.0
  0
LINE
  5
72C4E
330
1F
100
AcDbEntity
  8
0
100
AcDbLine
 10
-57.5089494398265
 20
28.77438955699592
 30
0.0
 11
-57.50697151916329
 21
28.77438955699592
 31
0.0
  0
LINE
  5
72C57
330
1F
100
AcDbEntity
  8
0
100
AcDbLine
 10
-57.51051366747749
 20
28.81404973555401
 30
0.0
 11
-57.80878981375964
 21
28.81404973555401
 31
0.0
  0
LINE
  5
72C5A
330
1F
100
AcDbEntity
  8
0
100
AcDbLine
 10
-55.95297372427736
 20
28.81404973555401
 30
0.0
 11
-57.11007907131436
 21
28.81404973555401
 31
0.0
  0
LINE
  5
72C5B
330
1F
100
AcDbEntity
  8
0
100
AcDbLine
 10
-57.80984227377207
 20
28.78072937843784
 30
0.0
 11
-57.51051366747749
 21
28.78072937843784
 31
0.0
  0
LINE
  5
72C5C
330
1F
100
AcDbEntity
  8
0
100
AcDbLine
 10
-57.11007907131436
 20
28.78072937843784
 30
0.0
 11
-55.95297372427736
 21
28.78072937843784
 31
0.0
  0
LINE
  5
72C5D
330
1F
100
AcDbEntity
  8
0
100
AcDbLine
 10
-57.78974574857
 20
28.77438955699592
 30
0.0
 11
-57.80878981375964
 21
28.77438955699592
 31
0.0
  0
LINE
  5
72C5E
330
1F
100
AcDbEntity
  8
0
100
AcDbLine
 10
-57.5089494398265
 20
28.82038955699593
 30
0.0
 11
-57.80878981375964
 21
28.82038955699593
 31
0.0
  0
LINE
  5
72C5F
330
1F
100
AcDbEntity
  8
0
100
AcDbLine
 10
-57.5089494398265
 20
28.77438955699592
 30
0.0
 11
-57.78974574857
 21
28.77438955699592
 31
0.0
  0
LINE
  5
72C60
330
1F
100
AcDbEntity
  8
0
100
AcDbLine
 10
-55.94769504581669
 20
28.77438955699592
 30
0.0
 11
-57.10653692300015
 21
28.77438955699592
 31
0.0
  0
LINE
  5
72C61
330
1F
100
AcDbEntity
  8
0
100
AcDbLine
 10
-55.94769504581669
 20
28.82038955699593
 30
0.0
 11
-57.10851484366337
 21
28.82038955699593
 31
0.0
  0
ARC
  5
72C64
330
1F
100
AcDbEntity
  8
0
100
AcDbCircle
 10
-57.80668393589502
 20
28.79730641898293
 30
0.0
 40
0.0168752295208051
100
AcDbArc
 50
97.16869021516554
 51
259.2130127358568
  0
LINE
  5
72C65
330
1F
100
AcDbEntity
  8
0
100
AcDbLine
 10
-57.42654358110467
 20
29.3336620994811
 30
0.0
 11
-57.82654358110467
 21
29.3336620994811
 31
0.0
  0
LINE
  5
72C66
330
1F
100
AcDbEntity
  8
0
100
AcDbLine
 10
-56.34989757920109
 20
28.8140497504539
 30
0.0
 11
-57.5070029262381
 21
28.8140497504539
 31
0.0
  0
LINE
  5
72C67
330
1F
100
AcDbEntity
  8
0
100
AcDbLine
 10
-57.5070029262381
 20
28.78072939333772
 30
0.0
 11
-56.34989757920109
 21
28.78072939333772
 31
0.0
  0
LINE
  5
72C68
330
1F
100
AcDbEntity
  8
0
100
AcDbLine
 10
-56.34461890074042
 20
28.77438957189581
 30
0.0
 11
-57.50346077792388
 21
28.77438957189581
 31
0.0
  0
LINE
  5
72C69
330
1F
100
AcDbEntity
  8
0
100
AcDbLine
 10
-56.34461890074042
 20
28.82038957189581
 30
0.0
 11
-57.50543869858709
 21
28.82038957189581
 31
0.0
  0
LINE
  5
72C6A
330
1F
100
AcDbEntity
  8
0
100
AcDbLine
 10
-56.35184409587762
 20
29.33405883697177
 30
0.0
 11
-57.50894944291463
 21
29.33405883697177
 31
0.0
  0
LINE
  5
72C6B
330
1F
100
AcDbEntity
  8
0
100
AcDbLine
 10
-57.50894944291463
 20
29.30073847985559
 30
0.0
 11
-56.35184409587762
 21
29.30073847985559
 31
0.0
  0
LINE
  5
72C6C
330
1F
100
AcDbEntity
  8
0
100
AcDbLine
 10
-56.34656541741695
 20
29.29439865841368
 30
0.0
 11
-57.5054072946004
 21
29.29439865841368
 31
0.0
  0
LINE
  5
72C6D
330
1F
100
AcDbEntity
  8
0
100
AcDbLine
 10
-57.50954078590992
 20
29.33961493751846
 30
0.0
 11
-55.94769504581669
 21
29.3403986435138
 31
0.0
  0
LINE
  5
72C6E
330
1F
100
AcDbEntity
  8
0
100
AcDbLine
 10
-57.5070029262381
 20
28.8140497504539
 30
0.0
 11
-57.51051366747749
 21
28.81404973555401
 31
0.0
  0
LINE
  5
72C6F
330
1F
100
AcDbEntity
  8
0
100
AcDbLine
 10
-57.51051366747749
 20
28.78072937843784
 30
0.0
 11
-57.5070029262381
 21
28.78072939333772
 31
0.0
  0
LINE
  5
72C70
330
1F
100
AcDbEntity
  8
0
100
AcDbLine
 10
-57.50346077792388
 20
28.77438957189581
 30
0.0
 11
-57.5089494398265
 21
28.77438955699592
 31
0.0
  0
LINE
  5
72C71
330
1F
100
AcDbEntity
  8
0
100
AcDbLine
 10
-56.37129632248158
 20
29.2943986435138
 30
0.0
 11
-55.45559040969819
 21
29.29512910809231
 31
0.0
  0
LINE
  5
72C72
330
1F
100
AcDbEntity
  8
0
100
AcDbLine
 10
-55.45559040969817
 20
29.3403986435138
 30
0.0
 11
-56.37129632248158
 21
29.3403986435138
 31
0.0
  0
LINE
  5
72C73
330
1F
100
AcDbEntity
  8
0
100
AcDbLine
 10
-56.37657500094225
 20
29.33405882207189
 30
0.0
 11
-55.45559040969817
 21
29.33405882207189
 31
0.0
  0
LINE
  5
72C74
330
1F
100
AcDbEntity
  8
0
100
AcDbLine
 10
-56.37657500094225
 20
29.30073846495571
 30
0.0
 11
-55.45559040969817
 21
29.30073846495571
 31
0.0
  0
LINE
  5
72C75
330
1F
100
AcDbEntity
  8
0
100
AcDbLine
 10
-56.37129632248158
 20
28.77438955699592
 30
0.0
 11
-55.45559040969817
 21
28.77438955699592
 31
0.0
  0
LINE
  5
72C76
330
1F
100
AcDbEntity
  8
0
100
AcDbLine
 10
-55.45559040969817
 20
28.82038955699593
 30
0.0
 11
-56.37129632248158
 21
28.82038955699593
 31
0.0
  0
LINE
  5
72C77
330
1F
100
AcDbEntity
  8
0
100
AcDbLine
 10
-56.37657500094225
 20
28.78072937843784
 30
0.0
 11
-55.45559040969817
 21
28.78072937843783
 31
0.0
  0
LINE
  5
72C78
330
1F
100
AcDbEntity
  8
0
100
AcDbLine
 10
-55.45559040969817
 20
28.81404973555401
 30
0.0
 11
-56.37657500094225
 21
28.81404973555401
 31
0.0
  0
LINE
  5
72CB8
330
1F
100
AcDbEntity
  8
0
100
AcDbLine
 10
-53.82519628088632
 20
25.17475764132863
 30
0.0
 11
-57.69226107118101
 21
25.17475764132865
 31
0.0
  0
LINE
  5
72CBA
330
1F
100
AcDbEntity
  8
0
100
AcDbLine
 10
-57.69226107118101
 20
24.20119290937059
 30
0.0
 11
-53.82519628088633
 21
24.20119290937063
 31
0.0
  0
ARC
  5
72CCE
330
1F
100
AcDbEntity
  8
0
100
AcDbCircle
 10
-52.55738859625334
 20
24.68797527534968
 30
0.0
 40
1.855793949316492
100
AcDbArc
 50
164.7931765428318
 51
195.206823457168
  0
LINE
  5
72CD0
330
1F
100
AcDbEntity
  8
0
100
AcDbLine
 10
-57.89226107118102
 20
24.97475764132865
 30
0.0
 11
-57.89226107118102
 21
24.40119290937059
 31
0.0
  0
ARC
  5
72CD4
330
1F
100
AcDbEntity
  8
0
100
AcDbCircle
 10
-57.69226107118101
 20
24.97475764132865
 30
0.0
 40
0.2
100
AcDbArc
 50
90.0
 51
180.0
  0
ARC
  5
72CD5
330
1F
100
AcDbEntity
  8
0
100
AcDbCircle
 10
-57.69226107118101
 20
24.40119290937059
 30
0.0
 40
0.2
100
AcDbArc
 50
179.9999999999995
 51
270.0000000000006
  0
ARC
  5
72CD6
330
1F
100
AcDbEntity
  8
0
100
AcDbCircle
 10
-57.24645099667523
 20
24.69130837996188
 30
0.0
 40
0.5001317025430989
100
AcDbArc
 50
281.4861665338193
 51
75.15979544090235
  0
ARC
  5
72CDE
330
1F
100
AcDbEntity
  8
0
100
AcDbCircle
 10
-54.34677227662429
 20
24.68797527534972
 30
0.0
 40
1.855793949316492
100
AcDbArc
 50
164.7931765428318
 51
195.206823457168
  0
LINE
  5
74E6D
330
1F
100
AcDbEntity
  8
0
100
AcDbLine
 10
-52.47664625454303
 20
25.06288792905721
 30
0.0
 11
-51.90063789704079
 21
25.0611797265296
 31
0.0
  0
LINE
  5
74E6E
330
1F
100
AcDbEntity
  8
0
100
AcDbLine
 10
-51.9006378970408
 20
24.1611757689222
 30
0.0
 11
-52.47664625454304
 21
24.16288397144982
 31
0.0
  0
LINE
  5
74E6F
330
1F
100
AcDbEntity
  8
0
100
AcDbLine
 10
-52.47664625454303
 20
24.17888404180729
 30
0.0
 11
-51.90063789704078
 21
24.17717583927969
 31
0.0
  0
LINE
  5
74E70
330
1F
100
AcDbEntity
  8
0
100
AcDbLine
 10
-52.47664625454302
 20
25.04688785869974
 30
0.0
 11
-51.9006378970408
 21
25.04517965617214
 31
0.0
  0
LINE
  5
74E71
330
1F
100
AcDbEntity
  8
0
100
AcDbLine
 10
-52.47664625454303
 20
24.62088598543227
 30
0.0
 11
-51.9006378970408
 21
24.61917778290469
 31
0.0
  0
LINE
  5
74E72
330
1F
100
AcDbEntity
  8
0
100
AcDbLine
 10
-51.9006378970408
 20
24.60317771254724
 30
0.0
 11
-52.47664625454302
 21
24.60488591507485
 31
0.0
  0
LINE
  5
74E73
330
1F
100
AcDbEntity
  8
0
100
AcDbLine
 10
-52.47664625454302
 20
25.04688785869975
 30
0.0
 11
-52.39634773669742
 21
25.04664972651059
 31
0.0
  0
LINE
  5
74E74
330
1F
100
AcDbEntity
  8
0
100
AcDbLine
 10
-52.39634773669742
 20
25.04664972651059
 30
0.0
 11
-52.39892185433761
 21
24.17865354338629
 31
0.0
  0
LINE
  5
74E75
330
1F
100
AcDbEntity
  8
0
100
AcDbLine
 10
-52.39892185433761
 20
24.17865354338629
 30
0.0
 11
-52.39634773669742
 21
25.04664972651059
 31
0.0
  0
LINE
  5
74E76
330
1F
100
AcDbEntity
  8
0
100
AcDbLine
 10
-52.39634773669742
 20
25.04664972651059
 30
0.0
 11
-52.38034780705458
 21
25.0466022773375
 31
0.0
  0
LINE
  5
74E77
330
1F
100
AcDbEntity
  8
0
100
AcDbLine
 10
-52.38034780705458
 20
25.0466022773375
 30
0.0
 11
-52.38292192469483
 21
24.1786060942132
 31
0.0
  0
LINE
  5
74E78
330
1F
100
AcDbEntity
  8
0
100
AcDbLine
 10
-52.38292192469483
 20
24.1786060942132
 30
0.0
 11
-52.08292324389148
 21
24.17771642221771
 31
0.0
  0
LINE
  5
74E79
330
1F
100
AcDbEntity
  8
0
100
AcDbLine
 10
-52.08292324389148
 20
24.17771642221771
 30
0.0
 11
-52.08034912625126
 21
25.04571260534202
 31
0.0
  0
LINE
  5
74E7A
330
1F
100
AcDbEntity
  8
0
100
AcDbLine
 10
-52.08034912625126
 20
25.04571260534202
 30
0.0
 11
-52.06434919660841
 21
25.04566515616894
 31
0.0
  0
LINE
  5
74E7B
330
1F
100
AcDbEntity
  8
0
100
AcDbLine
 10
-52.06434919660841
 20
25.04566515616894
 30
0.0
 11
-52.06692331424866
 21
24.17766897304463
 31
0.0
  0
LINE
  5
74E7C
330
1F
100
AcDbEntity
  8
0
100
AcDbLine
 10
-52.06692331424866
 20
24.17766897304463
 30
0.0
 11
-51.90063789704079
 21
24.17717583927968
 31
0.0
  0
LINE
  5
74E91
330
1F
100
AcDbEntity
  8
0
100
AcDbLine
 10
-53.78301719441084
 20
27.12756954578336
 30
0.0
 11
-53.78301719441084
 21
27.72756954578336
 31
0.0
  0
LINE
  5
74E93
330
1F
100
AcDbEntity
  8
0
100
AcDbLine
 10
-53.78301719441084
 20
27.72756954578336
 30
0.0
 11
-53.78301719441084
 21
27.42756954578336
 31
0.0
  0
LINE
  5
74E95
330
1F
100
AcDbEntity
  8
0
100
AcDbLine
 10
-53.78301719441084
 20
27.12756954578336
 30
0.0
 11
-53.78301719441084
 21
27.42756954578336
 31
0.0
  0
LINE
  5
74E9A
330
1F
100
AcDbEntity
  8
0
100
AcDbLine
 10
-54.78301719441084
 20
28.42756954578336
 30
0.0
 11
-54.48301719441084
 21
28.42756954578336
 31
0.0
  0
LINE
  5
74E9C
330
1F
100
AcDbEntity
  8
0
100
AcDbLine
 10
-54.78301719441084
 20
28.42756954578336
 30
0.0
 11
-55.08301719441083
 21
28.42756954578336
 31
0.0
  0
ARC
  5
74ECC
330
1F
100
AcDbEntity
  8
0
100
AcDbCircle
 10
-53.75768553717746
 20
28.45290120301675
 30
0.0
 40
0.725773866878056
100
AcDbArc
 50
183.088939541169
 51
266.8541176001185
  0
ARC
  5
74ECE
330
1F
100
AcDbEntity
  8
0
100
AcDbCircle
 10
-53.75819162905489
 20
28.45239511113929
 30
0.0
 40
1.325058144881166
100
AcDbArc
 50
181.6694375375815
 51
268.2994058428371
  0
LINE
  5
74EDD
330
1F
100
AcDbEntity
  8
0
100
AcDbLine
 10
-53.12494164692189
 20
27.42756954578333
 30
0.0
 11
-52.44896479276548
 21
27.42756954578332
 31
0.0
  0
LINE
  5
74EDE
330
1F
100
AcDbEntity
  8
0
100
AcDbLine
 10
-52.44896479276548
 20
27.42756954578332
 30
0.0
 11
-53.79751486220921
 21
27.42756954578336
 31
0.0
  0
LINE
  5
75AE7
330
1F
100
AcDbEntity
  8
0
100
AcDbLine
 10
-52.76258248346042
 20
25.31582066615141
 30
0.0
 11
-52.76258248346042
 21
25.35971045018496
 31
0.0
  0
LINE
  5
75AE8
330
1F
100
AcDbEntity
  8
0
100
AcDbLine
 10
-52.76258248346042
 20
25.37451045018495
 30
0.0
 11
-52.76258248346042
 21
25.65971045018495
 31
0.0
  0
LINE
  5
75AE9
330
1F
100
AcDbEntity
  8
0
100
AcDbLine
 10
-52.76258248346042
 20
25.67451045018494
 30
0.0
 11
-52.76258248346042
 21
25.95971045018495
 31
0.0
  0
LINE
  5
75AEA
330
1F
100
AcDbEntity
  8
0
100
AcDbLine
 10
-52.76258248346042
 20
25.97451045018495
 30
0.0
 11
-52.76258248346042
 21
26.25971045018495
 31
0.0
  0
LINE
  5
75AEB
330
1F
100
AcDbEntity
  8
0
100
AcDbLine
 10
-52.76258248346042
 20
26.27451045018495
 30
0.0
 11
-52.76258248346042
 21
26.55971045018496
 31
0.0
  0
LINE
  5
75AEC
330
1F
100
AcDbEntity
  8
0
100
AcDbLine
 10
-52.77258248346042
 20
25.32559154329566
 30
0.0
 11
-52.77258248346042
 21
25.35971045018496
 31
0.0
  0
LINE
  5
75AED
330
1F
100
AcDbEntity
  8
0
100
AcDbLine
 10
-52.77258248346042
 20
25.37451045018495
 30
0.0
 11
-52.77258248346042
 21
25.65971045018495
 31
0.0
  0
LINE
  5
75AEE
330
1F
100
AcDbEntity
  8
0
100
AcDbLine
 10
-52.77258248346042
 20
25.67451045018494
 30
0.0
 11
-52.77258248346042
 21
25.95971045018495
 31
0.0
  0
LINE
  5
75AEF
330
1F
100
AcDbEntity
  8
0
100
AcDbLine
 10
-52.77258248346042
 20
25.97451045018495
 30
0.0
 11
-52.77258248346042
 21
26.25971045018495
 31
0.0
  0
LINE
  5
75AF0
330
1F
100
AcDbEntity
  8
0
100
AcDbLine
 10
-52.77258248346042
 20
26.27451045018495
 30
0.0
 11
-52.77258248346042
 21
26.55971045018495
 31
0.0
  0
LINE
  5
75AF1
330
1F
100
AcDbEntity
  8
0
100
AcDbLine
 10
-53.45368796455031
 20
25.33160699424268
 30
0.0
 11
-53.45368796455031
 21
25.35971045018496
 31
0.0
  0
LINE
  5
75AF2
330
1F
100
AcDbEntity
  8
0
100
AcDbLine
 10
-53.45368796455031
 20
25.37451045018495
 30
0.0
 11
-53.45368796455031
 21
25.65971045018495
 31
0.0
  0
LINE
  5
75AF3
330
1F
100
AcDbEntity
  8
0
100
AcDbLine
 10
-53.45368796455031
 20
25.67451045018494
 30
0.0
 11
-53.45368796455031
 21
25.95971045018495
 31
0.0
  0
LINE
  5
75AF4
330
1F
100
AcDbEntity
  8
0
100
AcDbLine
 10
-53.45368796455031
 20
25.97451045018495
 30
0.0
 11
-53.45368796455031
 21
26.25971045018495
 31
0.0
  0
LINE
  5
75AF5
330
1F
100
AcDbEntity
  8
0
100
AcDbLine
 10
-53.45368796455031
 20
26.27451045018495
 30
0.0
 11
-53.45368796455031
 21
26.55971045018495
 31
0.0
  0
LINE
  5
75AF6
330
1F
100
AcDbEntity
  8
0
100
AcDbLine
 10
-53.44368796455031
 20
25.34073321313262
 30
0.0
 11
-53.44368796455031
 21
25.35971045018496
 31
0.0
  0
LINE
  5
75AF7
330
1F
100
AcDbEntity
  8
0
100
AcDbLine
 10
-53.44368796455031
 20
25.37451045018495
 30
0.0
 11
-53.44368796455031
 21
25.65971045018495
 31
0.0
  0
LINE
  5
75AF8
330
1F
100
AcDbEntity
  8
0
100
AcDbLine
 10
-53.44368796455031
 20
25.67451045018494
 30
0.0
 11
-53.44368796455031
 21
25.95971045018495
 31
0.0
  0
LINE
  5
75AF9
330
1F
100
AcDbEntity
  8
0
100
AcDbLine
 10
-53.44368796455031
 20
25.97451045018495
 30
0.0
 11
-53.44368796455031
 21
26.25971045018495
 31
0.0
  0
LINE
  5
75AFA
330
1F
100
AcDbEntity
  8
0
100
AcDbLine
 10
-53.44368796455031
 20
26.27451045018495
 30
0.0
 11
-53.44368796455031
 21
26.55971045018495
 31
0.0
  0
LINE
  5
75AFB
330
1F
100
AcDbEntity
  8
0
100
AcDbLine
 10
-53.56599334333245
 20
25.31534022074544
 30
0.0
 11
-53.56599334333246
 21
26.78157599475561
 31
0.0
  0
LINE
  5
75AFC
330
1F
100
AcDbEntity
  8
0
100
AcDbLine
 10
-52.65308975863092
 20
25.33231074801255
 30
0.0
 11
-52.65308975863092
 21
26.78157599475562
 31
0.0
  0
LINE
  5
75AFD
330
1F
100
AcDbEntity
  8
0
100
AcDbLine
 10
-53.46699334333246
 20
26.57278660218089
 30
0.0
 11
-53.46699334333246
 21
26.78157599475562
 31
0.0
  0
LINE
  5
75AFE
330
1F
100
AcDbEntity
  8
0
100
AcDbLine
 10
-53.46699334333246
 20
26.27278660218089
 30
0.0
 11
-53.46699334333246
 21
26.56071045018495
 31
0.0
  0
LINE
  5
75AFF
330
1F
100
AcDbEntity
  8
0
100
AcDbLine
 10
-53.46699334333246
 20
25.97278660218089
 30
0.0
 11
-53.46699334333246
 21
26.26071045018495
 31
0.0
  0
LINE
  5
75B00
330
1F
100
AcDbEntity
  8
0
100
AcDbLine
 10
-53.46699334333246
 20
25.67278660218089
 30
0.0
 11
-53.46699334333246
 21
25.96071045018495
 31
0.0
  0
LINE
  5
75B01
330
1F
100
AcDbEntity
  8
0
100
AcDbLine
 10
-53.46699334333246
 20
25.37278660218089
 30
0.0
 11
-53.46699334333246
 21
25.66071045018495
 31
0.0
  0
LINE
  5
75B02
330
1F
100
AcDbEntity
  8
0
100
AcDbLine
 10
-53.46699334333246
 20
25.31534022074544
 30
0.0
 11
-53.46699334333246
 21
25.36071045018495
 31
0.0
  0
LINE
  5
75B03
330
1F
100
AcDbEntity
  8
0
100
AcDbLine
 10
-52.75208975863093
 20
25.97451045018495
 30
0.0
 11
-52.75208975863093
 21
26.25971045018495
 31
0.0
  0
LINE
  5
75B04
330
1F
100
AcDbEntity
  8
0
100
AcDbLine
 10
-52.75208975863093
 20
26.27451045018495
 30
0.0
 11
-52.75208975863093
 21
26.55971045018496
 31
0.0
  0
LINE
  5
75B05
330
1F
100
AcDbEntity
  8
0
100
AcDbLine
 10
-52.75208975863093
 20
26.57451045018495
 30
0.0
 11
-52.75208975863093
 21
26.78157599475562
 31
0.0
  0
LINE
  5
75B06
330
1F
100
AcDbEntity
  8
0
100
AcDbLine
 10
-52.75208975863093
 20
25.33343096979156
 30
0.0
 11
-52.75208975863093
 21
25.35971045018496
 31
0.0
  0
LINE
  5
75B07
330
1F
100
AcDbEntity
  8
0
100
AcDbLine
 10
-52.75208975863093
 20
25.67451045018494
 30
0.0
 11
-52.75208975863093
 21
25.95971045018495
 31
0.0
  0
LINE
  5
75B08
330
1F
100
AcDbEntity
  8
0
100
AcDbLine
 10
-52.75208975863093
 20
25.37451045018495
 30
0.0
 11
-52.75208975863093
 21
25.65971045018495
 31
0.0
  0
LINE
  5
75B09
330
1F
100
AcDbEntity
  8
0
100
AcDbLine
 10
-52.88420475610775
 20
25.36696745774481
 30
0.0
 11
-52.88422653648701
 21
25.36640790352239
 31
0.0
  0
LINE
  5
75B0A
330
1F
100
AcDbEntity
  8
0
100
AcDbLine
 10
-53.32515307820998
 20
25.36696745774481
 30
0.0
 11
-53.32513129783073
 21
25.36640790352233
 31
0.0
  0
LINE
  5
75B0B
330
1F
100
AcDbEntity
  8
0
100
AcDbLine
 10
-52.88400817672036
 20
25.36851437456938
 30
0.0
 11
-52.88387173818498
 21
25.3688366374139
 31
0.0
  0
LINE
  5
75B0C
330
1F
100
AcDbEntity
  8
0
100
AcDbLine
 10
-52.8841213927464
 20
25.36787684252642
 30
0.0
 11
-52.88400817672036
 21
25.36851437456938
 31
0.0
  0
LINE
  5
75B0D
330
1F
100
AcDbEntity
  8
0
100
AcDbLine
 10
-52.88420475610775
 20
25.36696745774481
 30
0.0
 11
-52.8841213927464
 21
25.36787684252642
 31
0.0
  0
LINE
  5
75B0E
330
1F
100
AcDbEntity
  8
0
100
AcDbLine
 10
-52.88425547489905
 20
25.3645954967884
 30
0.0
 11
-52.88424940370333
 21
25.36584828211613
 31
0.0
  0
LINE
  5
75B0F
330
1F
100
AcDbEntity
  8
0
100
AcDbLine
 10
-52.88422147062323
 20
25.36329450730677
 30
0.0
 11
-52.88425547489905
 21
25.3645954967884
 31
0.0
  0
LINE
  5
75B10
330
1F
100
AcDbEntity
  8
0
100
AcDbLine
 10
-52.88414970821107
 20
25.36203397395441
 30
0.0
 11
-52.88422147062323
 21
25.36329450730677
 31
0.0
  0
LINE
  5
75B11
330
1F
100
AcDbEntity
  8
0
100
AcDbLine
 10
-52.88404507815236
 20
25.36089979999617
 30
0.0
 11
-52.88414970821107
 21
25.36203397395441
 31
0.0
  0
LINE
  5
75B12
330
1F
100
AcDbEntity
  8
0
100
AcDbLine
 10
-52.8839147108127
 20
25.35996927751298
 30
0.0
 11
-52.88404507815236
 21
25.36089979999617
 31
0.0
  0
LINE
  5
75B13
330
1F
100
AcDbEntity
  8
0
100
AcDbLine
 10
-52.88376749051085
 20
25.35930582007431
 30
0.0
 11
-52.8839147108127
 21
25.35996927751298
 31
0.0
  0
LINE
  5
75B14
330
1F
100
AcDbEntity
  8
0
100
AcDbLine
 10
-52.88361345006707
 20
25.35895464120819
 30
0.0
 11
-52.88376749051085
 21
25.35930582007431
 31
0.0
  0
LINE
  5
75B15
330
1F
100
AcDbEntity
  8
0
100
AcDbLine
 10
-52.88346308708305
 20
25.358939673174
 30
0.0
 11
-52.88361345006707
 21
25.35895464120819
 31
0.0
  0
LINE
  5
75B16
330
1F
100
AcDbEntity
  8
0
100
AcDbLine
 10
-52.88387173818498
 20
25.3688366374139
 30
0.0
 11
-53.10467891715878
 21
25.362673132756
 31
0.0
  0
LINE
  5
75B17
330
1F
100
AcDbEntity
  8
0
100
AcDbLine
 10
-53.00068796455032
 20
25.36557588584474
 30
0.0
 11
-53.10467891715873
 21
25.36267313275599
 31
0.0
  0
LINE
  5
75B18
330
1F
100
AcDbEntity
  8
0
100
AcDbLine
 10
-53.10515307946369
 20
25.36173354214196
 30
0.0
 11
-53.10517003489868
 21
25.36234096956791
 31
0.0
  0
LINE
  5
75B19
330
1F
100
AcDbEntity
  8
0
100
AcDbLine
 10
-53.32589474723469
 20
25.358939673174
 30
0.0
 11
-53.32574438425067
 21
25.35895464120819
 31
0.0
  0
LINE
  5
75B1A
330
1F
100
AcDbEntity
  8
0
100
AcDbLine
 10
-53.32534965759737
 20
25.36851437456938
 30
0.0
 11
-53.32548609613276
 21
25.3688366374139
 31
0.0
  0
LINE
  5
75B1B
330
1F
100
AcDbEntity
  8
0
100
AcDbLine
 10
-53.32523644157133
 20
25.36787684252642
 30
0.0
 11
-53.32534965759737
 21
25.36851437456938
 31
0.0
  0
LINE
  5
75B1C
330
1F
100
AcDbEntity
  8
0
100
AcDbLine
 10
-53.32515307820998
 20
25.36696745774481
 30
0.0
 11
-53.32523644157133
 21
25.36787684252642
 31
0.0
  0
LINE
  5
75B1D
330
1F
100
AcDbEntity
  8
0
100
AcDbLine
 10
-53.32510235941868
 20
25.3645954967884
 30
0.0
 11
-53.32510843061441
 21
25.36584828211613
 31
0.0
  0
LINE
  5
75B1E
330
1F
100
AcDbEntity
  8
0
100
AcDbLine
 10
-53.32513636369451
 20
25.36329450730677
 30
0.0
 11
-53.32510235941868
 21
25.3645954967884
 31
0.0
  0
LINE
  5
75B1F
330
1F
100
AcDbEntity
  8
0
100
AcDbLine
 10
-53.32520812610667
 20
25.36203397395441
 30
0.0
 11
-53.32513636369451
 21
25.36329450730677
 31
0.0
  0
LINE
  5
75B20
330
1F
100
AcDbEntity
  8
0
100
AcDbLine
 10
-53.32531275616537
 20
25.36089979999617
 30
0.0
 11
-53.32520812610667
 21
25.36203397395441
 31
0.0
  0
LINE
  5
75B21
330
1F
100
AcDbEntity
  8
0
100
AcDbLine
 10
-53.32544312350503
 20
25.35996927751298
 30
0.0
 11
-53.32531275616537
 21
25.36089979999617
 31
0.0
  0
LINE
  5
75B22
330
1F
100
AcDbEntity
  8
0
100
AcDbLine
 10
-53.32559034380689
 20
25.35930582007431
 30
0.0
 11
-53.32544312350503
 21
25.35996927751298
 31
0.0
  0
LINE
  5
75B23
330
1F
100
AcDbEntity
  8
0
100
AcDbLine
 10
-53.32548609613276
 20
25.3688366374139
 30
0.0
 11
-53.2167039183288
 21
25.36580014438542
 31
0.0
  0
LINE
  5
75B24
330
1F
100
AcDbEntity
  8
0
100
AcDbLine
 10
-53.2067039183288
 20
25.36552100922838
 30
0.0
 11
-53.10467891715887
 21
25.36267313275599
 31
0.0
  0
LINE
  5
75B25
330
1F
100
AcDbEntity
  8
0
100
AcDbLine
 10
-53.10420475485405
 20
25.36173354214196
 30
0.0
 11
-53.10418779941905
 21
25.36234096956791
 31
0.0
  0
LINE
  5
75B26
330
1F
100
AcDbEntity
  8
0
100
AcDbLine
 10
-53.32574438425067
 20
25.35895464120819
 30
0.0
 11
-53.32559034380689
 21
25.35930582007431
 31
0.0
  0
LINE
  5
75B27
330
1F
100
AcDbEntity
  8
0
100
AcDbLine
 10
-53.43638742819196
 20
25.35971045018494
 30
0.0
 11
-53.43638742819196
 21
25.36205894955451
 31
0.0
  0
LINE
  5
75B28
330
1F
100
AcDbEntity
  8
0
100
AcDbLine
 10
-53.46597214102103
 20
25.35971045018494
 30
0.0
 11
-53.46597214102103
 21
25.36288900288438
 31
0.0
  0
LINE
  5
75B29
330
1F
100
AcDbEntity
  8
0
100
AcDbLine
 10
-53.46597214102103
 20
25.37275809683414
 30
0.0
 11
-53.46597214102103
 21
25.37451045018495
 31
0.0
  0
LINE
  5
75B2A
330
1F
100
AcDbEntity
  8
0
100
AcDbLine
 10
-52.88424940370333
 20
25.36584828211613
 30
0.0
 11
-52.88422653648701
 21
25.36640790352239
 31
0.0
  0
LINE
  5
75B2B
330
1F
100
AcDbEntity
  8
0
100
AcDbLine
 10
-52.82103300795373
 20
25.36071045018495
 30
0.0
 11
-53.10445420995225
 21
25.35275854901793
 31
0.0
  0
LINE
  5
75B2C
330
1F
100
AcDbEntity
  8
0
100
AcDbLine
 10
-53.46699334333245
 20
25.37278660218089
 30
0.0
 11
-53.46597214102103
 21
25.37275809683414
 31
0.0
  0
LINE
  5
75B2D
330
1F
100
AcDbEntity
  8
0
100
AcDbLine
 10
-53.46597214102103
 20
25.37275809683414
 30
0.0
 11
-53.10467891715878
 21
25.362673132756
 31
0.0
  0
LINE
  5
75B2E
330
1F
100
AcDbEntity
  8
0
100
AcDbLine
 10
-53.32510843061441
 20
25.36584828211613
 30
0.0
 11
-53.32513129783073
 21
25.36640790352233
 31
0.0
  0
LINE
  5
75B2F
330
1F
100
AcDbEntity
  8
0
100
AcDbLine
 10
-52.77988301981877
 20
25.37173932813709
 30
0.0
 11
-52.77988301981877
 21
25.37451045018495
 31
0.0
  0
LINE
  5
75B30
330
1F
100
AcDbEntity
  8
0
100
AcDbLine
 10
-53.43638742819196
 20
25.37193228348797
 30
0.0
 11
-53.43638742819196
 21
25.37451045018495
 31
0.0
  0
LINE
  5
75B31
330
1F
100
AcDbEntity
  8
0
100
AcDbLine
 10
-53.2167039183288
 20
25.36572911035417
 30
0.0
 11
-53.2167039183288
 21
25.36580014438542
 31
0.0
  0
LINE
  5
75B32
330
1F
100
AcDbEntity
  8
0
100
AcDbLine
 10
-53.2067039183288
 20
25.36544997519713
 30
0.0
 11
-53.2067039183288
 21
25.36552100922838
 31
0.0
  0
LINE
  5
75B33
330
1F
100
AcDbEntity
  8
0
100
AcDbLine
 10
-52.77988301981877
 20
25.35971045018494
 30
0.0
 11
-52.77988301981877
 21
25.36183095700823
 31
0.0
  0
LINE
  5
75B34
330
1F
100
AcDbEntity
  8
0
100
AcDbLine
 10
-52.77988301981877
 20
25.36183095700823
 30
0.0
 11
-52.77988301981877
 21
25.37173932813709
 31
0.0
  0
LINE
  5
75B35
330
1F
100
AcDbEntity
  8
0
100
AcDbLine
 10
-53.00068796455032
 20
25.36529585568382
 30
0.0
 11
-53.00068796455032
 21
25.36557588584474
 31
0.0
  0
LINE
  5
75B36
330
1F
100
AcDbEntity
  8
0
100
AcDbLine
 10
-52.99068796455031
 20
25.36557499084087
 30
0.0
 11
-52.99068796455031
 21
25.36585502100178
 31
0.0
  0
LINE
  5
75B37
330
1F
100
AcDbEntity
  8
0
100
AcDbLine
 10
-53.46699334333245
 20
25.36071045018495
 30
0.0
 11
-53.46699334333245
 21
25.37278660218089
 31
0.0
  0
LINE
  5
75B38
330
1F
100
AcDbEntity
  8
0
100
AcDbLine
 10
-52.75208975863093
 20
25.36260676464088
 30
0.0
 11
-52.75208975863093
 21
25.37251513576974
 31
0.0
  0
LINE
  5
75B39
330
1F
100
AcDbEntity
  8
0
100
AcDbLine
 10
-52.75208975863093
 20
25.36071045018495
 30
0.0
 11
-52.75208975863093
 21
25.36260676464088
 31
0.0
  0
LINE
  5
75B3A
330
1F
100
AcDbEntity
  8
0
100
AcDbLine
 10
-52.75208975863093
 20
25.35971045018496
 30
0.0
 11
-52.75208975863093
 21
25.36071045018495
 31
0.0
  0
LINE
  5
75B3B
330
1F
100
AcDbEntity
  8
0
100
AcDbLine
 10
-52.75208975863093
 20
25.37251513576974
 30
0.0
 11
-52.75208975863093
 21
25.37262645018495
 31
0.0
  0
LINE
  5
75B3C
330
1F
100
AcDbEntity
  8
0
100
AcDbLine
 10
-52.75208975863093
 20
25.37262645018495
 30
0.0
 11
-52.75208975863093
 21
25.37451045018495
 31
0.0
  0
LINE
  5
75B3D
330
1F
100
AcDbEntity
  8
0
100
AcDbLine
 10
-52.88387173818498
 20
25.3688366374139
 30
0.0
 11
-52.77988301981877
 21
25.37173932813709
 31
0.0
  0
LINE
  5
75B3E
330
1F
100
AcDbEntity
  8
0
100
AcDbLine
 10
-52.88346308708305
 20
25.358939673174
 30
0.0
 11
-52.77988301981877
 21
25.36183095700823
 31
0.0
  0
LINE
  5
75B3F
330
1F
100
AcDbEntity
  8
0
100
AcDbLine
 10
-53.10490308956872
 20
25.35277766938075
 30
0.0
 11
-53.10515234113823
 21
25.36170709167734
 31
0.0
  0
LINE
  5
75B40
330
1F
100
AcDbEntity
  8
0
100
AcDbLine
 10
-53.32548609613276
 20
25.3688366374139
 30
0.0
 11
-53.43638742819196
 21
25.37193228348797
 31
0.0
  0
LINE
  5
75B41
330
1F
100
AcDbEntity
  8
0
100
AcDbLine
 10
-53.1042054931795
 20
25.36170709167734
 30
0.0
 11
-53.10444482981476
 21
25.35313287129654
 31
0.0
  0
LINE
  5
75B42
330
1F
100
AcDbEntity
  8
0
100
AcDbLine
 10
-52.76258248346042
 20
25.35971045018495
 30
0.0
 11
-52.77258248346042
 21
25.35971045018494
 31
0.0
  0
LINE
  5
75B43
330
1F
100
AcDbEntity
  8
0
100
AcDbLine
 10
-52.77258248346042
 20
25.35971045018494
 30
0.0
 11
-52.77988301981877
 21
25.35971045018494
 31
0.0
  0
LINE
  5
75B44
330
1F
100
AcDbEntity
  8
0
100
AcDbLine
 10
-52.75208975863093
 20
25.35971045018496
 30
0.0
 11
-52.76258248346042
 21
25.35971045018495
 31
0.0
  0
LINE
  5
75B45
330
1F
100
AcDbEntity
  8
0
100
AcDbLine
 10
-52.77988301981877
 20
25.37451045018495
 30
0.0
 11
-52.77258248346042
 21
25.37451045018495
 31
0.0
  0
LINE
  5
75B46
330
1F
100
AcDbEntity
  8
0
100
AcDbLine
 10
-52.75208975863093
 20
25.37451045018495
 30
0.0
 11
-52.76258248346042
 21
25.37451045018495
 31
0.0
  0
LINE
  5
75B47
330
1F
100
AcDbEntity
  8
0
100
AcDbLine
 10
-52.77258248346042
 20
25.37451045018495
 30
0.0
 11
-52.76258248346042
 21
25.37451045018495
 31
0.0
  0
LINE
  5
75B48
330
1F
100
AcDbEntity
  8
0
100
AcDbLine
 10
-53.45368796455031
 20
25.35971045018494
 30
0.0
 11
-53.44368796455031
 21
25.35971045018494
 31
0.0
  0
LINE
  5
75B49
330
1F
100
AcDbEntity
  8
0
100
AcDbLine
 10
-53.44368796455031
 20
25.37451045018495
 30
0.0
 11
-53.43638742819196
 21
25.37451045018495
 31
0.0
  0
LINE
  5
75B4A
330
1F
100
AcDbEntity
  8
0
100
AcDbLine
 10
-53.45368796455031
 20
25.35971045018494
 30
0.0
 11
-53.46597214102103
 21
25.35971045018494
 31
0.0
  0
LINE
  5
75B4B
330
1F
100
AcDbEntity
  8
0
100
AcDbLine
 10
-53.43638742819196
 20
25.35971045018494
 30
0.0
 11
-53.44368796455031
 21
25.35971045018494
 31
0.0
  0
LINE
  5
75B4C
330
1F
100
AcDbEntity
  8
0
100
AcDbLine
 10
-53.45368796455031
 20
25.37451045018495
 30
0.0
 11
-53.46597214102103
 21
25.37451045018495
 31
0.0
  0
LINE
  5
75B4D
330
1F
100
AcDbEntity
  8
0
100
AcDbLine
 10
-53.44368796455031
 20
25.37451045018495
 30
0.0
 11
-53.45368796455031
 21
25.37451045018495
 31
0.0
  0
LINE
  5
75B4E
330
1F
100
AcDbEntity
  8
0
100
AcDbLine
 10
-53.46699334333245
 20
25.36291765458649
 30
0.0
 11
-53.10490308956872
 21
25.35275854901793
 31
0.0
  0
LINE
  5
75B4F
330
1F
100
AcDbEntity
  8
0
100
AcDbLine
 10
-52.88420475610775
 20
25.66696745774481
 30
0.0
 11
-52.88422653648701
 21
25.6664079035224
 31
0.0
  0
LINE
  5
75B50
330
1F
100
AcDbEntity
  8
0
100
AcDbLine
 10
-53.32515307820998
 20
25.66696745774481
 30
0.0
 11
-53.32513129783073
 21
25.66640790352233
 31
0.0
  0
LINE
  5
75B51
330
1F
100
AcDbEntity
  8
0
100
AcDbLine
 10
-52.88400817672036
 20
25.66851437456938
 30
0.0
 11
-52.88387173818498
 21
25.66883663741391
 31
0.0
  0
LINE
  5
75B52
330
1F
100
AcDbEntity
  8
0
100
AcDbLine
 10
-52.8841213927464
 20
25.66787684252642
 30
0.0
 11
-52.88400817672036
 21
25.66851437456938
 31
0.0
  0
LINE
  5
75B53
330
1F
100
AcDbEntity
  8
0
100
AcDbLine
 10
-52.88420475610775
 20
25.66696745774481
 30
0.0
 11
-52.8841213927464
 21
25.66787684252642
 31
0.0
  0
LINE
  5
75B54
330
1F
100
AcDbEntity
  8
0
100
AcDbLine
 10
-52.88425547489905
 20
25.66459549678841
 30
0.0
 11
-52.88424940370333
 21
25.66584828211613
 31
0.0
  0
LINE
  5
75B55
330
1F
100
AcDbEntity
  8
0
100
AcDbLine
 10
-52.88422147062323
 20
25.66329450730678
 30
0.0
 11
-52.88425547489905
 21
25.66459549678841
 31
0.0
  0
LINE
  5
75B56
330
1F
100
AcDbEntity
  8
0
100
AcDbLine
 10
-52.88414970821107
 20
25.66203397395442
 30
0.0
 11
-52.88422147062323
 21
25.66329450730678
 31
0.0
  0
LINE
  5
75B57
330
1F
100
AcDbEntity
  8
0
100
AcDbLine
 10
-52.88404507815236
 20
25.66089979999617
 30
0.0
 11
-52.88414970821107
 21
25.66203397395442
 31
0.0
  0
LINE
  5
75B58
330
1F
100
AcDbEntity
  8
0
100
AcDbLine
 10
-52.8839147108127
 20
25.65996927751298
 30
0.0
 11
-52.88404507815236
 21
25.66089979999617
 31
0.0
  0
LINE
  5
75B59
330
1F
100
AcDbEntity
  8
0
100
AcDbLine
 10
-52.88376749051085
 20
25.65930582007431
 30
0.0
 11
-52.8839147108127
 21
25.65996927751298
 31
0.0
  0
LINE
  5
75B5A
330
1F
100
AcDbEntity
  8
0
100
AcDbLine
 10
-52.88361345006707
 20
25.65895464120819
 30
0.0
 11
-52.88376749051085
 21
25.65930582007431
 31
0.0
  0
LINE
  5
75B5B
330
1F
100
AcDbEntity
  8
0
100
AcDbLine
 10
-52.88346308708305
 20
25.65893967317399
 30
0.0
 11
-52.88361345006707
 21
25.65895464120819
 31
0.0
  0
LINE
  5
75B5C
330
1F
100
AcDbEntity
  8
0
100
AcDbLine
 10
-52.88387173818498
 20
25.66883663741391
 30
0.0
 11
-53.10467891715877
 21
25.662673132756
 31
0.0
  0
LINE
  5
75B5D
330
1F
100
AcDbEntity
  8
0
100
AcDbLine
 10
-53.00068796455032
 20
25.66557588584474
 30
0.0
 11
-53.10467891715873
 21
25.66267313275599
 31
0.0
  0
LINE
  5
75B5E
330
1F
100
AcDbEntity
  8
0
100
AcDbLine
 10
-53.10515307946369
 20
25.66173354214197
 30
0.0
 11
-53.10517003489868
 21
25.66234096956792
 31
0.0
  0
LINE
  5
75B5F
330
1F
100
AcDbEntity
  8
0
100
AcDbLine
 10
-53.32589474723469
 20
25.658939673174
 30
0.0
 11
-53.32574438425067
 21
25.65895464120819
 31
0.0
  0
LINE
  5
75B60
330
1F
100
AcDbEntity
  8
0
100
AcDbLine
 10
-53.32534965759737
 20
25.66851437456938
 30
0.0
 11
-53.32548609613276
 21
25.66883663741391
 31
0.0
  0
LINE
  5
75B61
330
1F
100
AcDbEntity
  8
0
100
AcDbLine
 10
-53.32523644157133
 20
25.66787684252642
 30
0.0
 11
-53.32534965759737
 21
25.66851437456938
 31
0.0
  0
LINE
  5
75B62
330
1F
100
AcDbEntity
  8
0
100
AcDbLine
 10
-53.32515307820998
 20
25.66696745774481
 30
0.0
 11
-53.32523644157133
 21
25.66787684252642
 31
0.0
  0
LINE
  5
75B63
330
1F
100
AcDbEntity
  8
0
100
AcDbLine
 10
-53.32510235941868
 20
25.66459549678841
 30
0.0
 11
-53.32510843061441
 21
25.66584828211613
 31
0.0
  0
LINE
  5
75B64
330
1F
100
AcDbEntity
  8
0
100
AcDbLine
 10
-53.32513636369451
 20
25.66329450730678
 30
0.0
 11
-53.32510235941868
 21
25.66459549678841
 31
0.0
  0
LINE
  5
75B65
330
1F
100
AcDbEntity
  8
0
100
AcDbLine
 10
-53.32520812610667
 20
25.66203397395442
 30
0.0
 11
-53.32513636369451
 21
25.66329450730678
 31
0.0
  0
LINE
  5
75B66
330
1F
100
AcDbEntity
  8
0
100
AcDbLine
 10
-53.32531275616537
 20
25.66089979999618
 30
0.0
 11
-53.32520812610667
 21
25.66203397395442
 31
0.0
  0
LINE
  5
75B67
330
1F
100
AcDbEntity
  8
0
100
AcDbLine
 10
-53.32544312350503
 20
25.65996927751298
 30
0.0
 11
-53.32531275616537
 21
25.66089979999618
 31
0.0
  0
LINE
  5
75B68
330
1F
100
AcDbEntity
  8
0
100
AcDbLine
 10
-53.32559034380689
 20
25.65930582007431
 30
0.0
 11
-53.32544312350503
 21
25.65996927751298
 31
0.0
  0
LINE
  5
75B69
330
1F
100
AcDbEntity
  8
0
100
AcDbLine
 10
-53.32548609613276
 20
25.66883663741391
 30
0.0
 11
-53.2167039183288
 21
25.66580014438543
 31
0.0
  0
LINE
  5
75B6A
330
1F
100
AcDbEntity
  8
0
100
AcDbLine
 10
-53.2067039183288
 20
25.66552100922838
 30
0.0
 11
-53.10467891715887
 21
25.66267313275599
 31
0.0
  0
LINE
  5
75B6B
330
1F
100
AcDbEntity
  8
0
100
AcDbLine
 10
-53.10420475485405
 20
25.66173354214197
 30
0.0
 11
-53.10418779941905
 21
25.66234096956792
 31
0.0
  0
LINE
  5
75B6C
330
1F
100
AcDbEntity
  8
0
100
AcDbLine
 10
-53.32574438425067
 20
25.65895464120819
 30
0.0
 11
-53.32559034380689
 21
25.65930582007431
 31
0.0
  0
LINE
  5
75B6D
330
1F
100
AcDbEntity
  8
0
100
AcDbLine
 10
-53.10445420995225
 20
25.65275854901793
 30
0.0
 11
-53.10444482981476
 21
25.65313287129655
 31
0.0
  0
LINE
  5
75B6E
330
1F
100
AcDbEntity
  8
0
100
AcDbLine
 10
-53.43638742819196
 20
25.65971045018494
 30
0.0
 11
-53.43638742819196
 21
25.66205894955452
 31
0.0
  0
LINE
  5
75B6F
330
1F
100
AcDbEntity
  8
0
100
AcDbLine
 10
-53.46597214102103
 20
25.65971045018494
 30
0.0
 11
-53.46597214102103
 21
25.66288900288438
 31
0.0
  0
LINE
  5
75B70
330
1F
100
AcDbEntity
  8
0
100
AcDbLine
 10
-53.46597214102103
 20
25.67275809683414
 30
0.0
 11
-53.46597214102103
 21
25.67451045018494
 31
0.0
  0
LINE
  5
75B71
330
1F
100
AcDbEntity
  8
0
100
AcDbLine
 10
-53.10490308956872
 20
25.65277766938076
 30
0.0
 11
-53.10445420995225
 21
25.65275854901793
 31
0.0
  0
LINE
  5
75B72
330
1F
100
AcDbEntity
  8
0
100
AcDbLine
 10
-52.88424940370333
 20
25.66584828211613
 30
0.0
 11
-52.88422653648701
 21
25.6664079035224
 31
0.0
  0
LINE
  5
75B73
330
1F
100
AcDbEntity
  8
0
100
AcDbLine
 10
-52.82103300795373
 20
25.66071045018496
 30
0.0
 11
-53.10445420995225
 21
25.65275854901793
 31
0.0
  0
LINE
  5
75B74
330
1F
100
AcDbEntity
  8
0
100
AcDbLine
 10
-53.46699334333245
 20
25.67278660218089
 30
0.0
 11
-53.46597214102103
 21
25.67275809683414
 31
0.0
  0
LINE
  5
75B75
330
1F
100
AcDbEntity
  8
0
100
AcDbLine
 10
-53.46597214102103
 20
25.67275809683414
 30
0.0
 11
-53.10467891715877
 21
25.662673132756
 31
0.0
  0
LINE
  5
75B76
330
1F
100
AcDbEntity
  8
0
100
AcDbLine
 10
-53.32510843061441
 20
25.66584828211613
 30
0.0
 11
-53.32513129783073
 21
25.66640790352233
 31
0.0
  0
LINE
  5
75B77
330
1F
100
AcDbEntity
  8
0
100
AcDbLine
 10
-52.77988301981877
 20
25.6717393281371
 30
0.0
 11
-52.77988301981877
 21
25.67451045018494
 31
0.0
  0
LINE
  5
75B78
330
1F
100
AcDbEntity
  8
0
100
AcDbLine
 10
-53.43638742819196
 20
25.67193228348797
 30
0.0
 11
-53.43638742819196
 21
25.67451045018494
 31
0.0
  0
LINE
  5
75B79
330
1F
100
AcDbEntity
  8
0
100
AcDbLine
 10
-53.2167039183288
 20
25.66572911035417
 30
0.0
 11
-53.2167039183288
 21
25.66580014438543
 31
0.0
  0
LINE
  5
75B7A
330
1F
100
AcDbEntity
  8
0
100
AcDbLine
 10
-53.2067039183288
 20
25.66544997519712
 30
0.0
 11
-53.2067039183288
 21
25.66552100922838
 31
0.0
  0
LINE
  5
75B7B
330
1F
100
AcDbEntity
  8
0
100
AcDbLine
 10
-52.77988301981877
 20
25.65971045018494
 30
0.0
 11
-52.77988301981877
 21
25.66183095700823
 31
0.0
  0
LINE
  5
75B7C
330
1F
100
AcDbEntity
  8
0
100
AcDbLine
 10
-52.77988301981877
 20
25.66183095700823
 30
0.0
 11
-52.77988301981877
 21
25.6717393281371
 31
0.0
  0
LINE
  5
75B7D
330
1F
100
AcDbEntity
  8
0
100
AcDbLine
 10
-53.00068796455032
 20
25.66529585568383
 30
0.0
 11
-53.00068796455032
 21
25.66557588584474
 31
0.0
  0
LINE
  5
75B7E
330
1F
100
AcDbEntity
  8
0
100
AcDbLine
 10
-52.99068796455031
 20
25.66557499084087
 30
0.0
 11
-52.99068796455031
 21
25.66585502100178
 31
0.0
  0
LINE
  5
75B7F
330
1F
100
AcDbEntity
  8
0
100
AcDbLine
 10
-53.46699334333245
 20
25.66071045018496
 30
0.0
 11
-53.46699334333245
 21
25.67278660218089
 31
0.0
  0
LINE
  5
75B80
330
1F
100
AcDbEntity
  8
0
100
AcDbLine
 10
-52.75208975863093
 20
25.66260676464088
 30
0.0
 11
-52.75208975863093
 21
25.67251513576974
 31
0.0
  0
LINE
  5
75B81
330
1F
100
AcDbEntity
  8
0
100
AcDbLine
 10
-52.75208975863093
 20
25.66071045018496
 30
0.0
 11
-52.75208975863093
 21
25.66260676464088
 31
0.0
  0
LINE
  5
75B82
330
1F
100
AcDbEntity
  8
0
100
AcDbLine
 10
-52.75208975863093
 20
25.65971045018495
 30
0.0
 11
-52.75208975863093
 21
25.66071045018496
 31
0.0
  0
LINE
  5
75B83
330
1F
100
AcDbEntity
  8
0
100
AcDbLine
 10
-52.75208975863093
 20
25.67251513576974
 30
0.0
 11
-52.75208975863093
 21
25.67262645018495
 31
0.0
  0
LINE
  5
75B84
330
1F
100
AcDbEntity
  8
0
100
AcDbLine
 10
-52.75208975863093
 20
25.67262645018495
 30
0.0
 11
-52.75208975863093
 21
25.67451045018494
 31
0.0
  0
LINE
  5
75B85
330
1F
100
AcDbEntity
  8
0
100
AcDbLine
 10
-52.88387173818498
 20
25.66883663741391
 30
0.0
 11
-52.77988301981877
 21
25.6717393281371
 31
0.0
  0
LINE
  5
75B86
330
1F
100
AcDbEntity
  8
0
100
AcDbLine
 10
-52.88346308708305
 20
25.65893967317399
 30
0.0
 11
-52.77988301981877
 21
25.66183095700823
 31
0.0
  0
LINE
  5
75B87
330
1F
100
AcDbEntity
  8
0
100
AcDbLine
 10
-53.10490308956872
 20
25.65277766938076
 30
0.0
 11
-53.10515234113823
 21
25.66170709167733
 31
0.0
  0
LINE
  5
75B88
330
1F
100
AcDbEntity
  8
0
100
AcDbLine
 10
-53.32548609613276
 20
25.66883663741391
 30
0.0
 11
-53.43638742819196
 21
25.67193228348797
 31
0.0
  0
LINE
  5
75B89
330
1F
100
AcDbEntity
  8
0
100
AcDbLine
 10
-53.1042054931795
 20
25.66170709167733
 30
0.0
 11
-53.10444482981476
 21
25.65313287129655
 31
0.0
  0
LINE
  5
75B8A
330
1F
100
AcDbEntity
  8
0
100
AcDbLine
 10
-52.76258248346042
 20
25.65971045018495
 30
0.0
 11
-52.77258248346042
 21
25.65971045018494
 31
0.0
  0
LINE
  5
75B8B
330
1F
100
AcDbEntity
  8
0
100
AcDbLine
 10
-52.77258248346042
 20
25.65971045018494
 30
0.0
 11
-52.77988301981877
 21
25.65971045018494
 31
0.0
  0
LINE
  5
75B8C
330
1F
100
AcDbEntity
  8
0
100
AcDbLine
 10
-52.75208975863093
 20
25.65971045018495
 30
0.0
 11
-52.76258248346042
 21
25.65971045018495
 31
0.0
  0
LINE
  5
75B8D
330
1F
100
AcDbEntity
  8
0
100
AcDbLine
 10
-52.77988301981877
 20
25.67451045018494
 30
0.0
 11
-52.77258248346042
 21
25.67451045018494
 31
0.0
  0
LINE
  5
75B8E
330
1F
100
AcDbEntity
  8
0
100
AcDbLine
 10
-52.75208975863093
 20
25.67451045018494
 30
0.0
 11
-52.76258248346042
 21
25.67451045018494
 31
0.0
  0
LINE
  5
75B8F
330
1F
100
AcDbEntity
  8
0
100
AcDbLine
 10
-52.77258248346042
 20
25.67451045018494
 30
0.0
 11
-52.76258248346042
 21
25.67451045018494
 31
0.0
  0
LINE
  5
75B90
330
1F
100
AcDbEntity
  8
0
100
AcDbLine
 10
-53.45368796455031
 20
25.65971045018494
 30
0.0
 11
-53.44368796455031
 21
25.65971045018494
 31
0.0
  0
LINE
  5
75B91
330
1F
100
AcDbEntity
  8
0
100
AcDbLine
 10
-53.44368796455031
 20
25.67451045018494
 30
0.0
 11
-53.43638742819196
 21
25.67451045018494
 31
0.0
  0
LINE
  5
75B92
330
1F
100
AcDbEntity
  8
0
100
AcDbLine
 10
-53.45368796455031
 20
25.65971045018494
 30
0.0
 11
-53.46597214102103
 21
25.65971045018494
 31
0.0
  0
LINE
  5
75B93
330
1F
100
AcDbEntity
  8
0
100
AcDbLine
 10
-53.43638742819196
 20
25.65971045018494
 30
0.0
 11
-53.44368796455031
 21
25.65971045018494
 31
0.0
  0
LINE
  5
75B94
330
1F
100
AcDbEntity
  8
0
100
AcDbLine
 10
-53.45368796455031
 20
25.67451045018494
 30
0.0
 11
-53.46597214102103
 21
25.67451045018494
 31
0.0
  0
LINE
  5
75B95
330
1F
100
AcDbEntity
  8
0
100
AcDbLine
 10
-53.44368796455031
 20
25.67451045018494
 30
0.0
 11
-53.45368796455031
 21
25.67451045018494
 31
0.0
  0
LINE
  5
75B96
330
1F
100
AcDbEntity
  8
0
100
AcDbLine
 10
-53.46699334333245
 20
25.66291765458649
 30
0.0
 11
-53.10490308956872
 21
25.65275854901793
 31
0.0
  0
LINE
  5
75B97
330
1F
100
AcDbEntity
  8
0
100
AcDbLine
 10
-52.88420475610775
 20
25.96696745774481
 30
0.0
 11
-52.88422653648701
 21
25.9664079035224
 31
0.0
  0
LINE
  5
75B98
330
1F
100
AcDbEntity
  8
0
100
AcDbLine
 10
-53.32515307820998
 20
25.96696745774481
 30
0.0
 11
-53.32513129783073
 21
25.96640790352233
 31
0.0
  0
LINE
  5
75B99
330
1F
100
AcDbEntity
  8
0
100
AcDbLine
 10
-52.88400817672036
 20
25.96851437456938
 30
0.0
 11
-52.88387173818498
 21
25.96883663741391
 31
0.0
  0
LINE
  5
75B9A
330
1F
100
AcDbEntity
  8
0
100
AcDbLine
 10
-52.8841213927464
 20
25.96787684252642
 30
0.0
 11
-52.88400817672036
 21
25.96851437456938
 31
0.0
  0
LINE
  5
75B9B
330
1F
100
AcDbEntity
  8
0
100
AcDbLine
 10
-52.88420475610775
 20
25.96696745774481
 30
0.0
 11
-52.8841213927464
 21
25.96787684252642
 31
0.0
  0
LINE
  5
75B9C
330
1F
100
AcDbEntity
  8
0
100
AcDbLine
 10
-52.88425547489905
 20
25.96459549678841
 30
0.0
 11
-52.88424940370333
 21
25.96584828211613
 31
0.0
  0
LINE
  5
75B9D
330
1F
100
AcDbEntity
  8
0
100
AcDbLine
 10
-52.88422147062323
 20
25.96329450730678
 30
0.0
 11
-52.88425547489905
 21
25.96459549678841
 31
0.0
  0
LINE
  5
75B9E
330
1F
100
AcDbEntity
  8
0
100
AcDbLine
 10
-52.88414970821107
 20
25.96203397395442
 30
0.0
 11
-52.88422147062323
 21
25.96329450730678
 31
0.0
  0
LINE
  5
75B9F
330
1F
100
AcDbEntity
  8
0
100
AcDbLine
 10
-52.88404507815236
 20
25.96089979999617
 30
0.0
 11
-52.88414970821107
 21
25.96203397395442
 31
0.0
  0
LINE
  5
75BA0
330
1F
100
AcDbEntity
  8
0
100
AcDbLine
 10
-52.8839147108127
 20
25.95996927751299
 30
0.0
 11
-52.88404507815236
 21
25.96089979999617
 31
0.0
  0
LINE
  5
75BA1
330
1F
100
AcDbEntity
  8
0
100
AcDbLine
 10
-52.88376749051085
 20
25.95930582007431
 30
0.0
 11
-52.8839147108127
 21
25.95996927751299
 31
0.0
  0
LINE
  5
75BA2
330
1F
100
AcDbEntity
  8
0
100
AcDbLine
 10
-52.88361345006707
 20
25.95895464120819
 30
0.0
 11
-52.88376749051085
 21
25.95930582007431
 31
0.0
  0
LINE
  5
75BA3
330
1F
100
AcDbEntity
  8
0
100
AcDbLine
 10
-52.88346308708305
 20
25.958939673174
 30
0.0
 11
-52.88361345006707
 21
25.95895464120819
 31
0.0
  0
LINE
  5
75BA4
330
1F
100
AcDbEntity
  8
0
100
AcDbLine
 10
-52.88387173818498
 20
25.96883663741391
 30
0.0
 11
-53.10467891715877
 21
25.962673132756
 31
0.0
  0
LINE
  5
75BA5
330
1F
100
AcDbEntity
  8
0
100
AcDbLine
 10
-53.00068796455032
 20
25.96557588584474
 30
0.0
 11
-53.10467891715873
 21
25.962673132756
 31
0.0
  0
LINE
  5
75BA6
330
1F
100
AcDbEntity
  8
0
100
AcDbLine
 10
-53.10515307946369
 20
25.96173354214196
 30
0.0
 11
-53.10517003489868
 21
25.96234096956792
 31
0.0
  0
LINE
  5
75BA7
330
1F
100
AcDbEntity
  8
0
100
AcDbLine
 10
-53.32589474723469
 20
25.958939673174
 30
0.0
 11
-53.32574438425067
 21
25.95895464120819
 31
0.0
  0
LINE
  5
75BA8
330
1F
100
AcDbEntity
  8
0
100
AcDbLine
 10
-53.32534965759737
 20
25.96851437456938
 30
0.0
 11
-53.32548609613276
 21
25.96883663741391
 31
0.0
  0
LINE
  5
75BA9
330
1F
100
AcDbEntity
  8
0
100
AcDbLine
 10
-53.32523644157133
 20
25.96787684252642
 30
0.0
 11
-53.32534965759737
 21
25.96851437456938
 31
0.0
  0
LINE
  5
75BAA
330
1F
100
AcDbEntity
  8
0
100
AcDbLine
 10
-53.32515307820998
 20
25.96696745774481
 30
0.0
 11
-53.32523644157133
 21
25.96787684252642
 31
0.0
  0
LINE
  5
75BAB
330
1F
100
AcDbEntity
  8
0
100
AcDbLine
 10
-53.32510235941868
 20
25.96459549678841
 30
0.0
 11
-53.32510843061441
 21
25.96584828211613
 31
0.0
  0
LINE
  5
75BAC
330
1F
100
AcDbEntity
  8
0
100
AcDbLine
 10
-53.32513636369451
 20
25.96329450730678
 30
0.0
 11
-53.32510235941868
 21
25.96459549678841
 31
0.0
  0
LINE
  5
75BAD
330
1F
100
AcDbEntity
  8
0
100
AcDbLine
 10
-53.32520812610667
 20
25.96203397395442
 30
0.0
 11
-53.32513636369451
 21
25.96329450730678
 31
0.0
  0
LINE
  5
75BAE
330
1F
100
AcDbEntity
  8
0
100
AcDbLine
 10
-53.32531275616537
 20
25.96089979999617
 30
0.0
 11
-53.32520812610667
 21
25.96203397395442
 31
0.0
  0
LINE
  5
75BAF
330
1F
100
AcDbEntity
  8
0
100
AcDbLine
 10
-53.32544312350503
 20
25.95996927751299
 30
0.0
 11
-53.32531275616537
 21
25.96089979999617
 31
0.0
  0
LINE
  5
75BB0
330
1F
100
AcDbEntity
  8
0
100
AcDbLine
 10
-53.32559034380689
 20
25.95930582007431
 30
0.0
 11
-53.32544312350503
 21
25.95996927751299
 31
0.0
  0
LINE
  5
75BB1
330
1F
100
AcDbEntity
  8
0
100
AcDbLine
 10
-53.32548609613276
 20
25.96883663741391
 30
0.0
 11
-53.2167039183288
 21
25.96580014438542
 31
0.0
  0
LINE
  5
75BB2
330
1F
100
AcDbEntity
  8
0
100
AcDbLine
 10
-53.2067039183288
 20
25.96552100922839
 30
0.0
 11
-53.10467891715887
 21
25.96267313275599
 31
0.0
  0
LINE
  5
75BB3
330
1F
100
AcDbEntity
  8
0
100
AcDbLine
 10
-53.10420475485405
 20
25.96173354214196
 30
0.0
 11
-53.10418779941905
 21
25.96234096956792
 31
0.0
  0
LINE
  5
75BB4
330
1F
100
AcDbEntity
  8
0
100
AcDbLine
 10
-53.32574438425067
 20
25.95895464120819
 30
0.0
 11
-53.32559034380689
 21
25.95930582007431
 31
0.0
  0
LINE
  5
75BB5
330
1F
100
AcDbEntity
  8
0
100
AcDbLine
 10
-53.10445420995225
 20
25.95275854901793
 30
0.0
 11
-53.10444482981476
 21
25.95313287129655
 31
0.0
  0
LINE
  5
75BB6
330
1F
100
AcDbEntity
  8
0
100
AcDbLine
 10
-53.43638742819196
 20
25.95971045018495
 30
0.0
 11
-53.43638742819196
 21
25.96205894955451
 31
0.0
  0
LINE
  5
75BB7
330
1F
100
AcDbEntity
  8
0
100
AcDbLine
 10
-53.46597214102103
 20
25.95971045018495
 30
0.0
 11
-53.46597214102103
 21
25.96288900288437
 31
0.0
  0
LINE
  5
75BB8
330
1F
100
AcDbEntity
  8
0
100
AcDbLine
 10
-53.46597214102103
 20
25.97275809683413
 30
0.0
 11
-53.46597214102103
 21
25.97451045018495
 31
0.0
  0
LINE
  5
75BB9
330
1F
100
AcDbEntity
  8
0
100
AcDbLine
 10
-53.10490308956872
 20
25.95277766938075
 30
0.0
 11
-53.10445420995225
 21
25.95275854901793
 31
0.0
  0
LINE
  5
75BBA
330
1F
100
AcDbEntity
  8
0
100
AcDbLine
 10
-52.88424940370333
 20
25.96584828211613
 30
0.0
 11
-52.88422653648701
 21
25.9664079035224
 31
0.0
  0
LINE
  5
75BBB
330
1F
100
AcDbEntity
  8
0
100
AcDbLine
 10
-52.82103300795373
 20
25.96071045018495
 30
0.0
 11
-53.10445420995225
 21
25.95275854901793
 31
0.0
  0
LINE
  5
75BBC
330
1F
100
AcDbEntity
  8
0
100
AcDbLine
 10
-53.46699334333245
 20
25.97278660218089
 30
0.0
 11
-53.46597214102103
 21
25.97275809683413
 31
0.0
  0
LINE
  5
75BBD
330
1F
100
AcDbEntity
  8
0
100
AcDbLine
 10
-53.46597214102103
 20
25.97275809683413
 30
0.0
 11
-53.10467891715877
 21
25.962673132756
 31
0.0
  0
LINE
  5
75BBE
330
1F
100
AcDbEntity
  8
0
100
AcDbLine
 10
-53.32510843061441
 20
25.96584828211613
 30
0.0
 11
-53.32513129783073
 21
25.96640790352233
 31
0.0
  0
LINE
  5
75BBF
330
1F
100
AcDbEntity
  8
0
100
AcDbLine
 10
-52.77988301981877
 20
25.9717393281371
 30
0.0
 11
-52.77988301981877
 21
25.97451045018495
 31
0.0
  0
LINE
  5
75BC0
330
1F
100
AcDbEntity
  8
0
100
AcDbLine
 10
-53.43638742819196
 20
25.97193228348797
 30
0.0
 11
-53.43638742819196
 21
25.97451045018495
 31
0.0
  0
LINE
  5
75BC1
330
1F
100
AcDbEntity
  8
0
100
AcDbLine
 10
-53.2167039183288
 20
25.96572911035416
 30
0.0
 11
-53.2167039183288
 21
25.96580014438542
 31
0.0
  0
LINE
  5
75BC2
330
1F
100
AcDbEntity
  8
0
100
AcDbLine
 10
-53.2067039183288
 20
25.96544997519712
 30
0.0
 11
-53.2067039183288
 21
25.96552100922839
 31
0.0
  0
LINE
  5
75BC3
330
1F
100
AcDbEntity
  8
0
100
AcDbLine
 10
-52.77988301981877
 20
25.95971045018495
 30
0.0
 11
-52.77988301981877
 21
25.96183095700824
 31
0.0
  0
LINE
  5
75BC4
330
1F
100
AcDbEntity
  8
0
100
AcDbLine
 10
-52.77988301981877
 20
25.96183095700824
 30
0.0
 11
-52.77988301981877
 21
25.9717393281371
 31
0.0
  0
LINE
  5
75BC5
330
1F
100
AcDbEntity
  8
0
100
AcDbLine
 10
-53.00068796455032
 20
25.96529585568382
 30
0.0
 11
-53.00068796455032
 21
25.96557588584474
 31
0.0
  0
LINE
  5
75BC6
330
1F
100
AcDbEntity
  8
0
100
AcDbLine
 10
-52.99068796455031
 20
25.96557499084087
 30
0.0
 11
-52.99068796455031
 21
25.96585502100178
 31
0.0
  0
LINE
  5
75BC7
330
1F
100
AcDbEntity
  8
0
100
AcDbLine
 10
-53.46699334333245
 20
25.96071045018495
 30
0.0
 11
-53.46699334333245
 21
25.97278660218089
 31
0.0
  0
LINE
  5
75BC8
330
1F
100
AcDbEntity
  8
0
100
AcDbLine
 10
-52.75208975863093
 20
25.96260676464088
 30
0.0
 11
-52.75208975863093
 21
25.97251513576974
 31
0.0
  0
LINE
  5
75BC9
330
1F
100
AcDbEntity
  8
0
100
AcDbLine
 10
-52.75208975863093
 20
25.96071045018495
 30
0.0
 11
-52.75208975863093
 21
25.96260676464088
 31
0.0
  0
LINE
  5
75BCA
330
1F
100
AcDbEntity
  8
0
100
AcDbLine
 10
-52.75208975863093
 20
25.95971045018495
 30
0.0
 11
-52.75208975863093
 21
25.96071045018495
 31
0.0
  0
LINE
  5
75BCB
330
1F
100
AcDbEntity
  8
0
100
AcDbLine
 10
-52.75208975863093
 20
25.97251513576974
 30
0.0
 11
-52.75208975863093
 21
25.97262645018495
 31
0.0
  0
LINE
  5
75BCC
330
1F
100
AcDbEntity
  8
0
100
AcDbLine
 10
-52.75208975863093
 20
25.97262645018495
 30
0.0
 11
-52.75208975863093
 21
25.97451045018495
 31
0.0
  0
LINE
  5
75BCD
330
1F
100
AcDbEntity
  8
0
100
AcDbLine
 10
-52.88387173818498
 20
25.96883663741391
 30
0.0
 11
-52.77988301981877
 21
25.9717393281371
 31
0.0
  0
LINE
  5
75BCE
330
1F
100
AcDbEntity
  8
0
100
AcDbLine
 10
-52.88346308708305
 20
25.958939673174
 30
0.0
 11
-52.77988301981877
 21
25.96183095700824
 31
0.0
  0
LINE
  5
75BCF
330
1F
100
AcDbEntity
  8
0
100
AcDbLine
 10
-53.10490308956872
 20
25.95277766938075
 30
0.0
 11
-53.10515234113823
 21
25.96170709167734
 31
0.0
  0
LINE
  5
75BD0
330
1F
100
AcDbEntity
  8
0
100
AcDbLine
 10
-53.32548609613276
 20
25.96883663741391
 30
0.0
 11
-53.43638742819196
 21
25.97193228348797
 31
0.0
  0
LINE
  5
75BD1
330
1F
100
AcDbEntity
  8
0
100
AcDbLine
 10
-53.1042054931795
 20
25.96170709167734
 30
0.0
 11
-53.10444482981476
 21
25.95313287129655
 31
0.0
  0
LINE
  5
75BD2
330
1F
100
AcDbEntity
  8
0
100
AcDbLine
 10
-52.76258248346042
 20
25.95971045018495
 30
0.0
 11
-52.77258248346042
 21
25.95971045018495
 31
0.0
  0
LINE
  5
75BD3
330
1F
100
AcDbEntity
  8
0
100
AcDbLine
 10
-52.77258248346042
 20
25.95971045018495
 30
0.0
 11
-52.77988301981877
 21
25.95971045018495
 31
0.0
  0
LINE
  5
75BD4
330
1F
100
AcDbEntity
  8
0
100
AcDbLine
 10
-52.75208975863093
 20
25.95971045018495
 30
0.0
 11
-52.76258248346042
 21
25.95971045018495
 31
0.0
  0
LINE
  5
75BD5
330
1F
100
AcDbEntity
  8
0
100
AcDbLine
 10
-52.77988301981877
 20
25.97451045018495
 30
0.0
 11
-52.77258248346042
 21
25.97451045018495
 31
0.0
  0
LINE
  5
75BD6
330
1F
100
AcDbEntity
  8
0
100
AcDbLine
 10
-52.75208975863093
 20
25.97451045018495
 30
0.0
 11
-52.76258248346042
 21
25.97451045018495
 31
0.0
  0
LINE
  5
75BD7
330
1F
100
AcDbEntity
  8
0
100
AcDbLine
 10
-52.77258248346042
 20
25.97451045018495
 30
0.0
 11
-52.76258248346042
 21
25.97451045018495
 31
0.0
  0
LINE
  5
75BD8
330
1F
100
AcDbEntity
  8
0
100
AcDbLine
 10
-53.45368796455031
 20
25.95971045018495
 30
0.0
 11
-53.44368796455031
 21
25.95971045018495
 31
0.0
  0
LINE
  5
75BD9
330
1F
100
AcDbEntity
  8
0
100
AcDbLine
 10
-53.44368796455031
 20
25.97451045018495
 30
0.0
 11
-53.43638742819196
 21
25.97451045018495
 31
0.0
  0
LINE
  5
75BDA
330
1F
100
AcDbEntity
  8
0
100
AcDbLine
 10
-53.45368796455031
 20
25.95971045018495
 30
0.0
 11
-53.46597214102103
 21
25.95971045018495
 31
0.0
  0
LINE
  5
75BDB
330
1F
100
AcDbEntity
  8
0
100
AcDbLine
 10
-53.43638742819196
 20
25.95971045018495
 30
0.0
 11
-53.44368796455031
 21
25.95971045018495
 31
0.0
  0
LINE
  5
75BDC
330
1F
100
AcDbEntity
  8
0
100
AcDbLine
 10
-53.45368796455031
 20
25.97451045018495
 30
0.0
 11
-53.46597214102103
 21
25.97451045018495
 31
0.0
  0
LINE
  5
75BDD
330
1F
100
AcDbEntity
  8
0
100
AcDbLine
 10
-53.44368796455031
 20
25.97451045018495
 30
0.0
 11
-53.45368796455031
 21
25.97451045018495
 31
0.0
  0
LINE
  5
75BDE
330
1F
100
AcDbEntity
  8
0
100
AcDbLine
 10
-53.46699334333245
 20
25.96291765458649
 30
0.0
 11
-53.10490308956872
 21
25.95275854901793
 31
0.0
  0
LINE
  5
75BDF
330
1F
100
AcDbEntity
  8
0
100
AcDbLine
 10
-52.88420475610775
 20
26.26696745774482
 30
0.0
 11
-52.88422653648701
 21
26.2664079035224
 31
0.0
  0
LINE
  5
75BE0
330
1F
100
AcDbEntity
  8
0
100
AcDbLine
 10
-53.32515307820998
 20
26.26696745774482
 30
0.0
 11
-53.32513129783073
 21
26.26640790352233
 31
0.0
  0
LINE
  5
75BE1
330
1F
100
AcDbEntity
  8
0
100
AcDbLine
 10
-52.88400817672036
 20
26.26851437456938
 30
0.0
 11
-52.88387173818498
 21
26.2688366374139
 31
0.0
  0
LINE
  5
75BE2
330
1F
100
AcDbEntity
  8
0
100
AcDbLine
 10
-52.8841213927464
 20
26.26787684252642
 30
0.0
 11
-52.88400817672036
 21
26.26851437456938
 31
0.0
  0
LINE
  5
75BE3
330
1F
100
AcDbEntity
  8
0
100
AcDbLine
 10
-52.88420475610775
 20
26.26696745774482
 30
0.0
 11
-52.8841213927464
 21
26.26787684252642
 31
0.0
  0
LINE
  5
75BE4
330
1F
100
AcDbEntity
  8
0
100
AcDbLine
 10
-52.88425547489905
 20
26.26459549678841
 30
0.0
 11
-52.88424940370333
 21
26.26584828211613
 31
0.0
  0
LINE
  5
75BE5
330
1F
100
AcDbEntity
  8
0
100
AcDbLine
 10
-52.88422147062323
 20
26.26329450730678
 30
0.0
 11
-52.88425547489905
 21
26.26459549678841
 31
0.0
  0
LINE
  5
75BE6
330
1F
100
AcDbEntity
  8
0
100
AcDbLine
 10
-52.88414970821107
 20
26.26203397395442
 30
0.0
 11
-52.88422147062323
 21
26.26329450730678
 31
0.0
  0
LINE
  5
75BE7
330
1F
100
AcDbEntity
  8
0
100
AcDbLine
 10
-52.88404507815236
 20
26.26089979999617
 30
0.0
 11
-52.88414970821107
 21
26.26203397395442
 31
0.0
  0
LINE
  5
75BE8
330
1F
100
AcDbEntity
  8
0
100
AcDbLine
 10
-52.8839147108127
 20
26.25996927751299
 30
0.0
 11
-52.88404507815236
 21
26.26089979999617
 31
0.0
  0
LINE
  5
75BE9
330
1F
100
AcDbEntity
  8
0
100
AcDbLine
 10
-52.88376749051085
 20
26.25930582007431
 30
0.0
 11
-52.8839147108127
 21
26.25996927751299
 31
0.0
  0
LINE
  5
75BEA
330
1F
100
AcDbEntity
  8
0
100
AcDbLine
 10
-52.88361345006707
 20
26.2589546412082
 30
0.0
 11
-52.88376749051085
 21
26.25930582007431
 31
0.0
  0
LINE
  5
75BEB
330
1F
100
AcDbEntity
  8
0
100
AcDbLine
 10
-52.88346308708305
 20
26.258939673174
 30
0.0
 11
-52.88361345006707
 21
26.2589546412082
 31
0.0
  0
LINE
  5
75BEC
330
1F
100
AcDbEntity
  8
0
100
AcDbLine
 10
-52.88387173818498
 20
26.2688366374139
 30
0.0
 11
-53.10467891715877
 21
26.262673132756
 31
0.0
  0
LINE
  5
75BED
330
1F
100
AcDbEntity
  8
0
100
AcDbLine
 10
-53.00068796455032
 20
26.26557588584474
 30
0.0
 11
-53.10467891715873
 21
26.262673132756
 31
0.0
  0
LINE
  5
75BEE
330
1F
100
AcDbEntity
  8
0
100
AcDbLine
 10
-53.10515307946369
 20
26.26173354214196
 30
0.0
 11
-53.10517003489868
 21
26.26234096956792
 31
0.0
  0
LINE
  5
75BEF
330
1F
100
AcDbEntity
  8
0
100
AcDbLine
 10
-53.32589474723469
 20
26.258939673174
 30
0.0
 11
-53.32574438425067
 21
26.2589546412082
 31
0.0
  0
LINE
  5
75BF0
330
1F
100
AcDbEntity
  8
0
100
AcDbLine
 10
-53.32534965759737
 20
26.26851437456938
 30
0.0
 11
-53.32548609613276
 21
26.2688366374139
 31
0.0
  0
LINE
  5
75BF1
330
1F
100
AcDbEntity
  8
0
100
AcDbLine
 10
-53.32523644157133
 20
26.26787684252642
 30
0.0
 11
-53.32534965759737
 21
26.26851437456938
 31
0.0
  0
LINE
  5
75BF2
330
1F
100
AcDbEntity
  8
0
100
AcDbLine
 10
-53.32515307820998
 20
26.26696745774482
 30
0.0
 11
-53.32523644157133
 21
26.26787684252642
 31
0.0
  0
LINE
  5
75BF3
330
1F
100
AcDbEntity
  8
0
100
AcDbLine
 10
-53.32510235941868
 20
26.26459549678841
 30
0.0
 11
-53.32510843061441
 21
26.26584828211613
 31
0.0
  0
LINE
  5
75BF4
330
1F
100
AcDbEntity
  8
0
100
AcDbLine
 10
-53.32513636369451
 20
26.26329450730678
 30
0.0
 11
-53.32510235941868
 21
26.26459549678841
 31
0.0
  0
LINE
  5
75BF5
330
1F
100
AcDbEntity
  8
0
100
AcDbLine
 10
-53.32520812610667
 20
26.26203397395442
 30
0.0
 11
-53.32513636369451
 21
26.26329450730678
 31
0.0
  0
LINE
  5
75BF6
330
1F
100
AcDbEntity
  8
0
100
AcDbLine
 10
-53.32531275616537
 20
26.26089979999617
 30
0.0
 11
-53.32520812610667
 21
26.26203397395442
 31
0.0
  0
LINE
  5
75BF7
330
1F
100
AcDbEntity
  8
0
100
AcDbLine
 10
-53.32544312350503
 20
26.25996927751299
 30
0.0
 11
-53.32531275616537
 21
26.26089979999617
 31
0.0
  0
LINE
  5
75BF8
330
1F
100
AcDbEntity
  8
0
100
AcDbLine
 10
-53.32559034380689
 20
26.25930582007431
 30
0.0
 11
-53.32544312350503
 21
26.25996927751299
 31
0.0
  0
LINE
  5
75BF9
330
1F
100
AcDbEntity
  8
0
100
AcDbLine
 10
-53.32548609613276
 20
26.2688366374139
 30
0.0
 11
-53.2167039183288
 21
26.26580014438543
 31
0.0
  0
LINE
  5
75BFA
330
1F
100
AcDbEntity
  8
0
100
AcDbLine
 10
-53.2067039183288
 20
26.26552100922838
 30
0.0
 11
-53.10467891715887
 21
26.262673132756
 31
0.0
  0
LINE
  5
75BFB
330
1F
100
AcDbEntity
  8
0
100
AcDbLine
 10
-53.10420475485405
 20
26.26173354214196
 30
0.0
 11
-53.10418779941905
 21
26.26234096956792
 31
0.0
  0
LINE
  5
75BFC
330
1F
100
AcDbEntity
  8
0
100
AcDbLine
 10
-53.32574438425067
 20
26.2589546412082
 30
0.0
 11
-53.32559034380689
 21
26.25930582007431
 31
0.0
  0
LINE
  5
75BFD
330
1F
100
AcDbEntity
  8
0
100
AcDbLine
 10
-53.10445420995225
 20
26.25275854901794
 30
0.0
 11
-53.10444482981476
 21
26.25313287129655
 31
0.0
  0
LINE
  5
75BFE
330
1F
100
AcDbEntity
  8
0
100
AcDbLine
 10
-53.43638742819196
 20
26.25971045018494
 30
0.0
 11
-53.43638742819196
 21
26.26205894955452
 31
0.0
  0
LINE
  5
75BFF
330
1F
100
AcDbEntity
  8
0
100
AcDbLine
 10
-53.46597214102103
 20
26.25971045018494
 30
0.0
 11
-53.46597214102103
 21
26.26288900288438
 31
0.0
  0
LINE
  5
75C00
330
1F
100
AcDbEntity
  8
0
100
AcDbLine
 10
-53.46597214102103
 20
26.27275809683414
 30
0.0
 11
-53.46597214102103
 21
26.27451045018495
 31
0.0
  0
LINE
  5
75C01
330
1F
100
AcDbEntity
  8
0
100
AcDbLine
 10
-53.10490308956872
 20
26.25277766938075
 30
0.0
 11
-53.10445420995225
 21
26.25275854901794
 31
0.0
  0
LINE
  5
75C02
330
1F
100
AcDbEntity
  8
0
100
AcDbLine
 10
-52.88424940370333
 20
26.26584828211613
 30
0.0
 11
-52.88422653648701
 21
26.2664079035224
 31
0.0
  0
LINE
  5
75C03
330
1F
100
AcDbEntity
  8
0
100
AcDbLine
 10
-52.82103300795373
 20
26.26071045018495
 30
0.0
 11
-53.10445420995225
 21
26.25275854901794
 31
0.0
  0
LINE
  5
75C04
330
1F
100
AcDbEntity
  8
0
100
AcDbLine
 10
-53.46699334333245
 20
26.27278660218089
 30
0.0
 11
-53.46597214102103
 21
26.27275809683414
 31
0.0
  0
LINE
  5
75C05
330
1F
100
AcDbEntity
  8
0
100
AcDbLine
 10
-53.46597214102103
 20
26.27275809683414
 30
0.0
 11
-53.10467891715877
 21
26.262673132756
 31
0.0
  0
LINE
  5
75C06
330
1F
100
AcDbEntity
  8
0
100
AcDbLine
 10
-53.32510843061441
 20
26.26584828211613
 30
0.0
 11
-53.32513129783073
 21
26.26640790352233
 31
0.0
  0
LINE
  5
75C07
330
1F
100
AcDbEntity
  8
0
100
AcDbLine
 10
-52.77988301981877
 20
26.27173932813709
 30
0.0
 11
-52.77988301981877
 21
26.27451045018495
 31
0.0
  0
LINE
  5
75C08
330
1F
100
AcDbEntity
  8
0
100
AcDbLine
 10
-53.43638742819196
 20
26.27193228348798
 30
0.0
 11
-53.43638742819196
 21
26.27451045018495
 31
0.0
  0
LINE
  5
75C09
330
1F
100
AcDbEntity
  8
0
100
AcDbLine
 10
-53.2167039183288
 20
26.26572911035417
 30
0.0
 11
-53.2167039183288
 21
26.26580014438543
 31
0.0
  0
LINE
  5
75C0A
330
1F
100
AcDbEntity
  8
0
100
AcDbLine
 10
-53.2067039183288
 20
26.26544997519713
 30
0.0
 11
-53.2067039183288
 21
26.26552100922838
 31
0.0
  0
LINE
  5
75C0B
330
1F
100
AcDbEntity
  8
0
100
AcDbLine
 10
-52.77988301981877
 20
26.25971045018494
 30
0.0
 11
-52.77988301981877
 21
26.26183095700823
 31
0.0
  0
LINE
  5
75C0C
330
1F
100
AcDbEntity
  8
0
100
AcDbLine
 10
-52.77988301981877
 20
26.26183095700823
 30
0.0
 11
-52.77988301981877
 21
26.27173932813709
 31
0.0
  0
LINE
  5
75C0D
330
1F
100
AcDbEntity
  8
0
100
AcDbLine
 10
-53.00068796455032
 20
26.26529585568382
 30
0.0
 11
-53.00068796455032
 21
26.26557588584474
 31
0.0
  0
LINE
  5
75C0E
330
1F
100
AcDbEntity
  8
0
100
AcDbLine
 10
-52.99068796455031
 20
26.26557499084086
 30
0.0
 11
-52.99068796455031
 21
26.26585502100178
 31
0.0
  0
LINE
  5
75C0F
330
1F
100
AcDbEntity
  8
0
100
AcDbLine
 10
-53.46699334333245
 20
26.26071045018495
 30
0.0
 11
-53.46699334333245
 21
26.27278660218089
 31
0.0
  0
LINE
  5
75C10
330
1F
100
AcDbEntity
  8
0
100
AcDbLine
 10
-52.75208975863093
 20
26.26260676464088
 30
0.0
 11
-52.75208975863093
 21
26.27251513576974
 31
0.0
  0
LINE
  5
75C11
330
1F
100
AcDbEntity
  8
0
100
AcDbLine
 10
-52.75208975863093
 20
26.26071045018495
 30
0.0
 11
-52.75208975863093
 21
26.26260676464088
 31
0.0
  0
LINE
  5
75C12
330
1F
100
AcDbEntity
  8
0
100
AcDbLine
 10
-52.75208975863093
 20
26.25971045018495
 30
0.0
 11
-52.75208975863093
 21
26.26071045018495
 31
0.0
  0
LINE
  5
75C13
330
1F
100
AcDbEntity
  8
0
100
AcDbLine
 10
-52.75208975863093
 20
26.27251513576974
 30
0.0
 11
-52.75208975863093
 21
26.27262645018495
 31
0.0
  0
LINE
  5
75C14
330
1F
100
AcDbEntity
  8
0
100
AcDbLine
 10
-52.75208975863093
 20
26.27262645018495
 30
0.0
 11
-52.75208975863093
 21
26.27451045018495
 31
0.0
  0
LINE
  5
75C15
330
1F
100
AcDbEntity
  8
0
100
AcDbLine
 10
-52.88387173818498
 20
26.2688366374139
 30
0.0
 11
-52.77988301981877
 21
26.27173932813709
 31
0.0
  0
LINE
  5
75C16
330
1F
100
AcDbEntity
  8
0
100
AcDbLine
 10
-52.88346308708305
 20
26.258939673174
 30
0.0
 11
-52.77988301981877
 21
26.26183095700823
 31
0.0
  0
LINE
  5
75C17
330
1F
100
AcDbEntity
  8
0
100
AcDbLine
 10
-53.10490308956872
 20
26.25277766938075
 30
0.0
 11
-53.10515234113823
 21
26.26170709167734
 31
0.0
  0
LINE
  5
75C18
330
1F
100
AcDbEntity
  8
0
100
AcDbLine
 10
-53.32548609613276
 20
26.2688366374139
 30
0.0
 11
-53.43638742819196
 21
26.27193228348798
 31
0.0
  0
LINE
  5
75C19
330
1F
100
AcDbEntity
  8
0
100
AcDbLine
 10
-53.1042054931795
 20
26.26170709167734
 30
0.0
 11
-53.10444482981476
 21
26.25313287129655
 31
0.0
  0
LINE
  5
75C1A
330
1F
100
AcDbEntity
  8
0
100
AcDbLine
 10
-52.76258248346042
 20
26.25971045018495
 30
0.0
 11
-52.77258248346042
 21
26.25971045018494
 31
0.0
  0
LINE
  5
75C1B
330
1F
100
AcDbEntity
  8
0
100
AcDbLine
 10
-52.77258248346042
 20
26.25971045018494
 30
0.0
 11
-52.77988301981877
 21
26.25971045018494
 31
0.0
  0
LINE
  5
75C1C
330
1F
100
AcDbEntity
  8
0
100
AcDbLine
 10
-52.75208975863093
 20
26.25971045018495
 30
0.0
 11
-52.76258248346042
 21
26.25971045018495
 31
0.0
  0
LINE
  5
75C1D
330
1F
100
AcDbEntity
  8
0
100
AcDbLine
 10
-52.77988301981877
 20
26.27451045018495
 30
0.0
 11
-52.77258248346042
 21
26.27451045018495
 31
0.0
  0
LINE
  5
75C1E
330
1F
100
AcDbEntity
  8
0
100
AcDbLine
 10
-52.75208975863093
 20
26.27451045018495
 30
0.0
 11
-52.76258248346042
 21
26.27451045018495
 31
0.0
  0
LINE
  5
75C1F
330
1F
100
AcDbEntity
  8
0
100
AcDbLine
 10
-52.77258248346042
 20
26.27451045018495
 30
0.0
 11
-52.76258248346042
 21
26.27451045018495
 31
0.0
  0
LINE
  5
75C20
330
1F
100
AcDbEntity
  8
0
100
AcDbLine
 10
-53.45368796455031
 20
26.25971045018494
 30
0.0
 11
-53.44368796455031
 21
26.25971045018494
 31
0.0
  0
LINE
  5
75C21
330
1F
100
AcDbEntity
  8
0
100
AcDbLine
 10
-53.44368796455031
 20
26.27451045018495
 30
0.0
 11
-53.43638742819196
 21
26.27451045018495
 31
0.0
  0
LINE
  5
75C22
330
1F
100
AcDbEntity
  8
0
100
AcDbLine
 10
-53.45368796455031
 20
26.25971045018494
 30
0.0
 11
-53.46597214102103
 21
26.25971045018494
 31
0.0
  0
LINE
  5
75C23
330
1F
100
AcDbEntity
  8
0
100
AcDbLine
 10
-53.43638742819196
 20
26.25971045018494
 30
0.0
 11
-53.44368796455031
 21
26.25971045018494
 31
0.0
  0
LINE
  5
75C24
330
1F
100
AcDbEntity
  8
0
100
AcDbLine
 10
-53.45368796455031
 20
26.27451045018495
 30
0.0
 11
-53.46597214102103
 21
26.27451045018495
 31
0.0
  0
LINE
  5
75C25
330
1F
100
AcDbEntity
  8
0
100
AcDbLine
 10
-53.44368796455031
 20
26.27451045018495
 30
0.0
 11
-53.45368796455031
 21
26.27451045018495
 31
0.0
  0
LINE
  5
75C26
330
1F
100
AcDbEntity
  8
0
100
AcDbLine
 10
-53.46699334333245
 20
26.26291765458649
 30
0.0
 11
-53.10490308956872
 21
26.25275854901794
 31
0.0
  0
LINE
  5
75C27
330
1F
100
AcDbEntity
  8
0
100
AcDbLine
 10
-52.88420475610775
 20
26.56696745774481
 30
0.0
 11
-52.88422653648701
 21
26.56640790352239
 31
0.0
  0
LINE
  5
75C28
330
1F
100
AcDbEntity
  8
0
100
AcDbLine
 10
-53.32515307820998
 20
26.56696745774481
 30
0.0
 11
-53.32513129783073
 21
26.56640790352233
 31
0.0
  0
LINE
  5
75C29
330
1F
100
AcDbEntity
  8
0
100
AcDbLine
 10
-52.88400817672036
 20
26.56851437456938
 30
0.0
 11
-52.88387173818498
 21
26.56883663741391
 31
0.0
  0
LINE
  5
75C2A
330
1F
100
AcDbEntity
  8
0
100
AcDbLine
 10
-52.8841213927464
 20
26.56787684252642
 30
0.0
 11
-52.88400817672036
 21
26.56851437456938
 31
0.0
  0
LINE
  5
75C2B
330
1F
100
AcDbEntity
  8
0
100
AcDbLine
 10
-52.88420475610775
 20
26.56696745774481
 30
0.0
 11
-52.8841213927464
 21
26.56787684252642
 31
0.0
  0
LINE
  5
75C2C
330
1F
100
AcDbEntity
  8
0
100
AcDbLine
 10
-52.88425547489905
 20
26.56459549678841
 30
0.0
 11
-52.88424940370333
 21
26.56584828211613
 31
0.0
  0
LINE
  5
75C2D
330
1F
100
AcDbEntity
  8
0
100
AcDbLine
 10
-52.88422147062323
 20
26.56329450730678
 30
0.0
 11
-52.88425547489905
 21
26.56459549678841
 31
0.0
  0
LINE
  5
75C2E
330
1F
100
AcDbEntity
  8
0
100
AcDbLine
 10
-52.88414970821107
 20
26.56203397395442
 30
0.0
 11
-52.88422147062323
 21
26.56329450730678
 31
0.0
  0
LINE
  5
75C2F
330
1F
100
AcDbEntity
  8
0
100
AcDbLine
 10
-52.88404507815236
 20
26.56089979999618
 30
0.0
 11
-52.88414970821107
 21
26.56203397395442
 31
0.0
  0
LINE
  5
75C30
330
1F
100
AcDbEntity
  8
0
100
AcDbLine
 10
-52.8839147108127
 20
26.55996927751299
 30
0.0
 11
-52.88404507815236
 21
26.56089979999618
 31
0.0
  0
LINE
  5
75C31
330
1F
100
AcDbEntity
  8
0
100
AcDbLine
 10
-52.88376749051085
 20
26.55930582007431
 30
0.0
 11
-52.8839147108127
 21
26.55996927751299
 31
0.0
  0
LINE
  5
75C32
330
1F
100
AcDbEntity
  8
0
100
AcDbLine
 10
-52.88361345006707
 20
26.55895464120819
 30
0.0
 11
-52.88376749051085
 21
26.55930582007431
 31
0.0
  0
LINE
  5
75C33
330
1F
100
AcDbEntity
  8
0
100
AcDbLine
 10
-52.88346308708305
 20
26.558939673174
 30
0.0
 11
-52.88361345006707
 21
26.55895464120819
 31
0.0
  0
LINE
  5
75C34
330
1F
100
AcDbEntity
  8
0
100
AcDbLine
 10
-52.88387173818498
 20
26.56883663741391
 30
0.0
 11
-53.10467891715878
 21
26.562673132756
 31
0.0
  0
LINE
  5
75C35
330
1F
100
AcDbEntity
  8
0
100
AcDbLine
 10
-53.00068796455032
 20
26.56557588584474
 30
0.0
 11
-53.10467891715873
 21
26.56267313275599
 31
0.0
  0
LINE
  5
75C36
330
1F
100
AcDbEntity
  8
0
100
AcDbLine
 10
-53.10515307946369
 20
26.56173354214196
 30
0.0
 11
-53.10517003489868
 21
26.56234096956792
 31
0.0
  0
LINE
  5
75C37
330
1F
100
AcDbEntity
  8
0
100
AcDbLine
 10
-53.32589474723469
 20
26.558939673174
 30
0.0
 11
-53.32574438425067
 21
26.55895464120819
 31
0.0
  0
LINE
  5
75C38
330
1F
100
AcDbEntity
  8
0
100
AcDbLine
 10
-53.32534965759737
 20
26.56851437456938
 30
0.0
 11
-53.32548609613276
 21
26.56883663741391
 31
0.0
  0
LINE
  5
75C39
330
1F
100
AcDbEntity
  8
0
100
AcDbLine
 10
-53.32523644157133
 20
26.56787684252642
 30
0.0
 11
-53.32534965759737
 21
26.56851437456938
 31
0.0
  0
LINE
  5
75C3A
330
1F
100
AcDbEntity
  8
0
100
AcDbLine
 10
-53.32515307820998
 20
26.56696745774481
 30
0.0
 11
-53.32523644157133
 21
26.56787684252642
 31
0.0
  0
LINE
  5
75C3B
330
1F
100
AcDbEntity
  8
0
100
AcDbLine
 10
-53.32510235941868
 20
26.56459549678841
 30
0.0
 11
-53.32510843061441
 21
26.56584828211613
 31
0.0
  0
LINE
  5
75C3C
330
1F
100
AcDbEntity
  8
0
100
AcDbLine
 10
-53.32513636369451
 20
26.56329450730678
 30
0.0
 11
-53.32510235941868
 21
26.56459549678841
 31
0.0
  0
LINE
  5
75C3D
330
1F
100
AcDbEntity
  8
0
100
AcDbLine
 10
-53.32520812610667
 20
26.56203397395442
 30
0.0
 11
-53.32513636369451
 21
26.56329450730678
 31
0.0
  0
LINE
  5
75C3E
330
1F
100
AcDbEntity
  8
0
100
AcDbLine
 10
-53.32531275616537
 20
26.56089979999618
 30
0.0
 11
-53.32520812610667
 21
26.56203397395442
 31
0.0
  0
LINE
  5
75C3F
330
1F
100
AcDbEntity
  8
0
100
AcDbLine
 10
-53.32544312350503
 20
26.55996927751299
 30
0.0
 11
-53.32531275616537
 21
26.56089979999618
 31
0.0
  0
LINE
  5
75C40
330
1F
100
AcDbEntity
  8
0
100
AcDbLine
 10
-53.32559034380689
 20
26.55930582007431
 30
0.0
 11
-53.32544312350503
 21
26.55996927751299
 31
0.0
  0
LINE
  5
75C41
330
1F
100
AcDbEntity
  8
0
100
AcDbLine
 10
-53.32548609613276
 20
26.56883663741391
 30
0.0
 11
-53.2167039183288
 21
26.56580014438543
 31
0.0
  0
LINE
  5
75C42
330
1F
100
AcDbEntity
  8
0
100
AcDbLine
 10
-53.2067039183288
 20
26.56552100922838
 30
0.0
 11
-53.10467891715887
 21
26.56267313275599
 31
0.0
  0
LINE
  5
75C43
330
1F
100
AcDbEntity
  8
0
100
AcDbLine
 10
-53.10420475485405
 20
26.56173354214196
 30
0.0
 11
-53.10418779941905
 21
26.56234096956792
 31
0.0
  0
LINE
  5
75C44
330
1F
100
AcDbEntity
  8
0
100
AcDbLine
 10
-53.32574438425067
 20
26.55895464120819
 30
0.0
 11
-53.32559034380689
 21
26.55930582007431
 31
0.0
  0
LINE
  5
75C45
330
1F
100
AcDbEntity
  8
0
100
AcDbLine
 10
-53.10445420995225
 20
26.55275854901793
 30
0.0
 11
-53.10444482981476
 21
26.55313287129655
 31
0.0
  0
LINE
  5
75C46
330
1F
100
AcDbEntity
  8
0
100
AcDbLine
 10
-53.43638742819196
 20
26.55971045018495
 30
0.0
 11
-53.43638742819196
 21
26.56205894955452
 31
0.0
  0
LINE
  5
75C47
330
1F
100
AcDbEntity
  8
0
100
AcDbLine
 10
-53.46597214102103
 20
26.55971045018495
 30
0.0
 11
-53.46597214102103
 21
26.56288900288438
 31
0.0
  0
LINE
  5
75C48
330
1F
100
AcDbEntity
  8
0
100
AcDbLine
 10
-53.46597214102103
 20
26.57275809683414
 30
0.0
 11
-53.46597214102103
 21
26.57451045018495
 31
0.0
  0
LINE
  5
75C49
330
1F
100
AcDbEntity
  8
0
100
AcDbLine
 10
-53.10490308956872
 20
26.55277766938076
 30
0.0
 11
-53.10445420995225
 21
26.55275854901793
 31
0.0
  0
LINE
  5
75C4A
330
1F
100
AcDbEntity
  8
0
100
AcDbLine
 10
-52.88424940370333
 20
26.56584828211613
 30
0.0
 11
-52.88422653648701
 21
26.56640790352239
 31
0.0
  0
LINE
  5
75C4B
330
1F
100
AcDbEntity
  8
0
100
AcDbLine
 10
-52.82103300795373
 20
26.56071045018495
 30
0.0
 11
-53.10445420995225
 21
26.55275854901793
 31
0.0
  0
LINE
  5
75C4C
330
1F
100
AcDbEntity
  8
0
100
AcDbLine
 10
-53.46699334333245
 20
26.5727866021809
 30
0.0
 11
-53.46597214102103
 21
26.57275809683414
 31
0.0
  0
LINE
  5
75C4D
330
1F
100
AcDbEntity
  8
0
100
AcDbLine
 10
-53.46597214102103
 20
26.57275809683414
 30
0.0
 11
-53.10467891715878
 21
26.562673132756
 31
0.0
  0
LINE
  5
75C4E
330
1F
100
AcDbEntity
  8
0
100
AcDbLine
 10
-53.32510843061441
 20
26.56584828211613
 30
0.0
 11
-53.32513129783073
 21
26.56640790352233
 31
0.0
  0
LINE
  5
75C4F
330
1F
100
AcDbEntity
  8
0
100
AcDbLine
 10
-52.77988301981877
 20
26.5717393281371
 30
0.0
 11
-52.77988301981877
 21
26.57451045018495
 31
0.0
  0
LINE
  5
75C50
330
1F
100
AcDbEntity
  8
0
100
AcDbLine
 10
-53.43638742819196
 20
26.57193228348797
 30
0.0
 11
-53.43638742819196
 21
26.57451045018495
 31
0.0
  0
LINE
  5
75C51
330
1F
100
AcDbEntity
  8
0
100
AcDbLine
 10
-53.2167039183288
 20
26.56572911035417
 30
0.0
 11
-53.2167039183288
 21
26.56580014438543
 31
0.0
  0
LINE
  5
75C52
330
1F
100
AcDbEntity
  8
0
100
AcDbLine
 10
-53.2067039183288
 20
26.56544997519713
 30
0.0
 11
-53.2067039183288
 21
26.56552100922838
 31
0.0
  0
LINE
  5
75C53
330
1F
100
AcDbEntity
  8
0
100
AcDbLine
 10
-52.77988301981877
 20
26.55971045018495
 30
0.0
 11
-52.77988301981877
 21
26.56183095700824
 31
0.0
  0
LINE
  5
75C54
330
1F
100
AcDbEntity
  8
0
100
AcDbLine
 10
-52.77988301981877
 20
26.56183095700824
 30
0.0
 11
-52.77988301981877
 21
26.5717393281371
 31
0.0
  0
LINE
  5
75C55
330
1F
100
AcDbEntity
  8
0
100
AcDbLine
 10
-53.00068796455032
 20
26.56529585568383
 30
0.0
 11
-53.00068796455032
 21
26.56557588584474
 31
0.0
  0
LINE
  5
75C56
330
1F
100
AcDbEntity
  8
0
100
AcDbLine
 10
-52.99068796455031
 20
26.56557499084087
 30
0.0
 11
-52.99068796455031
 21
26.56585502100178
 31
0.0
  0
LINE
  5
75C57
330
1F
100
AcDbEntity
  8
0
100
AcDbLine
 10
-53.46699334333245
 20
26.56071045018495
 30
0.0
 11
-53.46699334333245
 21
26.5727866021809
 31
0.0
  0
LINE
  5
75C58
330
1F
100
AcDbEntity
  8
0
100
AcDbLine
 10
-52.75208975863093
 20
26.56260676464088
 30
0.0
 11
-52.75208975863093
 21
26.57251513576974
 31
0.0
  0
LINE
  5
75C59
330
1F
100
AcDbEntity
  8
0
100
AcDbLine
 10
-52.75208975863093
 20
26.56071045018495
 30
0.0
 11
-52.75208975863093
 21
26.56260676464088
 31
0.0
  0
LINE
  5
75C5A
330
1F
100
AcDbEntity
  8
0
100
AcDbLine
 10
-52.75208975863093
 20
26.55971045018496
 30
0.0
 11
-52.75208975863093
 21
26.56071045018495
 31
0.0
  0
LINE
  5
75C5B
330
1F
100
AcDbEntity
  8
0
100
AcDbLine
 10
-52.75208975863093
 20
26.57251513576974
 30
0.0
 11
-52.75208975863093
 21
26.57262645018495
 31
0.0
  0
LINE
  5
75C5C
330
1F
100
AcDbEntity
  8
0
100
AcDbLine
 10
-52.75208975863093
 20
26.57262645018495
 30
0.0
 11
-52.75208975863093
 21
26.57451045018495
 31
0.0
  0
LINE
  5
75C5D
330
1F
100
AcDbEntity
  8
0
100
AcDbLine
 10
-52.88387173818498
 20
26.56883663741391
 30
0.0
 11
-52.77988301981877
 21
26.5717393281371
 31
0.0
  0
LINE
  5
75C5E
330
1F
100
AcDbEntity
  8
0
100
AcDbLine
 10
-52.88346308708305
 20
26.558939673174
 30
0.0
 11
-52.77988301981877
 21
26.56183095700824
 31
0.0
  0
LINE
  5
75C5F
330
1F
100
AcDbEntity
  8
0
100
AcDbLine
 10
-53.10490308956872
 20
26.55277766938076
 30
0.0
 11
-53.10515234113823
 21
26.56170709167734
 31
0.0
  0
LINE
  5
75C60
330
1F
100
AcDbEntity
  8
0
100
AcDbLine
 10
-53.32548609613276
 20
26.56883663741391
 30
0.0
 11
-53.43638742819196
 21
26.57193228348797
 31
0.0
  0
LINE
  5
75C61
330
1F
100
AcDbEntity
  8
0
100
AcDbLine
 10
-53.1042054931795
 20
26.56170709167734
 30
0.0
 11
-53.10444482981476
 21
26.55313287129655
 31
0.0
  0
LINE
  5
75C62
330
1F
100
AcDbEntity
  8
0
100
AcDbLine
 10
-52.76258248346042
 20
26.55971045018496
 30
0.0
 11
-52.77258248346042
 21
26.55971045018495
 31
0.0
  0
LINE
  5
75C63
330
1F
100
AcDbEntity
  8
0
100
AcDbLine
 10
-52.77258248346042
 20
26.55971045018495
 30
0.0
 11
-52.77988301981877
 21
26.55971045018495
 31
0.0
  0
LINE
  5
75C64
330
1F
100
AcDbEntity
  8
0
100
AcDbLine
 10
-52.75208975863093
 20
26.55971045018496
 30
0.0
 11
-52.76258248346042
 21
26.55971045018496
 31
0.0
  0
LINE
  5
75C65
330
1F
100
AcDbEntity
  8
0
100
AcDbLine
 10
-52.77988301981877
 20
26.57451045018495
 30
0.0
 11
-52.77258248346042
 21
26.57451045018495
 31
0.0
  0
LINE
  5
75C66
330
1F
100
AcDbEntity
  8
0
100
AcDbLine
 10
-52.75208975863093
 20
26.57451045018495
 30
0.0
 11
-52.76258248346042
 21
26.57451045018495
 31
0.0
  0
LINE
  5
75C67
330
1F
100
AcDbEntity
  8
0
100
AcDbLine
 10
-52.77258248346042
 20
26.57451045018495
 30
0.0
 11
-52.76258248346042
 21
26.57451045018495
 31
0.0
  0
LINE
  5
75C68
330
1F
100
AcDbEntity
  8
0
100
AcDbLine
 10
-53.45368796455031
 20
26.55971045018495
 30
0.0
 11
-53.44368796455031
 21
26.55971045018495
 31
0.0
  0
LINE
  5
75C69
330
1F
100
AcDbEntity
  8
0
100
AcDbLine
 10
-53.44368796455031
 20
26.57451045018495
 30
0.0
 11
-53.43638742819196
 21
26.57451045018495
 31
0.0
  0
LINE
  5
75C6A
330
1F
100
AcDbEntity
  8
0
100
AcDbLine
 10
-53.45368796455031
 20
26.55971045018495
 30
0.0
 11
-53.46597214102103
 21
26.55971045018495
 31
0.0
  0
LINE
  5
75C6B
330
1F
100
AcDbEntity
  8
0
100
AcDbLine
 10
-53.43638742819196
 20
26.55971045018495
 30
0.0
 11
-53.44368796455031
 21
26.55971045018495
 31
0.0
  0
LINE
  5
75C6C
330
1F
100
AcDbEntity
  8
0
100
AcDbLine
 10
-53.45368796455031
 20
26.57451045018495
 30
0.0
 11
-53.46597214102103
 21
26.57451045018495
 31
0.0
  0
LINE
  5
75C6D
330
1F
100
AcDbEntity
  8
0
100
AcDbLine
 10
-53.44368796455031
 20
26.57451045018495
 30
0.0
 11
-53.45368796455031
 21
26.57451045018495
 31
0.0
  0
LINE
  5
75C6E
330
1F
100
AcDbEntity
  8
0
100
AcDbLine
 10
-53.46699334333245
 20
26.56291765458649
 30
0.0
 11
-53.10490308956872
 21
26.55275854901793
 31
0.0
  0
LINE
  5
75C6F
330
1F
100
AcDbEntity
  8
0
100
AcDbLine
 10
-52.8836134455627
 20
25.33826970737615
 30
0.0
 11
-52.8836134455627
 21
25.58696084542143
 31
0.0
  0
LINE
  5
75C70
330
1F
100
AcDbEntity
  8
0
100
AcDbLine
 10
-52.8836134455627
 20
25.59687583921423
 30
0.0
 11
-52.8836134455627
 21
25.88696084542143
 31
0.0
  0
LINE
  5
75C71
330
1F
100
AcDbEntity
  8
0
100
AcDbLine
 10
-52.8836134455627
 20
25.89687583921422
 30
0.0
 11
-52.8836134455627
 21
26.18696084542144
 31
0.0
  0
LINE
  5
75C72
330
1F
100
AcDbEntity
  8
0
100
AcDbLine
 10
-52.8836134455627
 20
26.19687583921422
 30
0.0
 11
-52.8836134455627
 21
26.48696084542144
 31
0.0
  0
LINE
  5
75C73
330
1F
100
AcDbEntity
  8
0
100
AcDbLine
 10
-52.8836134455627
 20
26.49687583921422
 30
0.0
 11
-52.8836134455627
 21
26.78157599475562
 31
0.0
  0
LINE
  5
75C74
330
1F
100
AcDbEntity
  8
0
100
AcDbLine
 10
-52.8736134455627
 20
25.32721274479959
 30
0.0
 11
-52.8736134455627
 21
25.58724054553227
 31
0.0
  0
LINE
  5
75C75
330
1F
100
AcDbEntity
  8
0
100
AcDbLine
 10
-52.8736134455627
 20
25.59715497437127
 30
0.0
 11
-52.8736134455627
 21
25.88724054553227
 31
0.0
  0
LINE
  5
75C76
330
1F
100
AcDbEntity
  8
0
100
AcDbLine
 10
-52.8736134455627
 20
25.89715497437127
 30
0.0
 11
-52.8736134455627
 21
26.18724054553227
 31
0.0
  0
LINE
  5
75C77
330
1F
100
AcDbEntity
  8
0
100
AcDbLine
 10
-52.8736134455627
 20
26.19715497437126
 30
0.0
 11
-52.8736134455627
 21
26.48724054553228
 31
0.0
  0
LINE
  5
75C78
330
1F
100
AcDbEntity
  8
0
100
AcDbLine
 10
-52.8736134455627
 20
26.49715497437126
 30
0.0
 11
-52.87361344556271
 21
26.78157599475561
 31
0.0
  0
LINE
  5
75C79
330
1F
100
AcDbEntity
  8
0
100
AcDbLine
 10
-53.32589474273031
 20
25.34844226866285
 30
0.0
 11
-53.32589474273031
 21
25.58694587738724
 31
0.0
  0
LINE
  5
75C7A
330
1F
100
AcDbEntity
  8
0
100
AcDbLine
 10
-53.32589474273031
 20
25.59686087118003
 30
0.0
 11
-53.32589474273031
 21
25.88694587738725
 31
0.0
  0
LINE
  5
75C7B
330
1F
100
AcDbEntity
  8
0
100
AcDbLine
 10
-53.32589474273031
 20
25.89686087118004
 30
0.0
 11
-53.32589474273031
 21
26.18694587738725
 31
0.0
  0
LINE
  5
75C7C
330
1F
100
AcDbEntity
  8
0
100
AcDbLine
 10
-53.32589474273031
 20
26.19686087118003
 30
0.0
 11
-53.32589474273031
 21
26.48694587738725
 31
0.0
  0
LINE
  5
75C7D
330
1F
100
AcDbEntity
  8
0
100
AcDbLine
 10
-53.3158947427303
 20
25.34957636972991
 30
0.0
 11
-53.3158947427303
 21
25.58722557749808
 31
0.0
  0
LINE
  5
75C7E
330
1F
100
AcDbEntity
  8
0
100
AcDbLine
 10
-53.3158947427303
 20
25.59714000633708
 30
0.0
 11
-53.3158947427303
 21
25.88722557749808
 31
0.0
  0
LINE
  5
75C7F
330
1F
100
AcDbEntity
  8
0
100
AcDbLine
 10
-53.3158947427303
 20
25.89714000633707
 30
0.0
 11
-53.3158947427303
 21
26.18722557749809
 31
0.0
  0
LINE
  5
75C80
330
1F
100
AcDbEntity
  8
0
100
AcDbLine
 10
-53.3158947427303
 20
26.19714000633708
 30
0.0
 11
-53.3158947427303
 21
26.48722557749808
 31
0.0
  0
LINE
  5
75C81
330
1F
100
AcDbEntity
  8
0
100
AcDbLine
 10
-53.03281135614865
 20
25.34640935534701
 30
0.0
 11
-53.03281135614865
 21
25.58147038453388
 31
0.0
  0
LINE
  5
75C82
330
1F
100
AcDbEntity
  8
0
100
AcDbLine
 10
-53.03281135614865
 20
25.59138537832667
 30
0.0
 11
-53.03281135614865
 21
25.88147038453388
 31
0.0
  0
LINE
  5
75C83
330
1F
100
AcDbEntity
  8
0
100
AcDbLine
 10
-53.03281135614865
 20
25.89138537832667
 30
0.0
 11
-53.03281135614865
 21
26.18147038453388
 31
0.0
  0
LINE
  5
75C84
330
1F
100
AcDbEntity
  8
0
100
AcDbLine
 10
-53.03281135614865
 20
26.19138537832667
 30
0.0
 11
-53.03281135614865
 21
26.48147038453388
 31
0.0
  0
LINE
  5
75C85
330
1F
100
AcDbEntity
  8
0
100
AcDbLine
 10
-53.02281135614865
 20
25.34901090291539
 30
0.0
 11
-53.02281135614865
 21
25.58175008464472
 31
0.0
  0
LINE
  5
75C86
330
1F
100
AcDbEntity
  8
0
100
AcDbLine
 10
-53.02281135614865
 20
25.59166451348371
 30
0.0
 11
-53.02281135614865
 21
25.88175008464472
 31
0.0
  0
LINE
  5
75C87
330
1F
100
AcDbEntity
  8
0
100
AcDbLine
 10
-53.02281135614865
 20
25.89166451348371
 30
0.0
 11
-53.02281135614865
 21
26.18175008464473
 31
0.0
  0
LINE
  5
75C88
330
1F
100
AcDbEntity
  8
0
100
AcDbLine
 10
-53.02281135614865
 20
26.19166451348371
 30
0.0
 11
-53.02281135614865
 21
26.48175008464472
 31
0.0
  0
LINE
  5
75C89
330
1F
100
AcDbEntity
  8
0
100
AcDbLine
 10
-53.18585681382701
 20
25.34000215014865
 30
0.0
 11
-53.18585681382701
 21
25.59450934961749
 31
0.0
  0
LINE
  5
75C8A
330
1F
100
AcDbEntity
  8
0
100
AcDbLine
 10
-53.18585681382701
 20
25.60442434341028
 30
0.0
 11
-53.18585681382701
 21
25.89450934961749
 31
0.0
  0
LINE
  5
75C8B
330
1F
100
AcDbEntity
  8
0
100
AcDbLine
 10
-53.18585681382701
 20
25.90442434341028
 30
0.0
 11
-53.18585681382701
 21
26.19450934961749
 31
0.0
  0
LINE
  5
75C8C
330
1F
100
AcDbEntity
  8
0
100
AcDbLine
 10
-53.18585681382701
 20
26.20442434341028
 30
0.0
 11
-53.18585681382701
 21
26.49450934961749
 31
0.0
  0
LINE
  5
75C8D
330
1F
100
AcDbEntity
  8
0
100
AcDbLine
 10
-53.17585681382701
 20
25.33032852322357
 30
0.0
 11
-53.17585681382701
 21
25.59478904972833
 31
0.0
  0
LINE
  5
75C8E
330
1F
100
AcDbEntity
  8
0
100
AcDbLine
 10
-53.17585681382701
 20
25.60470347856732
 30
0.0
 11
-53.17585681382701
 21
25.89478904972833
 31
0.0
  0
LINE
  5
75C8F
330
1F
100
AcDbEntity
  8
0
100
AcDbLine
 10
-53.17585681382701
 20
25.90470347856732
 30
0.0
 11
-53.17585681382701
 21
26.19478904972833
 31
0.0
  0
LINE
  5
75C90
330
1F
100
AcDbEntity
  8
0
100
AcDbLine
 10
-53.17585681382701
 20
26.20470347856732
 30
0.0
 11
-53.17585681382701
 21
26.49478904972833
 31
0.0
  0
LINE
  5
75C91
330
1F
100
AcDbEntity
  8
0
100
AcDbLine
 10
-52.77170569737119
 20
26.49882459473155
 30
0.0
 11
-52.77170569737119
 21
26.78157599475562
 31
0.0
  0
LINE
  5
75C92
330
1F
100
AcDbEntity
  8
0
100
AcDbLine
 10
-52.76170569737118
 20
26.4991037298886
 30
0.0
 11
-52.76170569737118
 21
26.78157599475561
 31
0.0
  0
LINE
  5
75C93
330
1F
100
AcDbEntity
  8
0
100
AcDbLine
 10
-53.45306392974617
 20
26.49650070727454
 30
0.0
 11
-53.45306392974616
 21
26.78157599475562
 31
0.0
  0
LINE
  5
75C94
330
1F
100
AcDbEntity
  8
0
100
AcDbLine
 10
-53.44306392974615
 20
26.49677984243159
 30
0.0
 11
-53.44306392974615
 21
26.78157599475561
 31
0.0
  0
LINE
  5
75C95
330
1F
100
AcDbEntity
  8
0
100
AcDbLine
 10
-53.03263502663565
 20
26.49504361731828
 30
0.0
 11
-53.03263502663565
 21
26.78157599475562
 31
0.0
  0
LINE
  5
75C96
330
1F
100
AcDbEntity
  8
0
100
AcDbLine
 10
-53.02263502663564
 20
26.49532275247532
 30
0.0
 11
-53.02263502663564
 21
26.78157599475561
 31
0.0
  0
LINE
  5
75C97
330
1F
100
AcDbEntity
  8
0
100
AcDbLine
 10
-53.18427476106744
 20
26.49354064137424
 30
0.0
 11
-53.18427476106744
 21
26.78157599475562
 31
0.0
  0
LINE
  5
75C98
330
1F
100
AcDbEntity
  8
0
100
AcDbLine
 10
-53.17427476106744
 20
26.49381977653129
 30
0.0
 11
-53.17427476106745
 21
26.78157599475561
 31
0.0
  0
LINE
  5
75C99
330
1F
100
AcDbEntity
  8
0
100
AcDbLine
 10
-53.18427476106744
 20
26.78362564758146
 30
0.0
 11
-53.19427476106745
 21
26.78362564758146
 31
0.0
  0
LINE
  5
75C9A
330
1F
100
AcDbEntity
  8
0
100
AcDbLine
 10
-53.32540482073726
 20
26.49354064137424
 30
0.0
 11
-53.32540482073726
 21
26.78157599475562
 31
0.0
  0
LINE
  5
75C9B
330
1F
100
AcDbEntity
  8
0
100
AcDbLine
 10
-53.31540482073726
 20
26.49381977653129
 30
0.0
 11
-53.31540482073726
 21
26.78157599475561
 31
0.0
  0
LINE
  5
75C9C
330
1F
100
AcDbEntity
  8
0
100
AcDbLine
 10
-53.32540482073726
 20
26.78362564758146
 30
0.0
 11
-53.33540482073725
 21
26.78362564758146
 31
0.0
  0
LINE
  5
75C9D
330
1F
100
AcDbEntity
  8
0
100
AcDbLine
 10
-52.86453754044917
 20
26.72577776740692
 30
0.0
 11
-53.08534471942296
 21
26.71961426274902
 31
0.0
  0
LINE
  5
75C9E
330
1F
100
AcDbEntity
  8
0
100
AcDbLine
 10
-52.9813537668145
 20
26.72251701583776
 30
0.0
 11
-53.08534471942292
 21
26.71961426274901
 31
0.0
  0
LINE
  5
75C9F
330
1F
100
AcDbEntity
  8
0
100
AcDbLine
 10
-53.08581888172787
 20
26.71867467213498
 30
0.0
 11
-53.08583583716287
 21
26.71928209956093
 31
0.0
  0
LINE
  5
75CA0
330
1F
100
AcDbEntity
  8
0
100
AcDbLine
 10
-53.18736972059298
 20
26.7224621392214
 30
0.0
 11
-53.08534471942305
 21
26.71961426274901
 31
0.0
  0
LINE
  5
75CA1
330
1F
100
AcDbEntity
  8
0
100
AcDbLine
 10
-53.08487055711823
 20
26.71867467213498
 30
0.0
 11
-53.08485360168323
 21
26.71928209956093
 31
0.0
  0
LINE
  5
75CA2
330
1F
100
AcDbEntity
  8
0
100
AcDbLine
 10
-53.08512001221643
 20
26.70969967901095
 30
0.0
 11
-53.08511063207895
 21
26.71007400128957
 31
0.0
  0
LINE
  5
75CA3
330
1F
100
AcDbEntity
  8
0
100
AcDbLine
 10
-53.0855688918329
 20
26.70971879937377
 30
0.0
 11
-53.08512001221643
 21
26.70969967901095
 31
0.0
  0
LINE
  5
75CA4
330
1F
100
AcDbEntity
  8
0
100
AcDbLine
 10
-52.80169881021792
 20
26.71765158017797
 30
0.0
 11
-53.08512001221643
 21
26.70969967901095
 31
0.0
  0
LINE
  5
75CA5
330
1F
100
AcDbEntity
  8
0
100
AcDbLine
 10
-53.44663794328521
 20
26.72969922682716
 30
0.0
 11
-53.08534471942296
 21
26.71961426274902
 31
0.0
  0
LINE
  5
75CA6
330
1F
100
AcDbEntity
  8
0
100
AcDbLine
 10
-52.86453754044917
 20
26.72577776740692
 30
0.0
 11
-52.76054882208295
 21
26.72868045813011
 31
0.0
  0
LINE
  5
75CA7
330
1F
100
AcDbEntity
  8
0
100
AcDbLine
 10
-52.86412888934724
 20
26.71588080316702
 30
0.0
 11
-52.76054882208295
 21
26.71877208700125
 31
0.0
  0
LINE
  5
75CA8
330
1F
100
AcDbEntity
  8
0
100
AcDbLine
 10
-53.0855688918329
 20
26.70971879937377
 30
0.0
 11
-53.08581814340241
 21
26.71864822167036
 31
0.0
  0
LINE
  5
75CA9
330
1F
100
AcDbEntity
  8
0
100
AcDbLine
 10
-53.08487129544369
 20
26.71864822167036
 30
0.0
 11
-53.08511063207895
 21
26.71007400128957
 31
0.0
  0
LINE
  5
75CAA
330
1F
100
AcDbEntity
  8
0
100
AcDbLine
 10
-53.44765914559664
 20
26.71985878457951
 30
0.0
 11
-53.0855688918329
 21
26.70969967901095
 31
0.0
  0
LINE
  5
75CAB
330
1F
100
AcDbEntity
  8
0
100
AcDbLine
 10
-52.86453754044917
 20
26.64781208817223
 30
0.0
 11
-53.08534471942296
 21
26.64164858351432
 31
0.0
  0
LINE
  5
75CAC
330
1F
100
AcDbEntity
  8
0
100
AcDbLine
 10
-52.9813537668145
 20
26.64455133660306
 30
0.0
 11
-53.08534471942292
 21
26.64164858351432
 31
0.0
  0
LINE
  5
75CAD
330
1F
100
AcDbEntity
  8
0
100
AcDbLine
 10
-53.08581888172787
 20
26.64070899290028
 30
0.0
 11
-53.08583583716287
 21
26.64131642032624
 31
0.0
  0
LINE
  5
75CAE
330
1F
100
AcDbEntity
  8
0
100
AcDbLine
 10
-53.18736972059298
 20
26.6444964599867
 30
0.0
 11
-53.08534471942305
 21
26.64164858351432
 31
0.0
  0
LINE
  5
75CAF
330
1F
100
AcDbEntity
  8
0
100
AcDbLine
 10
-53.08487055711823
 20
26.64070899290028
 30
0.0
 11
-53.08485360168323
 21
26.64131642032624
 31
0.0
  0
LINE
  5
75CB0
330
1F
100
AcDbEntity
  8
0
100
AcDbLine
 10
-53.08512001221643
 20
26.63173399977626
 30
0.0
 11
-53.08511063207895
 21
26.63210832205487
 31
0.0
  0
LINE
  5
75CB1
330
1F
100
AcDbEntity
  8
0
100
AcDbLine
 10
-53.0855688918329
 20
26.63175312013908
 30
0.0
 11
-53.08512001221643
 21
26.63173399977626
 31
0.0
  0
LINE
  5
75CB2
330
1F
100
AcDbEntity
  8
0
100
AcDbLine
 10
-52.80169881021792
 20
26.63968590094328
 30
0.0
 11
-53.08512001221643
 21
26.63173399977626
 31
0.0
  0
LINE
  5
75CB3
330
1F
100
AcDbEntity
  8
0
100
AcDbLine
 10
-53.44663794328521
 20
26.65173354759246
 30
0.0
 11
-53.08534471942296
 21
26.64164858351432
 31
0.0
  0
LINE
  5
75CB4
330
1F
100
AcDbEntity
  8
0
100
AcDbLine
 10
-52.86453754044917
 20
26.64781208817223
 30
0.0
 11
-52.76054882208295
 21
26.65071477889542
 31
0.0
  0
LINE
  5
75CB5
330
1F
100
AcDbEntity
  8
0
100
AcDbLine
 10
-52.86412888934724
 20
26.63791512393232
 30
0.0
 11
-52.76054882208295
 21
26.64080640776656
 31
0.0
  0
LINE
  5
75CB6
330
1F
100
AcDbEntity
  8
0
100
AcDbLine
 10
-53.0855688918329
 20
26.63175312013908
 30
0.0
 11
-53.08581814340241
 21
26.64068254243566
 31
0.0
  0
LINE
  5
75CB7
330
1F
100
AcDbEntity
  8
0
100
AcDbLine
 10
-53.08487129544369
 20
26.64068254243566
 30
0.0
 11
-53.08511063207895
 21
26.63210832205487
 31
0.0
  0
LINE
  5
75CB8
330
1F
100
AcDbEntity
  8
0
100
AcDbLine
 10
-53.44765914559664
 20
26.64189310534481
 30
0.0
 11
-53.0855688918329
 21
26.63173399977626
 31
0.0
  0
LINE
  5
75CB9
330
1F
100
AcDbEntity
  8
0
100
AcDbLine
 10
-52.86676280414372
 20
26.3626804772449
 30
0.0
 11
-53.08756998311752
 21
26.356516972587
 31
0.0
  0
LINE
  5
75CBA
330
1F
100
AcDbEntity
  8
0
100
AcDbLine
 10
-52.98357903050906
 20
26.35941972567574
 30
0.0
 11
-53.08756998311747
 21
26.35651697258699
 31
0.0
  0
LINE
  5
75CBB
330
1F
100
AcDbEntity
  8
0
100
AcDbLine
 10
-53.08804414542243
 20
26.35557738197296
 30
0.0
 11
-53.08806110085742
 21
26.35618480939891
 31
0.0
  0
LINE
  5
75CBC
330
1F
100
AcDbEntity
  8
0
100
AcDbLine
 10
-53.18959498428753
 20
26.35936484905938
 30
0.0
 11
-53.08756998311761
 21
26.35651697258699
 31
0.0
  0
LINE
  5
75CBD
330
1F
100
AcDbEntity
  8
0
100
AcDbLine
 10
-53.08709582081279
 20
26.35557738197296
 30
0.0
 11
-53.08707886537779
 21
26.35618480939891
 31
0.0
  0
LINE
  5
75CBE
330
1F
100
AcDbEntity
  8
0
100
AcDbLine
 10
-53.08734527591099
 20
26.34660238884893
 30
0.0
 11
-53.0873358957735
 21
26.34697671112755
 31
0.0
  0
LINE
  5
75CBF
330
1F
100
AcDbEntity
  8
0
100
AcDbLine
 10
-53.08779415552746
 20
26.34662150921176
 30
0.0
 11
-53.08734527591099
 21
26.34660238884893
 31
0.0
  0
LINE
  5
75CC0
330
1F
100
AcDbEntity
  8
0
100
AcDbLine
 10
-52.80392407391247
 20
26.35455429001595
 30
0.0
 11
-53.08734527591099
 21
26.34660238884893
 31
0.0
  0
LINE
  5
75CC1
330
1F
100
AcDbEntity
  8
0
100
AcDbLine
 10
-53.44886320697977
 20
26.36660193666514
 30
0.0
 11
-53.08756998311752
 21
26.356516972587
 31
0.0
  0
LINE
  5
75CC2
330
1F
100
AcDbEntity
  8
0
100
AcDbLine
 10
-52.86676280414372
 20
26.3626804772449
 30
0.0
 11
-52.76277408577751
 21
26.3655831679681
 31
0.0
  0
LINE
  5
75CC3
330
1F
100
AcDbEntity
  8
0
100
AcDbLine
 10
-52.86635415304179
 20
26.352783513005
 30
0.0
 11
-52.76277408577751
 21
26.35567479683924
 31
0.0
  0
LINE
  5
75CC4
330
1F
100
AcDbEntity
  8
0
100
AcDbLine
 10
-53.08779415552746
 20
26.34662150921176
 30
0.0
 11
-53.08804340709697
 21
26.35555093150834
 31
0.0
  0
LINE
  5
75CC5
330
1F
100
AcDbEntity
  8
0
100
AcDbLine
 10
-53.08709655913824
 20
26.35555093150834
 30
0.0
 11
-53.0873358957735
 21
26.34697671112755
 31
0.0
  0
LINE
  5
75CC6
330
1F
100
AcDbEntity
  8
0
100
AcDbLine
 10
-53.44988440929119
 20
26.35676149441749
 30
0.0
 11
-53.08779415552746
 21
26.34660238884893
 31
0.0
  0
LINE
  5
75CC7
330
1F
100
AcDbEntity
  8
0
100
AcDbLine
 10
-52.8689880348362
 20
26.46514962369136
 30
0.0
 11
-53.08979521381001
 21
26.45898611903345
 31
0.0
  0
LINE
  5
75CC8
330
1F
100
AcDbEntity
  8
0
100
AcDbLine
 10
-52.98580426120154
 20
26.46188887212219
 30
0.0
 11
-53.08979521380996
 21
26.45898611903345
 31
0.0
  0
LINE
  5
75CC9
330
1F
100
AcDbEntity
  8
0
100
AcDbLine
 10
-53.09026937611491
 20
26.45804652841941
 30
0.0
 11
-53.09028633154991
 21
26.45865395584537
 31
0.0
  0
LINE
  5
75CCA
330
1F
100
AcDbEntity
  8
0
100
AcDbLine
 10
-53.19182021498003
 20
26.46183399550583
 30
0.0
 11
-53.0897952138101
 21
26.45898611903345
 31
0.0
  0
LINE
  5
75CCB
330
1F
100
AcDbEntity
  8
0
100
AcDbLine
 10
-53.08932105150528
 20
26.45804652841941
 30
0.0
 11
-53.08930409607028
 21
26.45865395584537
 31
0.0
  0
LINE
  5
75CCC
330
1F
100
AcDbEntity
  8
0
100
AcDbLine
 10
-53.08957050660348
 20
26.44907153529539
 30
0.0
 11
-53.08956112646598
 21
26.449445857574
 31
0.0
  0
LINE
  5
75CCD
330
1F
100
AcDbEntity
  8
0
100
AcDbLine
 10
-53.09001938621995
 20
26.44909065565821
 30
0.0
 11
-53.08957050660348
 21
26.44907153529539
 31
0.0
  0
LINE
  5
75CCE
330
1F
100
AcDbEntity
  8
0
100
AcDbLine
 10
-52.80614930460497
 20
26.4570234364624
 30
0.0
 11
-53.08957050660348
 21
26.44907153529539
 31
0.0
  0
LINE
  5
75CCF
330
1F
100
AcDbEntity
  8
0
100
AcDbLine
 10
-53.45108843767225
 20
26.46907108311159
 30
0.0
 11
-53.08979521381001
 21
26.45898611903345
 31
0.0
  0
LINE
  5
75CD0
330
1F
100
AcDbEntity
  8
0
100
AcDbLine
 10
-52.8689880348362
 20
26.46514962369136
 30
0.0
 11
-52.76499931646999
 21
26.46805231441455
 31
0.0
  0
LINE
  5
75CD1
330
1F
100
AcDbEntity
  8
0
100
AcDbLine
 10
-52.86857938373429
 20
26.45525265945145
 30
0.0
 11
-52.76499931646999
 21
26.45814394328569
 31
0.0
  0
LINE
  5
75CD2
330
1F
100
AcDbEntity
  8
0
100
AcDbLine
 10
-53.09001938621995
 20
26.44909065565821
 30
0.0
 11
-53.09026863778946
 21
26.45802007795479
 31
0.0
  0
LINE
  5
75CD3
330
1F
100
AcDbEntity
  8
0
100
AcDbLine
 10
-53.08932178983074
 20
26.45802007795479
 30
0.0
 11
-53.08956112646598
 21
26.449445857574
 31
0.0
  0
LINE
  5
75CD4
330
1F
100
AcDbEntity
  8
0
100
AcDbLine
 10
-53.45210963998368
 20
26.45923064086394
 30
0.0
 11
-53.09001938621995
 21
26.44907153529539
 31
0.0
  0
LINE
  5
75CD5
330
1F
100
AcDbEntity
  8
0
100
AcDbLine
 10
-52.87343849622118
 20
26.06863845101499
 30
0.0
 11
-53.09424567519498
 21
26.06247494635708
 31
0.0
  0
LINE
  5
75CD6
330
1F
100
AcDbEntity
  8
0
100
AcDbLine
 10
-52.99025472258652
 20
26.06537769944582
 30
0.0
 11
-53.09424567519494
 21
26.06247494635708
 31
0.0
  0
LINE
  5
75CD7
330
1F
100
AcDbEntity
  8
0
100
AcDbLine
 10
-53.0947198374999
 20
26.06153535574304
 30
0.0
 11
-53.09473679293489
 21
26.062142783169
 31
0.0
  0
LINE
  5
75CD8
330
1F
100
AcDbEntity
  8
0
100
AcDbLine
 10
-53.196270676365
 20
26.06532282282946
 30
0.0
 11
-53.09424567519507
 21
26.06247494635708
 31
0.0
  0
LINE
  5
75CD9
330
1F
100
AcDbEntity
  8
0
100
AcDbLine
 10
-53.09377151289026
 20
26.06153535574304
 30
0.0
 11
-53.09375455745525
 21
26.062142783169
 31
0.0
  0
LINE
  5
75CDA
330
1F
100
AcDbEntity
  8
0
100
AcDbLine
 10
-53.09402096798845
 20
26.05256036261902
 30
0.0
 11
-53.09401158785096
 21
26.05293468489763
 31
0.0
  0
LINE
  5
75CDB
330
1F
100
AcDbEntity
  8
0
100
AcDbLine
 10
-53.09446984760493
 20
26.05257948298184
 30
0.0
 11
-53.09402096798845
 21
26.05256036261902
 31
0.0
  0
LINE
  5
75CDC
330
1F
100
AcDbEntity
  8
0
100
AcDbLine
 10
-52.81059976598994
 20
26.06051226378604
 30
0.0
 11
-53.09402096798845
 21
26.05256036261902
 31
0.0
  0
LINE
  5
75CDD
330
1F
100
AcDbEntity
  8
0
100
AcDbLine
 10
-53.45553889905723
 20
26.07255991043522
 30
0.0
 11
-53.09424567519498
 21
26.06247494635708
 31
0.0
  0
LINE
  5
75CDE
330
1F
100
AcDbEntity
  8
0
100
AcDbLine
 10
-52.87343849622118
 20
26.06863845101499
 30
0.0
 11
-52.76944977785497
 21
26.07154114173818
 31
0.0
  0
LINE
  5
75CDF
330
1F
100
AcDbEntity
  8
0
100
AcDbLine
 10
-52.87302984511926
 20
26.05874148677508
 30
0.0
 11
-52.76944977785497
 21
26.06163277060932
 31
0.0
  0
LINE
  5
75CE0
330
1F
100
AcDbEntity
  8
0
100
AcDbLine
 10
-53.09446984760493
 20
26.05257948298184
 30
0.0
 11
-53.09471909917443
 21
26.06150890527842
 31
0.0
  0
LINE
  5
75CE1
330
1F
100
AcDbEntity
  8
0
100
AcDbLine
 10
-53.09377225121571
 20
26.06150890527842
 30
0.0
 11
-53.09401158785096
 21
26.05293468489763
 31
0.0
  0
LINE
  5
75CE2
330
1F
100
AcDbEntity
  8
0
100
AcDbLine
 10
-53.45656010136866
 20
26.06271946818757
 30
0.0
 11
-53.09446984760493
 21
26.05256036261902
 31
0.0
  0
LINE
  5
75CE3
330
1F
100
AcDbEntity
  8
0
100
AcDbLine
 10
-52.87566372691367
 20
26.16888002860986
 30
0.0
 11
-53.09647090588747
 21
26.16271652395195
 31
0.0
  0
LINE
  5
75CE4
330
1F
100
AcDbEntity
  8
0
100
AcDbLine
 10
-52.99247995327901
 20
26.16561927704069
 30
0.0
 11
-53.09647090588743
 21
26.16271652395195
 31
0.0
  0
LINE
  5
75CE5
330
1F
100
AcDbEntity
  8
0
100
AcDbLine
 10
-53.09694506819238
 20
26.16177693333792
 30
0.0
 11
-53.09696202362737
 21
26.16238436076387
 31
0.0
  0
LINE
  5
75CE6
330
1F
100
AcDbEntity
  8
0
100
AcDbLine
 10
-53.19849590705749
 20
26.16556440042434
 30
0.0
 11
-53.09647090588756
 21
26.16271652395195
 31
0.0
  0
LINE
  5
75CE7
330
1F
100
AcDbEntity
  8
0
100
AcDbLine
 10
-53.09599674358274
 20
26.16177693333792
 30
0.0
 11
-53.09597978814775
 21
26.16238436076387
 31
0.0
  0
LINE
  5
75CE8
330
1F
100
AcDbEntity
  8
0
100
AcDbLine
 10
-53.09624619868094
 20
26.15280194021389
 30
0.0
 11
-53.09623681854345
 21
26.15317626249251
 31
0.0
  0
LINE
  5
75CE9
330
1F
100
AcDbEntity
  8
0
100
AcDbLine
 10
-53.09669507829742
 20
26.15282106057671
 30
0.0
 11
-53.09624619868094
 21
26.15280194021389
 31
0.0
  0
LINE
  5
75CEA
330
1F
100
AcDbEntity
  8
0
100
AcDbLine
 10
-52.81282499668243
 20
26.16075384138091
 30
0.0
 11
-53.09624619868094
 21
26.15280194021389
 31
0.0
  0
LINE
  5
75CEB
330
1F
100
AcDbEntity
  8
0
100
AcDbLine
 10
-53.45776412974972
 20
26.17280148803009
 30
0.0
 11
-53.09647090588747
 21
26.16271652395195
 31
0.0
  0
LINE
  5
75CEC
330
1F
100
AcDbEntity
  8
0
100
AcDbLine
 10
-52.87566372691367
 20
26.16888002860986
 30
0.0
 11
-52.77167500854746
 21
26.17178271933305
 31
0.0
  0
LINE
  5
75CED
330
1F
100
AcDbEntity
  8
0
100
AcDbLine
 10
-52.87525507581175
 20
26.15898306436995
 30
0.0
 11
-52.77167500854746
 21
26.16187434820419
 31
0.0
  0
LINE
  5
75CEE
330
1F
100
AcDbEntity
  8
0
100
AcDbLine
 10
-53.09669507829742
 20
26.15282106057671
 30
0.0
 11
-53.09694432986692
 21
26.16175048287329
 31
0.0
  0
LINE
  5
75CEF
330
1F
100
AcDbEntity
  8
0
100
AcDbLine
 10
-53.09599748190819
 20
26.16175048287329
 30
0.0
 11
-53.09623681854345
 21
26.15317626249251
 31
0.0
  0
LINE
  5
75CF0
330
1F
100
AcDbEntity
  8
0
100
AcDbLine
 10
-53.45878533206114
 20
26.16296104578244
 30
0.0
 11
-53.09669507829742
 21
26.15280194021389
 31
0.0
  0
LINE
  5
75CF1
330
1F
100
AcDbEntity
  8
0
100
AcDbLine
 10
-52.8689880348362
 20
25.75900323297961
 30
0.0
 11
-53.08979521381001
 21
25.7528397283217
 31
0.0
  0
LINE
  5
75CF2
330
1F
100
AcDbEntity
  8
0
100
AcDbLine
 10
-52.98580426120154
 20
25.75574248141044
 30
0.0
 11
-53.08979521380996
 21
25.75283972832169
 31
0.0
  0
LINE
  5
75CF3
330
1F
100
AcDbEntity
  8
0
100
AcDbLine
 10
-53.09026937611491
 20
25.75190013770766
 30
0.0
 11
-53.09028633154991
 21
25.75250756513362
 31
0.0
  0
LINE
  5
75CF4
330
1F
100
AcDbEntity
  8
0
100
AcDbLine
 10
-53.19182021498003
 20
25.75568760479408
 30
0.0
 11
-53.0897952138101
 21
25.75283972832169
 31
0.0
  0
LINE
  5
75CF5
330
1F
100
AcDbEntity
  8
0
100
AcDbLine
 10
-53.08932105150528
 20
25.75190013770766
 30
0.0
 11
-53.08930409607028
 21
25.75250756513362
 31
0.0
  0
LINE
  5
75CF6
330
1F
100
AcDbEntity
  8
0
100
AcDbLine
 10
-53.08957050660348
 20
25.74292514458364
 30
0.0
 11
-53.08956112646598
 21
25.74329946686225
 31
0.0
  0
LINE
  5
75CF7
330
1F
100
AcDbEntity
  8
0
100
AcDbLine
 10
-53.09001938621995
 20
25.74294426494646
 30
0.0
 11
-53.08957050660348
 21
25.74292514458364
 31
0.0
  0
LINE
  5
75CF8
330
1F
100
AcDbEntity
  8
0
100
AcDbLine
 10
-52.80614930460497
 20
25.75087704575065
 30
0.0
 11
-53.08957050660348
 21
25.74292514458364
 31
0.0
  0
LINE
  5
75CF9
330
1F
100
AcDbEntity
  8
0
100
AcDbLine
 10
-53.45108843767225
 20
25.76292469239984
 30
0.0
 11
-53.08979521381001
 21
25.7528397283217
 31
0.0
  0
LINE
  5
75CFA
330
1F
100
AcDbEntity
  8
0
100
AcDbLine
 10
-52.8689880348362
 20
25.75900323297961
 30
0.0
 11
-52.76499931646999
 21
25.76190592370279
 31
0.0
  0
LINE
  5
75CFB
330
1F
100
AcDbEntity
  8
0
100
AcDbLine
 10
-52.86857938373429
 20
25.7491062687397
 30
0.0
 11
-52.76499931646999
 21
25.75199755257394
 31
0.0
  0
LINE
  5
75CFC
330
1F
100
AcDbEntity
  8
0
100
AcDbLine
 10
-53.09001938621995
 20
25.74294426494646
 30
0.0
 11
-53.09026863778946
 21
25.75187368724304
 31
0.0
  0
LINE
  5
75CFD
330
1F
100
AcDbEntity
  8
0
100
AcDbLine
 10
-53.08932178983074
 20
25.75187368724304
 30
0.0
 11
-53.08956112646598
 21
25.74329946686225
 31
0.0
  0
LINE
  5
75CFE
330
1F
100
AcDbEntity
  8
0
100
AcDbLine
 10
-53.45210963998368
 20
25.75308425015219
 30
0.0
 11
-53.09001938621995
 21
25.74292514458364
 31
0.0
  0
LINE
  5
75CFF
330
1F
100
AcDbEntity
  8
0
100
AcDbLine
 10
-52.86676280414372
 20
25.85924488052264
 30
0.0
 11
-53.08756998311752
 21
25.85308137586473
 31
0.0
  0
LINE
  5
75D00
330
1F
100
AcDbEntity
  8
0
100
AcDbLine
 10
-52.98357903050906
 20
25.85598412895347
 30
0.0
 11
-53.08756998311747
 21
25.85308137586472
 31
0.0
  0
LINE
  5
75D01
330
1F
100
AcDbEntity
  8
0
100
AcDbLine
 10
-53.08804414542243
 20
25.85214178525069
 30
0.0
 11
-53.08806110085742
 21
25.85274921267665
 31
0.0
  0
LINE
  5
75D02
330
1F
100
AcDbEntity
  8
0
100
AcDbLine
 10
-53.18959498428753
 20
25.85592925233711
 30
0.0
 11
-53.08756998311761
 21
25.85308137586472
 31
0.0
  0
LINE
  5
75D03
330
1F
100
AcDbEntity
  8
0
100
AcDbLine
 10
-53.08709582081279
 20
25.85214178525069
 30
0.0
 11
-53.08707886537779
 21
25.85274921267665
 31
0.0
  0
LINE
  5
75D04
330
1F
100
AcDbEntity
  8
0
100
AcDbLine
 10
-53.08734527591099
 20
25.84316679212666
 30
0.0
 11
-53.0873358957735
 21
25.84354111440528
 31
0.0
  0
LINE
  5
75D05
330
1F
100
AcDbEntity
  8
0
100
AcDbLine
 10
-53.08779415552746
 20
25.84318591248949
 30
0.0
 11
-53.08734527591099
 21
25.84316679212666
 31
0.0
  0
LINE
  5
75D06
330
1F
100
AcDbEntity
  8
0
100
AcDbLine
 10
-52.80392407391247
 20
25.85111869329368
 30
0.0
 11
-53.08734527591099
 21
25.84316679212666
 31
0.0
  0
LINE
  5
75D07
330
1F
100
AcDbEntity
  8
0
100
AcDbLine
 10
-53.44886320697977
 20
25.86316633994287
 30
0.0
 11
-53.08756998311752
 21
25.85308137586473
 31
0.0
  0
LINE
  5
75D08
330
1F
100
AcDbEntity
  8
0
100
AcDbLine
 10
-52.86676280414372
 20
25.85924488052264
 30
0.0
 11
-52.76277408577751
 21
25.86214757124583
 31
0.0
  0
LINE
  5
75D09
330
1F
100
AcDbEntity
  8
0
100
AcDbLine
 10
-52.86635415304179
 20
25.84934791628273
 30
0.0
 11
-52.76277408577751
 21
25.85223920011697
 31
0.0
  0
LINE
  5
75D0A
330
1F
100
AcDbEntity
  8
0
100
AcDbLine
 10
-53.08779415552746
 20
25.84318591248949
 30
0.0
 11
-53.08804340709697
 21
25.85211533478607
 31
0.0
  0
LINE
  5
75D0B
330
1F
100
AcDbEntity
  8
0
100
AcDbLine
 10
-53.08709655913824
 20
25.85211533478607
 30
0.0
 11
-53.0873358957735
 21
25.84354111440528
 31
0.0
  0
LINE
  5
75D0C
330
1F
100
AcDbEntity
  8
0
100
AcDbLine
 10
-53.44988440929119
 20
25.85332589769522
 30
0.0
 11
-53.08779415552746
 21
25.84316679212666
 31
0.0
  0
LINE
  5
75D0D
330
1F
100
AcDbEntity
  8
0
100
AcDbLine
 10
-52.86008707906418
 20
25.57634076849872
 30
0.0
 11
-53.08089425803799
 21
25.57017726384082
 31
0.0
  0
LINE
  5
75D0E
330
1F
100
AcDbEntity
  8
0
100
AcDbLine
 10
-52.97690330542952
 20
25.57308001692956
 30
0.0
 11
-53.08089425803794
 21
25.57017726384081
 31
0.0
  0
LINE
  5
75D0F
330
1F
100
AcDbEntity
  8
0
100
AcDbLine
 10
-53.0813684203429
 20
25.56923767322678
 30
0.0
 11
-53.08138537577789
 21
25.56984510065273
 31
0.0
  0
LINE
  5
75D10
330
1F
100
AcDbEntity
  8
0
100
AcDbLine
 10
-53.182919259208
 20
25.5730251403132
 30
0.0
 11
-53.08089425803808
 21
25.57017726384081
 31
0.0
  0
LINE
  5
75D11
330
1F
100
AcDbEntity
  8
0
100
AcDbLine
 10
-53.08042009573326
 20
25.56923767322678
 30
0.0
 11
-53.08040314029826
 21
25.56984510065273
 31
0.0
  0
LINE
  5
75D12
330
1F
100
AcDbEntity
  8
0
100
AcDbLine
 10
-53.08066955083146
 20
25.56026268010275
 30
0.0
 11
-53.08066017069396
 21
25.56063700238137
 31
0.0
  0
LINE
  5
75D13
330
1F
100
AcDbEntity
  8
0
100
AcDbLine
 10
-53.08111843044793
 20
25.56028180046557
 30
0.0
 11
-53.08066955083146
 21
25.56026268010275
 31
0.0
  0
LINE
  5
75D14
330
1F
100
AcDbEntity
  8
0
100
AcDbLine
 10
-52.79724834883294
 20
25.56821458126977
 30
0.0
 11
-53.08066955083146
 21
25.56026268010275
 31
0.0
  0
LINE
  5
75D15
330
1F
100
AcDbEntity
  8
0
100
AcDbLine
 10
-53.44218748190023
 20
25.58026222791895
 30
0.0
 11
-53.08089425803799
 21
25.57017726384082
 31
0.0
  0
LINE
  5
75D16
330
1F
100
AcDbEntity
  8
0
100
AcDbLine
 10
-52.86008707906418
 20
25.57634076849872
 30
0.0
 11
-52.75609836069797
 21
25.57924345922191
 31
0.0
  0
LINE
  5
75D17
330
1F
100
AcDbEntity
  8
0
100
AcDbLine
 10
-52.85967842796226
 20
25.56644380425881
 30
0.0
 11
-52.75609836069797
 21
25.56933508809305
 31
0.0
  0
LINE
  5
75D18
330
1F
100
AcDbEntity
  8
0
100
AcDbLine
 10
-53.08111843044793
 20
25.56028180046557
 30
0.0
 11
-53.08136768201744
 21
25.56921122276215
 31
0.0
  0
LINE
  5
75D19
330
1F
100
AcDbEntity
  8
0
100
AcDbLine
 10
-53.08042083405871
 20
25.56921122276215
 30
0.0
 11
-53.08066017069396
 21
25.56063700238137
 31
0.0
  0
LINE
  5
75D1A
330
1F
100
AcDbEntity
  8
0
100
AcDbLine
 10
-53.44320868421166
 20
25.5704217856713
 30
0.0
 11
-53.08111843044793
 21
25.56026268010275
 31
0.0
  0
LINE
  5
75D1B
330
1F
100
AcDbEntity
  8
0
100
AcDbLine
 10
-52.86676280414372
 20
25.47609919090385
 30
0.0
 11
-53.08756998311752
 21
25.46993568624595
 31
0.0
  0
LINE
  5
75D1C
330
1F
100
AcDbEntity
  8
0
100
AcDbLine
 10
-52.98357903050906
 20
25.47283843933469
 30
0.0
 11
-53.08756998311747
 21
25.46993568624594
 31
0.0
  0
LINE
  5
75D1D
330
1F
100
AcDbEntity
  8
0
100
AcDbLine
 10
-53.08804414542243
 20
25.46899609563191
 30
0.0
 11
-53.08806110085742
 21
25.46960352305786
 31
0.0
  0
LINE
  5
75D1E
330
1F
100
AcDbEntity
  8
0
100
AcDbLine
 10
-53.18959498428753
 20
25.47278356271832
 30
0.0
 11
-53.08756998311761
 21
25.46993568624594
 31
0.0
  0
LINE
  5
75D1F
330
1F
100
AcDbEntity
  8
0
100
AcDbLine
 10
-53.08709582081279
 20
25.46899609563191
 30
0.0
 11
-53.08707886537779
 21
25.46960352305786
 31
0.0
  0
LINE
  5
75D20
330
1F
100
AcDbEntity
  8
0
100
AcDbLine
 10
-53.08734527591099
 20
25.46002110250788
 30
0.0
 11
-53.0873358957735
 21
25.46039542478649
 31
0.0
  0
LINE
  5
75D21
330
1F
100
AcDbEntity
  8
0
100
AcDbLine
 10
-53.08779415552746
 20
25.4600402228707
 30
0.0
 11
-53.08734527591099
 21
25.46002110250788
 31
0.0
  0
LINE
  5
75D22
330
1F
100
AcDbEntity
  8
0
100
AcDbLine
 10
-52.80392407391247
 20
25.4679730036749
 30
0.0
 11
-53.08734527591099
 21
25.46002110250788
 31
0.0
  0
LINE
  5
75D23
330
1F
100
AcDbEntity
  8
0
100
AcDbLine
 10
-53.44886320697977
 20
25.48002065032408
 30
0.0
 11
-53.08756998311752
 21
25.46993568624595
 31
0.0
  0
LINE
  5
75D24
330
1F
100
AcDbEntity
  8
0
100
AcDbLine
 10
-52.86676280414372
 20
25.47609919090385
 30
0.0
 11
-52.76277408577751
 21
25.47900188162704
 31
0.0
  0
LINE
  5
75D25
330
1F
100
AcDbEntity
  8
0
100
AcDbLine
 10
-52.86635415304179
 20
25.46620222666394
 30
0.0
 11
-52.76277408577751
 21
25.46909351049818
 31
0.0
  0
LINE
  5
75D26
330
1F
100
AcDbEntity
  8
0
100
AcDbLine
 10
-53.08779415552746
 20
25.4600402228707
 30
0.0
 11
-53.08804340709697
 21
25.46896964516728
 31
0.0
  0
LINE
  5
75D27
330
1F
100
AcDbEntity
  8
0
100
AcDbLine
 10
-53.08709655913824
 20
25.46896964516728
 30
0.0
 11
-53.0873358957735
 21
25.46039542478649
 31
0.0
  0
LINE
  5
75D28
330
1F
100
AcDbEntity
  8
0
100
AcDbLine
 10
-53.44988440929119
 20
25.47018020807643
 30
0.0
 11
-53.08779415552746
 21
25.46002110250788
 31
0.0
  0
LINE
  5
75D2B
330
1F
100
AcDbEntity
  8
0
100
AcDbLine
 10
-53.17585681382701
 20
25.31534022074544
 30
0.0
 11
-53.18585681382702
 21
25.31534022074546
 31
0.0
  0
LINE
  5
75D2C
330
1F
100
AcDbEntity
  8
0
100
AcDbLine
 10
-53.18585681382702
 20
25.31534022074546
 30
0.0
 11
-53.18585681382701
 21
25.34000215014865
 31
0.0
  0
LINE
  5
75D2D
330
1F
100
AcDbEntity
  8
0
100
AcDbLine
 10
-53.17585681382701
 20
25.33032852322357
 30
0.0
 11
-53.17585681382701
 21
25.31534022074544
 31
0.0
  0
LINE
  5
75D2E
330
1F
100
AcDbEntity
  8
0
100
AcDbLine
 10
-53.17585681382701
 20
25.31534022074544
 30
0.0
 11
-53.3158947427303
 21
25.31534022074545
 31
0.0
  0
LINE
  5
75D2F
330
1F
100
AcDbEntity
  8
0
100
AcDbLine
 10
-53.3158947427303
 20
25.31534022074545
 30
0.0
 11
-53.32589474273031
 21
25.31534022074544
 31
0.0
  0
LINE
  5
75D30
330
1F
100
AcDbEntity
  8
0
100
AcDbLine
 10
-53.32589474273031
 20
25.31534022074544
 30
0.0
 11
-53.32589474273031
 21
25.34844226866285
 31
0.0
  0
LINE
  5
75D32
330
1F
100
AcDbEntity
  8
0
100
AcDbLine
 10
-53.3158947427303
 20
25.34957636972991
 30
0.0
 11
-53.3158947427303
 21
25.31534022074545
 31
0.0
  0
LINE
  5
75D33
330
1F
100
AcDbEntity
  8
0
100
AcDbLine
 10
-53.44368796455031
 20
25.34073321313262
 30
0.0
 11
-53.44368796455037
 21
25.31534022074544
 31
0.0
  0
LINE
  5
75D34
330
1F
100
AcDbEntity
  8
0
100
AcDbLine
 10
-53.44368796455037
 20
25.31534022074544
 30
0.0
 11
-53.45368796455032
 21
25.31534022074544
 31
0.0
  0
LINE
  5
75D35
330
1F
100
AcDbEntity
  8
0
100
AcDbLine
 10
-53.45368796455032
 20
25.31534022074544
 30
0.0
 11
-53.45368796455031
 21
25.33160699424268
 31
0.0
  0
LINE
  5
75D36
330
1F
100
AcDbEntity
  8
0
100
AcDbLine
 10
-53.03281135614865
 20
25.34640935534701
 30
0.0
 11
-53.03281135614865
 21
25.31534022074543
 31
0.0
  0
LINE
  5
75D37
330
1F
100
AcDbEntity
  8
0
100
AcDbLine
 10
-53.03281135614865
 20
25.31534022074543
 30
0.0
 11
-53.02281135614865
 21
25.31534022074544
 31
0.0
  0
LINE
  5
75D38
330
1F
100
AcDbEntity
  8
0
100
AcDbLine
 10
-53.02281135614865
 20
25.31534022074544
 30
0.0
 11
-53.02281135614865
 21
25.34901090291539
 31
0.0
  0
LINE
  5
75D39
330
1F
100
AcDbEntity
  8
0
100
AcDbLine
 10
-52.8736134455627
 20
25.32721274479959
 30
0.0
 11
-52.87361344556277
 21
25.31582066615141
 31
0.0
  0
LINE
  5
75D3A
330
1F
100
AcDbEntity
  8
0
100
AcDbLine
 10
-52.87361344556277
 20
25.31582066615141
 30
0.0
 11
-52.8836134455627
 21
25.31582066615141
 31
0.0
  0
LINE
  5
75D3B
330
1F
100
AcDbEntity
  8
0
100
AcDbLine
 10
-52.8836134455627
 20
25.31582066615141
 30
0.0
 11
-52.8836134455627
 21
25.33826970737615
 31
0.0
  0
LINE
  5
75D3C
330
1F
100
AcDbEntity
  8
0
100
AcDbLine
 10
-52.77258248346042
 20
25.32559154329566
 30
0.0
 11
-52.77258248346038
 21
25.3158206661514
 31
0.0
  0
LINE
  5
75D3D
330
1F
100
AcDbEntity
  8
0
100
AcDbLine
 10
-52.77258248346038
 20
25.3158206661514
 30
0.0
 11
-52.75208975863094
 21
25.31582066615138
 31
0.0
  0
LINE
  5
75D3E
330
1F
100
AcDbEntity
  8
0
100
AcDbLine
 10
-52.75208975863094
 20
25.31582066615138
 30
0.0
 11
-52.75208975863093
 21
25.33343096979156
 31
0.0
  0
LINE
  5
75D3F
330
1F
100
AcDbEntity
  8
0
100
AcDbLine
 10
-52.65308975863092
 20
25.33231074801255
 30
0.0
 11
-52.65308975863095
 21
25.31582066615128
 31
0.0
  0
LINE
  5
75DA0
330
1F
100
AcDbEntity
  8
0
100
AcDbLine
 10
-53.15169975039387
 20
23.58387666547884
 30
0.0
 11
-53.15428794084489
 21
23.58353592374174
 31
0.0
  0
LINE
  5
75DA1
330
1F
100
AcDbEntity
  8
0
100
AcDbLine
 10
-53.14462868258201
 20
23.59094773329071
 30
0.0
 11
-53.14562768680705
 21
23.58853592374174
 31
0.0
  0
LINE
  5
75DA2
330
1F
100
AcDbEntity
  8
0
100
AcDbLine
 10
-53.14562768680705
 20
23.58853592374174
 30
0.0
 11
-53.14721687303303
 21
23.58646485592987
 31
0.0
  0
LINE
  5
75DA3
330
1F
100
AcDbEntity
  8
0
100
AcDbLine
 10
-53.16294819488274
 20
23.58853592374174
 30
0.0
 11
-53.16394719910778
 21
23.59094773329071
 31
0.0
  0
LINE
  5
75DA4
330
1F
100
AcDbEntity
  8
0
100
AcDbLine
 10
-53.1592879408449
 20
23.58487566970389
 30
0.0
 11
-53.16135900865676
 21
23.58646485592987
 31
0.0
  0
LINE
  5
75DA5
330
1F
100
AcDbEntity
  8
0
100
AcDbLine
 10
-53.14721687303303
 20
23.58646485592987
 30
0.0
 11
-53.1492879408449
 21
23.58487566970389
 31
0.0
  0
LINE
  5
75DA6
330
1F
100
AcDbEntity
  8
0
100
AcDbLine
 10
-53.15169975039387
 20
23.75520571609143
 30
0.0
 11
-53.15428794084489
 21
23.75515685645998
 31
0.0
  0
LINE
  5
75DA7
330
1F
100
AcDbEntity
  8
0
100
AcDbLine
 10
-53.1492879408449
 20
23.75534896528263
 30
0.0
 11
-53.15169975039387
 21
23.75520571609143
 31
0.0
  0
LINE
  5
75DA8
330
1F
100
AcDbEntity
  8
0
100
AcDbLine
 10
-53.1442879408449
 20
23.59353592374174
 30
0.0
 11
-53.14462868258201
 21
23.59094773329071
 31
0.0
  0
LINE
  5
75DA9
330
1F
100
AcDbEntity
  8
0
100
AcDbLine
 10
-53.14721687303303
 20
23.75557684183795
 30
0.0
 11
-53.1492879408449
 21
23.75534896528263
 31
0.0
  0
LINE
  5
75DAA
330
1F
100
AcDbEntity
  8
0
100
AcDbLine
 10
-53.16135900865676
 20
23.58646485592987
 30
0.0
 11
-53.16294819488274
 21
23.58853592374174
 31
0.0
  0
LINE
  5
75DAB
330
1F
100
AcDbEntity
  8
0
100
AcDbLine
 10
-53.15687613129592
 20
23.75520571609143
 30
0.0
 11
-53.1592879408449
 21
23.75534896528263
 31
0.0
  0
LINE
  5
75DAC
330
1F
100
AcDbEntity
  8
0
100
AcDbLine
 10
-53.16135900865676
 20
23.75557684183795
 30
0.0
 11
-53.16294819488274
 21
23.75587381634672
 31
0.0
  0
LINE
  5
75DAD
330
1F
100
AcDbEntity
  8
0
100
AcDbLine
 10
-53.16294819488274
 20
23.75587381634672
 30
0.0
 11
-53.16394719910778
 21
23.75621965048693
 31
0.0
  0
LINE
  5
75DAE
330
1F
100
AcDbEntity
  8
0
100
AcDbLine
 10
-53.1592879408449
 20
23.75534896528263
 30
0.0
 11
-53.16135900865676
 21
23.75557684183795
 31
0.0
  0
LINE
  5
75DAF
330
1F
100
AcDbEntity
  8
0
100
AcDbLine
 10
-53.14462868258201
 20
23.75621965048693
 30
0.0
 11
-53.14562768680705
 21
23.75587381634672
 31
0.0
  0
LINE
  5
75DB0
330
1F
100
AcDbEntity
  8
0
100
AcDbLine
 10
-53.1442879408449
 20
23.75659077623346
 30
0.0
 11
-53.14462868258201
 21
23.75621965048693
 31
0.0
  0
LINE
  5
75DB1
330
1F
100
AcDbEntity
  8
0
100
AcDbLine
 10
-53.16394719910778
 20
23.75621965048693
 30
0.0
 11
-53.1642879408449
 21
23.75659077623346
 31
0.0
  0
LINE
  5
75DB2
330
1F
100
AcDbEntity
  8
0
100
AcDbLine
 10
-53.14562768680705
 20
23.75587381634672
 30
0.0
 11
-53.14721687303303
 21
23.75557684183795
 31
0.0
  0
LINE
  5
75DB3
330
1F
100
AcDbEntity
  8
0
100
AcDbLine
 10
-53.16394719910778
 20
23.59094773329071
 30
0.0
 11
-53.1642879408449
 21
23.59353592374174
 31
0.0
  0
LINE
  5
75DB4
330
1F
100
AcDbEntity
  8
0
100
AcDbLine
 10
-53.15687613129592
 20
23.58387666547884
 30
0.0
 11
-53.1592879408449
 21
23.58487566970389
 31
0.0
  0
LINE
  5
75DB5
330
1F
100
AcDbEntity
  8
0
100
AcDbLine
 10
-53.15428794084489
 20
23.58353592374174
 30
0.0
 11
-53.15687613129592
 21
23.58387666547884
 31
0.0
  0
LINE
  5
75DB6
330
1F
100
AcDbEntity
  8
0
100
AcDbLine
 10
-53.1492879408449
 20
23.58487566970389
 30
0.0
 11
-53.15169975039387
 21
23.58387666547884
 31
0.0
  0
LINE
  5
75DB7
330
1F
100
AcDbEntity
  8
0
100
AcDbLine
 10
-53.15428794084489
 20
23.75515685645998
 30
0.0
 11
-53.15687613129592
 21
23.75520571609143
 31
0.0
  0
LINE
  5
75DB8
330
1F
100
AcDbEntity
  8
0
100
AcDbLine
 10
-53.1642879408449
 20
24.02353592374174
 30
0.0
 11
-53.1642879408449
 21
23.75659077623346
 31
0.0
  0
LINE
  5
75DB9
330
1F
100
AcDbEntity
  8
0
100
AcDbLine
 10
-53.1442879408449
 20
24.02353592374174
 30
0.0
 11
-53.1442879408449
 21
23.75659077623346
 31
0.0
  0
LINE
  5
75DBA
330
1F
100
AcDbEntity
  8
0
100
AcDbLine
 10
-53.1642879408449
 20
23.59353592374174
 30
0.0
 11
-53.1642879408449
 21
23.75659077623346
 31
0.0
  0
LINE
  5
75DBB
330
1F
100
AcDbEntity
  8
0
100
AcDbLine
 10
-53.1442879408449
 20
23.59353592374174
 30
0.0
 11
-53.1442879408449
 21
23.75659077623346
 31
0.0
  0
LINE
  5
75DE6
330
1F
100
AcDbEntity
  8
0
100
AcDbLine
 10
-53.97589621590894
 20
29.33312222108952
 30
0.0
 11
-53.97589621590894
 21
29.32560151552525
 31
0.0
  0
ARC
  5
75DE7
330
1F
100
AcDbEntity
  8
0
100
AcDbCircle
 10
-54.18767505271561
 20
29.29112033049111
 30
0.0
 40
0.2159037622021181
100
AcDbArc
 50
11.21784554596368
 51
68.06988858199083
  0
ARC
  5
75DE8
330
1F
100
AcDbEntity
  8
0
100
AcDbCircle
 10
-54.18619540413719
 20
29.29546217187232
 30
0.0
 40
0.172945637548428
100
AcDbArc
 50
10.03621556097319
 51
62.76200311054863
  0
LINE
  5
75DE9
330
1F
100
AcDbEntity
  8
0
100
AcDbLine
 10
-54.01589621590893
 20
29.32560151552525
 30
0.0
 11
-54.01589621590893
 21
29.05051593163098
 31
0.0
  0
LINE
  5
75DEA
330
1F
100
AcDbEntity
  8
0
100
AcDbLine
 10
-53.9758962159089
 20
29.05051593163098
 30
0.0
 11
-53.97589621590894
 21
29.33312222108952
 31
0.0
  0
LINE
  5
75DEB
330
1F
100
AcDbEntity
  8
0
100
AcDbLine
 10
-53.97589621590894
 20
28.76790964217244
 30
0.0
 11
-53.97589621590894
 21
28.77543034773671
 31
0.0
  0
ARC
  5
75DEC
330
1F
100
AcDbEntity
  8
0
100
AcDbCircle
 10
-54.18767505271561
 20
28.80991153277085
 30
0.0
 40
0.2159037622021181
100
AcDbArc
 50
291.93011141801
 51
348.7821544540363
  0
ARC
  5
75DED
330
1F
100
AcDbEntity
  8
0
100
AcDbCircle
 10
-54.18619540413719
 20
28.80556969138964
 30
0.0
 40
0.172945637548428
100
AcDbArc
 50
297.2379968894522
 51
349.9637844390268
  0
LINE
  5
75DEE
330
1F
100
AcDbEntity
  8
0
100
AcDbLine
 10
-54.01589621590893
 20
28.77543034773671
 30
0.0
 11
-54.01589621590893
 21
29.05051593163098
 31
0.0
  0
LINE
  5
75DEF
330
1F
100
AcDbEntity
  8
0
100
AcDbLine
 10
-53.9758962159089
 20
29.05051593163098
 30
0.0
 11
-53.97589621590894
 21
28.76790964217244
 31
0.0
  0
LINE
  5
75E14
330
1F
100
AcDbEntity
  8
STREFA BEZPIECZEŃSTWA
100
AcDbLine
 10
-51.35169975039389
 20
22.35954784544263
 30
0.0
 11
-51.35169975039388
 21
21.78387666547884
 31
0.0
  0
LINE
  5
75E15
330
1F
100
AcDbEntity
  8
STREFA BEZPIECZEŃSTWA
100
AcDbLine
 10
-49.9006378970408
 20
26.84517965617215
 30
0.0
 11
-49.9006378970408
 21
22.35954784544263
 31
0.0
  0
LINE
  5
75E16
330
1F
100
AcDbEntity
  8
STREFA BEZPIECZEŃSTWA
100
AcDbLine
 10
-49.9006378970408
 20
22.35954784544263
 30
0.0
 11
-51.35169975039389
 21
22.35954784544263
 31
0.0
  0
LINE
  5
75E17
330
1F
100
AcDbEntity
  8
STREFA BEZPIECZEŃSTWA
100
AcDbLine
 10
-50.67589621590898
 20
29.87709437886522
 30
0.0
 11
-50.67589621590898
 21
26.84517965617216
 31
0.0
  0
LINE
  5
75E18
330
1F
100
AcDbEntity
  8
STREFA BEZPIECZEŃSTWA
100
AcDbLine
 10
-49.9006378970408
 20
26.84517965617215
 30
0.0
 11
-50.67589621590898
 21
26.84517965617216
 31
0.0
  0
LINE
  5
75E19
330
1F
100
AcDbEntity
  8
STREFA BEZPIECZEŃSTWA
100
AcDbLine
 10
-52.17589621590899
 20
29.87709437886522
 30
0.0
 11
-52.17589621590894
 21
31.50406584151447
 31
0.0
  0
LINE
  5
75E1E
330
1F
100
AcDbEntity
  8
STREFA BEZPIECZEŃSTWA
100
AcDbLine
 10
-52.17589621590894
 20
31.50406584151447
 30
0.0
 11
-57.25559040969827
 21
31.50406584151446
 31
0.0
  0
LINE
  5
75E38
330
1F
100
AcDbEntity
  8
STREFA BEZPIECZEŃSTWA
100
AcDbLine
 10
-51.35169975039388
 20
21.78387666547884
 30
0.0
 11
-54.96394719910774
 21
21.78387666547884
 31
0.0
  0
LINE
  5
75E39
330
1F
100
AcDbEntity
  8
STREFA BEZPIECZEŃSTWA
100
AcDbLine
 10
-54.96394719910774
 20
21.78387666547884
 30
0.0
 11
-54.96394719910774
 21
22.35954784544264
 31
0.0
  0
LINE
  5
75E3A
330
1F
100
AcDbEntity
  8
STREFA BEZPIECZEŃSTWA
100
AcDbLine
 10
-54.96394719910774
 20
22.35954784544264
 30
0.0
 11
-59.89226107118101
 21
22.35954784544265
 31
0.0
  0
LINE
  5
75E3B
330
1F
100
AcDbEntity
  8
STREFA BEZPIECZEŃSTWA
100
AcDbLine
 10
-59.89226107118101
 20
22.35954784544265
 30
0.0
 11
-59.89226107118101
 21
30.92762366945756
 31
0.0
  0
LINE
  5
75E3C
330
1F
100
AcDbEntity
  8
STREFA BEZPIECZEŃSTWA
100
AcDbLine
 10
-59.89226107118101
 20
30.92762366945756
 30
0.0
 11
-57.25559040969816
 21
30.92762366945757
 31
0.0
  0
LINE
  5
75E3D
330
1F
100
AcDbEntity
  8
STREFA BEZPIECZEŃSTWA
100
AcDbLine
 10
-57.25559040969816
 20
30.92762366945757
 30
0.0
 11
-57.25559040969827
 21
31.50406584151446
 31
0.0
  0
LINE
  5
75E3E
330
1F
100
AcDbEntity
  8
STREFA BEZPIECZEŃSTWA
100
AcDbLine
 10
-52.17589621590899
 20
29.87709437886522
 30
0.0
 11
-50.67589621590898
 21
29.87709437886522
 31
0.0
  0
LINE
  5
75E6F
330
1F
100
AcDbEntity
  8
WYMIAR
100
AcDbLine
 10
-59.83226107118101
 20
32.69559300535308
 30
0.0
 11
-49.9606378970408
 21
32.69559300535308
 31
0.0
  0
INSERT
  5
75E70
330
1F
100
AcDbEntity
  8
WYMIAR
100
AcDbBlockReference
  2
MAR-STRZ
 10
-59.89226107118101
 20
32.69559300535308
 30
0.0
 41
0.06
 42
0.06
 43
0.06
 50
180.0
  0
INSERT
  5
75E71
330
1F
100
AcDbEntity
  8
WYMIAR
100
AcDbBlockReference
  2
MAR-STRZ
 10
-49.9006378970408
 20
32.69559300535308
 30
0.0
 41
0.06
 42
0.06
 43
0.06
  0
MTEXT
  5
75E72
330
1F
100
AcDbEntity
  8
WYMIAR
100
AcDbMText
 10
-54.8964494841109
 20
33.04960772967109
 30
0.0
 40
0.4
 41
0.0
 71
     5
 72
     1
  1
\A1;10.00
  7
AR 01 SWIS
 73
     1
 44
1.0
  0
LINE
  5
75E73
330
1F
100
AcDbEntity
  8
WYMIAR
100
AcDbLine
 10
-61.63051814241945
 20
31.44406584151446
 30
0.0
 11
-61.63051814241945
 21
21.84387666547884
 31
0.0
  0
INSERT
  5
75E74
330
1F
100
AcDbEntity
  8
WYMIAR
100
AcDbBlockReference
  2
MAR-STRZ
 10
-61.63051814241945
 20
31.50406584151446
 30
0.0
 41
0.06
 42
0.06
 43
0.06
 50
90.0
  0
INSERT
  5
75E75
330
1F
100
AcDbEntity
  8
WYMIAR
100
AcDbBlockReference
  2
MAR-STRZ
 10
-61.63051814241945
 20
21.78387666547884
 30
0.0
 41
0.06
 42
0.06
 43
0.06
 50
270.0
  0
MTEXT
  5
75E76
330
1F
100
AcDbEntity
  8
WYMIAR
100
AcDbMText
 10
-62.00636523228819
 20
26.64397125349664
 30
0.0
 40
0.4
 41
0.0
 71
     5
 72
     1
  1
\A1;9.70
  7
AR 01 SWIS
 11
0.0000000000000001
 21
1.0
 31
0.0
 73
     1
 44
1.0
  0
VIEWPORT
  5
7CA
330
1B
100
AcDbEntity
 67
     1
  8
0
100
AcDbViewport
 10
163.4989016524326
 20
195.3375876413696
 30
0.0
 40
698.2942801405966
 41
353.4951741932161
 68
     1
 69
     1
 12
163.4989016524326
 22
195.3375876413696
 13
0.0
 23
0.0
 14
10.0
 24
10.0
 15
10.0
 25
10.0
 16
0.0
 26
0.0
 36
1.0
 17
0.0
 27
0.0
 37
0.0
 42
50.0
 43
0.0
 44
0.0
 45
353.4951741932161
 50
0.0
 51
0.0
 72
   100
 90
   819232
  1

281
     0
 71
     1
 74
     0
110
0.0
120
0.0
130
0.0
111
1.0
121
0.0
131
0.0
112
0.0
122
1.0
132
0.0
 79
     0
146
0.0
170
     0
  0
VIEWPORT
  5
99A
330
1B
100
AcDbEntity
 67
     1
  8
Defpoints
100
AcDbViewport
 10
211.6374382675827
 20
146.9348621411756
 30
0.0
 40
410.1517866444555
 41
287.3053455326816
 68
     2
 69
     2
 12
11.12905232541961
 22
6.670544030772823
 13
0.0
 23
0.0
 14
0.5
 24
0.5
 15
0.5
 25
0.5
 16
0.0
 26
0.0
 36
1.0
 17
0.0
 27
0.0
 37
-1000.0
 42
50.0
 43
4.148984367261674
 44
9.217858496371269
 45
14.36526866548176
 50
0.0
 51
0.0
 72
   100
 90
   819296
  1

281
     0
 71
     1
 74
     0
110
0.0
120
0.0
130
0.0
111
1.0
121
0.0
131
0.0
112
0.0
122
1.0
132
0.0
 79
     0
146
0.0
170
     0
  0
ENDSEC
  0
SECTION
  2
OBJECTS
  0
DICTIONARY
  5
C
330
0
100
AcDbDictionary
281
     1
  3
ACAD_COLOR
350
4B9
  3
ACAD_GROUP
350
D
  3
ACAD_LAYOUT
350
1A
  3
ACAD_MATERIAL
350
3B
  3
ACAD_MLEADERSTYLE
350
489
  3
ACAD_MLINESTYLE
350
17
  3
ACAD_PLOTSETTINGS
350
19
  3
ACAD_PLOTSTYLENAME
350
E
  3
ACAD_SCALELIST
350
10523
  3
ACAD_TABLESTYLE
350
4BA
  3
ACAD_VISUALSTYLE
350
2A
  3
ACDB_RECOMPOSE_DATA
350
1055C
  3
AcDbVariableDictionary
350
487
  0
DICTIONARY
  5
84C
330
8
100
AcDbDictionary
280
     1
281
     1
  0
DICTIONARY
  5
7D1
330
2
100
AcDbDictionary
280
     1
281
     1
  3
ACAD_LAYERFILTERS
360
75E8D
  3
ACAD_LAYERSTATES
360
7D2
  3
ACLYDICTIONARY
360
75E8C
  0
DICTIONARY
  5
10554
330
10
100
AcDbDictionary
280
     1
281
     1
  3
ADSK_XREC_LAYER_RECONCILED
360
10555
  0
DICTIONARY
  5
10556
330
87B
100
AcDbDictionary
280
     1
281
     1
  3
ADSK_XREC_LAYER_RECONCILED
360
10557
  0
DICTIONARY
  5
10558
330
87D
100
AcDbDictionary
280
     1
281
     1
  3
ADSK_XREC_LAYER_RECONCILED
360
10559
  0
DICTIONARY
  5
5F8
330
1F
100
AcDbDictionary
280
     1
281
     1
  3
ACAD_SORTENTS
360
5F9
  0
DICTIONARY
  5
1D631
330
1D61C
100
AcDbDictionary
280
     1
281
     1
  3
ACAD_SORTENTS
360
1D632
  0
DICTIONARY
  5
275BD
330
27503
100
AcDbDictionary
280
     1
281
     1
  3
ACAD_SORTENTS
360
275BE
  0
DICTIONARY
  5
30EEA
330
30E79
100
AcDbDictionary
280
     1
281
     1
  3
ACAD_SORTENTS
360
30EEB
  0
DICTIONARY
  5
441A4
330
441A2
100
AcDbDictionary
280
     1
281
     1
  3
ACAD_SORTENTS
360
441A5
  0
DICTIONARY
  5
60944
330
60919
100
AcDbDictionary
280
     1
281
     1
  3
ACAD_SORTENTS
360
60945
  0
DICTIONARY
  5
4B9
102
{ACAD_REACTORS
330
C
102
}
330
C
100
AcDbDictionary
281
     1
  0
DICTIONARY
  5
D
102
{ACAD_REACTORS
330
C
102
}
330
C
100
AcDbDictionary
281
     1
  0
DICTIONARY
  5
1A
102
{ACAD_REACTORS
330
C
102
}
330
C
100
AcDbDictionary
281
     1
  3
Layout1
350
1E
  3
Model
350
22
  0
DICTIONARY
  5
3B
102
{ACAD_REACTORS
330
C
102
}
330
C
100
AcDbDictionary
281
     1
  3
ByBlock
350
3D
  3
ByLayer
350
3C
  3
Global
350
3E
  0
DICTIONARY
  5
489
102
{ACAD_REACTORS
330
C
102
}
330
C
100
AcDbDictionary
281
     1
  3
Standard
350
10545
  0
DICTIONARY
  5
17
102
{ACAD_REACTORS
330
C
102
}
330
C
100
AcDbDictionary
281
     1
  3
Standard
350
18
  0
DICTIONARY
  5
19
102
{ACAD_REACTORS
330
C
102
}
330
C
100
AcDbDictionary
281
     1
  0
ACDBDICTIONARYWDFLT
  5
E
102
{ACAD_REACTORS
330
C
102
}
330
C
100
AcDbDictionary
281
     1
  3
Normal
350
F
100
AcDbDictionaryWithDefault
340
F
  0
DICTIONARY
  5
10523
102
{ACAD_REACTORS
330
C
102
}
330
C
100
AcDbDictionary
281
     1
  3
A0
350
10524
  3
A1
350
10525
  3
A2
350
10526
  3
A3
350
10527
  3
A4
350
10528
  3
A5
350
10529
  3
A6
350
1052A
  3
A7
350
1052B
  3
A8
350
1052C
  3
A9
350
1052D
  3
B0
350
1052E
  3
B1
350
1052F
  3
B2
350
10530
  3
B3
350
10531
  3
B4
350
10532
  3
B5
350
10533
  3
B6
350
10534
  3
B7
350
10535
  3
B8
350
10536
  3
B9
350
10537
  3
C0
350
10538
  3
C1
350
10539
  3
C2
350
1053A
  3
C3
350
1053B
  3
C4
350
1053C
  3
C5
350
1053D
  3
C6
350
1053E
  3
C7
350
1053F
  3
C8
350
10540
  3
C9
350
10541
  3
D0
350
10542
  3
D1
350
10543
  3
D2
350
10544
  0
DICTIONARY
  5
4BA
102
{ACAD_REACTORS
330
C
102
}
330
C
100
AcDbDictionary
281
     1
  3
Standard
350
4BB
  0
DICTIONARY
  5
2A
102
{ACAD_REACTORS
330
C
102
}
330
C
100
AcDbDictionary
281
     1
  3
2dWireframe
350
2F
  3
3D Hidden
350
A47
  3
3dWireframe
350
A48
  3
Basic
350
32
  3
Brighten
350
36
  3
ColorChange
350
3A
  3
Conceptual
350
A4B
  3
Dim
350
35
  3
Facepattern
350
39
  3
Flat
350
2B
  3
FlatWithEdges
350
2C
  3
Gouraud
350
2D
  3
GouraudWithEdges
350
2E
  3
Linepattern
350
38
  3
Realistic
350
A4C
  3
Thicken
350
37
  0
XRECORD
  5
1055C
102
{ACAD_REACTORS
330
C
102
}
330
C
100
AcDbXrecord
280
     1
 90
        1
330
4BB
  0
DICTIONARY
  5
487
102
{ACAD_REACTORS
330
C
102
}
330
C
100
AcDbDictionary
281
     1
  3
CANNOSCALE
350
1055F
  3
CMLEADERSTYLE
350
1055D
  3
CTABLESTYLE
350
5FE
  3
DIMASSOC
350
48A
  3
HIDETEXT
350
48B
  3
INDEXCTL
350
86B
  3
LIGHTINGUNITS
350
10560
  3
MSLTSCALE
350
1055E
  3
SORTENTS
350
86A
  0
DICTIONARY
  5
75E8D
102
{ACAD_REACTORS
330
7D1
102
}
330
7D1
100
AcDbDictionary
281
     1
  0
DICTIONARY
  5
7D2
102
{ACAD_REACTORS
330
7D1
102
}
330
7D1
100
AcDbDictionary
281
     1
  0
DICTIONARY
  5
75E8C
102
{ACAD_REACTORS
330
7D1
102
}
330
7D1
100
AcDbDictionary
281
     1
1001
ACAD
1000
<All
  0
XRECORD
  5
10555
102
{ACAD_REACTORS
330
10554
102
}
330
10554
100
AcDbXrecord
280
     1
290
     1
  0
XRECORD
  5
10557
102
{ACAD_REACTORS
330
10556
102
}
330
10556
100
AcDbXrecord
280
     1
290
     1
  0
XRECORD
  5
10559
102
{ACAD_REACTORS
330
10558
102
}
330
10558
100
AcDbXrecord
280
     1
290
     1
  0
SORTENTSTABLE
  5
5F9
102
{ACAD_REACTORS
330
5F8
102
}
330
5F8
100
AcDbSortentsTable
330
1F
331
75DA7
  5
75DA7
331
75E3E
  5
75E3E
331
75D08
  5
75D08
331
75CC9
  5
75CC9
331
75C53
  5
75C53
331
75BDD
  5
75BDD
331
75B67
  5
75B67
331
75BA6
  5
75BA6
331
75C1C
  5
75C1C
331
75C92
  5
75C92
331
75DAF
  5
75DAF
331
75D10
  5
75D10
331
75CD1
  5
75CD1
331
75C5B
  5
75C5B
331
75BE5
  5
75BE5
331
75B6F
  5
75B6F
331
75BAE
  5
75BAE
331
75C24
  5
75C24
331
75C9A
  5
75C9A
331
75DB7
  5
75DB7
331
75E76
  5
75E71
331
6B297
  5
6B297
331
72C26
  5
72C26
331
72C6B
  5
72C6B
331
74E72
  5
74E72
331
75AE9
  5
75AE9
331
75B28
  5
75B28
331
622A8
  5
622A8
331
72C73
  5
72C73
331
75D18
  5
75D18
331
75CD9
  5
75CD9
331
75C63
  5
75C63
331
75BED
  5
75BED
331
75B77
  5
75B77
331
75BB6
  5
75BB6
331
75C2C
  5
75C2C
331
75CA2
  5
75CA2
331
72C2E
  5
72C2E
331
74E7A
  5
74E7A
331
75AF1
  5
75AF1
331
75B30
  5
75B30
331
75D20
  5
75D20
331
75CE1
  5
75CE1
331
75C6B
  5
75C6B
331
75BF5
  5
75BF5
331
75B7F
  5
75B7F
331
75BBE
  5
75BBE
331
75C34
  5
75C34
331
75CAA
  5
75CAA
331
72BDF
  5
72BDF
331
75AF9
  5
75AF9
331
75B38
  5
75B38
331
72BE7
  5
72BE7
331
72C4E
  5
72C4E
331
74E9A
  5
74E9A
331
75B01
  5
75B01
331
75B40
  5
75B40
331
75DE7
  5
75DE7
331
75CE9
  5
75CE9
331
75C73
  5
75C73
331
75B87
  5
75B87
331
75BC6
  5
75BC6
331
75BFD
  5
75BFD
331
75C3C
  5
75C3C
331
75CB2
  5
75CB2
331
75D28
  5
75D28
331
75DEF
  5
75DEF
331
75CF1
  5
75CF1
331
75C05
  5
75C05
331
75B8F
  5
75B8F
331
75BCE
  5
75BCE
331
75C44
  5
75C44
331
75C7B
  5
75C7B
331
75CBA
  5
75CBA
331
75D30
  5
75D30
331
75E17
  5
75E17
331
75B09
  5
75B09
331
75B48
  5
75B48
331
66F68
  5
66F68
331
75CF9
  5
75CF9
331
75B97
  5
75B97
331
75BD6
  5
75BD6
331
75C0D
  5
75C0D
331
75C4C
  5
75C4C
331
75C83
  5
75C83
331
75CC2
  5
75CC2
331
75D38
  5
75D38
331
72C5E
  5
72C5E
331
75B11
  5
75B11
331
75B50
  5
75B50
331
72C66
  5
72C66
331
75D01
  5
75D01
331
75C15
  5
75C15
331
75B9F
  5
75B9F
331
75C8B
  5
75C8B
331
72C17
  5
72C17
331
75B19
  5
75B19
331
75B58
  5
75B58
331
6B288
  5
6B288
331
72C1F
  5
72C1F
331
75B21
  5
75B21
331
622A1
  5
622A1
331
75DA0
  5
75DA0
331
75B60
  5
75B60
331
75DA8
  5
75DA8
331
75D09
  5
75D09
331
75CCA
  5
75CCA
331
75C54
  5
75C54
331
75BDE
  5
75BDE
331
75B68
  5
75B68
331
75BA7
  5
75BA7
331
75C1D
  5
75C1D
331
75C93
  5
75C93
331
75DB0
  5
75DB0
331
75E6F
  5
75E72
331
6B290
  5
6B290
331
75D11
  5
75D11
331
75CD2
  5
75CD2
331
75C5C
  5
75C5C
331
75BE6
  5
75BE6
331
75B70
  5
75B70
331
75BAF
  5
75BAF
331
75C25
  5
75C25
331
75C9B
  5
75C9B
331
75DB8
  5
75DB8
331
6B298
  5
6B298
331
72C27
  5
72C27
331
72C6C
  5
72C6C
331
74E73
  5
74E73
331
75AEA
  5
75AEA
331
75B29
  5
75B29
331
622A9
  5
622A9
331
72C74
  5
72C74
331
75D19
  5
75D19
331
75CDA
  5
75CDA
331
75C64
  5
75C64
331
75BEE
  5
75BEE
331
75B78
  5
75B78
331
75BB7
  5
75BB7
331
75C2D
  5
75C2D
331
75CA3
  5
75CA3
331
72C2F
  5
72C2F
331
74E7B
  5
74E7B
331
75AF2
  5
75AF2
331
75B31
  5
75B31
331
75D21
  5
75D21
331
75CE2
  5
75CE2
331
75C6C
  5
75C6C
331
75BF6
  5
75BF6
331
75BBF
  5
75BBF
331
75C35
  5
75C35
331
75CAB
  5
75CAB
331
72BE0
  5
72BE0
331
74E93
  5
74E93
331
75AFA
  5
75AFA
331
75B39
  5
75B39
331
75B02
  5
75B02
331
75B41
  5
75B41
331
75B80
  5
75B80
331
75DE8
  5
75DE8
331
75CEA
  5
75CEA
331
75C3D
  5
75C3D
331
75B88
  5
75B88
331
75BC7
  5
75BC7
331
75BFE
  5
75BFE
331
75C74
  5
75C74
331
75CB3
  5
75CB3
331
72BE8
  5
72BE8
331
75B49
  5
75B49
331
75CF2
  5
75CF2
331
75B90
  5
75B90
331
75BCF
  5
75BCF
331
75C06
  5
75C06
331
75C45
  5
75C45
331
75C7C
  5
75C7C
331
75CBB
  5
75CBB
331
75E18
  5
75E18
331
72C57
  5
72C57
331
75B0A
  5
75B0A
331
66F69
  5
66F69
331
72CD4
  5
72CD5
331
75CFA
  5
75CFA
331
75C84
  5
75C84
331
75BD7
  5
75BD7
331
75B98
  5
75B98
331
75C0E
  5
75C0E
331
75C4D
  5
75C4D
331
75CC3
  5
75CC3
331
75D39
  5
75D39
331
72C5F
  5
72C5F
331
75B12
  5
75B12
331
75B51
  5
75B51
331
66F71
  5
66F71
331
75D02
  5
75D02
331
75C16
  5
75C16
331
75C8C
  5
75C8C
331
72C18
  5
72C18
331
72C67
  5
72C67
331
75B1A
  5
75B1A
331
75B59
  5
75B59
331
6B289
  5
6B289
331
75B22
  5
75B22
331
622A2
  5
622A2
331
75DA1
  5
75DA1
331
75E38
  5
75E38
331
75B61
  5
75B61
331
75BA0
  5
75BA0
331
75DA9
  5
75DA9
331
75D0A
  5
75D0A
331
75CCB
  5
75CCB
331
75C55
  5
75C55
331
75BDF
  5
75BDF
331
75B69
  5
75B69
331
75BA8
  5
75BA8
331
75C1E
  5
75C1E
331
75C94
  5
75C94
331
75DB1
  5
75DB1
331
75E70
  5
75E73
331
6B291
  5
6B291
331
72C20
  5
72C20
331
72C6D
  5
72C6D
331
72C28
  5
72C28
331
75D12
  5
75D12
331
75CD3
  5
75CD3
331
75C5D
  5
75C5D
331
75BE7
  5
75BE7
331
75B71
  5
75B71
331
75BB0
  5
75BB0
331
75C26
  5
75C26
331
75C9C
  5
75C9C
331
75DB9
  5
75DB9
331
6B299
  5
6B299
331
74E74
  5
74E74
331
75AEB
  5
75AEB
331
75B2A
  5
75B2A
331
622AA
  5
622AA
331
72C75
  5
72C75
331
72C30
  5
72C30
331
75D1A
  5
75D1A
331
75CDB
  5
75CDB
331
75C65
  5
75C65
331
75BEF
  5
75BEF
331
75B79
  5
75B79
331
75BB8
  5
75BB8
331
75C2E
  5
75C2E
331
75CA4
  5
75CA4
331
72BD9
  5
72BD9
331
74E7C
  5
74E7C
331
75AF3
  5
75AF3
331
75B32
  5
75B32
331
622B2
  5
622B2
331
75D22
  5
75D22
331
75CE3
  5
75CE3
331
75C6D
  5
75C6D
331
75BF7
  5
75BF7
331
75C36
  5
75C36
331
75CAC
  5
75CAC
331
72BE1
  5
72BE1
331
75AFB
  5
75AFB
331
75B3A
  5
75B3A
331
74E9C
  5
74E9C
331
75B03
  5
75B03
331
75B42
  5
75B42
331
66F62
  5
66F62
331
75B81
  5
75B81
331
75BC0
  5
75BC0
331
75DE9
  5
75DE9
331
75BC8
  5
75BC8
331
75B89
  5
75B89
331
75BFF
  5
75BFF
331
75C3E
  5
75C3E
331
75C75
  5
75C75
331
75CB4
  5
75CB4
331
75CEB
  5
75CEB
331
72BE9
  5
72BE9
331
75B0B
  5
75B0B
331
75CBC
  5
75CBC
331
75B91
  5
75B91
331
75BD0
  5
75BD0
331
75C07
  5
75C07
331
75C46
  5
75C46
331
75C7D
  5
75C7D
331
75CF3
  5
75CF3
331
75D32
  5
75D32
331
75E19
  5
75E19
331
74ECC
  5
74ECC
331
75B4A
  5
75B4A
331
75B13
  5
75B13
331
72CD5
  5
72CD4
331
75C0F
  5
75C0F
331
75B99
  5
75B99
331
75C4E
  5
75C4E
331
75C85
  5
75C85
331
75CC4
  5
75CC4
331
75CFB
  5
75CFB
331
75D3A
  5
75D3A
331
72C60
  5
72C60
331
75B52
  5
75B52
331
66F6A
  5
66F6A
331
75B5A
  5
75B5A
331
75B1B
  5
75B1B
331
75C17
  5
75C17
331
75C8D
  5
75C8D
331
75D03
  5
75D03
331
72C19
  5
72C19
331
66F72
  5
66F72
331
75B23
  5
75B23
331
74E6D
  5
74E6D
331
6B28A
  5
6B28A
331
622A3
  5
622A3
331
75DA2
  5
75DA2
331
75E39
  5
75E39
331
75BD8
  5
75BD8
331
75B62
  5
75B62
331
75BA1
  5
75BA1
331
75DAA
  5
75DAA
331
75CCC
  5
75CCC
331
75C56
  5
75C56
331
75BE0
  5
75BE0
331
75B6A
  5
75B6A
331
75BA9
  5
75BA9
331
75C1F
  5
75C1F
331
75C95
  5
75C95
331
75D0B
  5
75D0B
331
75DB2
  5
75DB2
331
75E71
  5
75E74
331
6B292
  5
6B292
331
72C21
  5
72C21
331
75B2B
  5
75B2B
331
72C6E
  5
72C6E
331
75CD4
  5
75CD4
331
75C5E
  5
75C5E
331
75BE8
  5
75BE8
331
75B72
  5
75B72
331
75BB1
  5
75BB1
331
75C27
  5
75C27
331
75C9D
  5
75C9D
331
75D13
  5
75D13
331
75DBA
  5
75DBA
331
6B29A
  5
6B29A
331
72C29
  5
72C29
331
74E75
  5
74E75
331
75AEC
  5
75AEC
331
75B33
  5
75B33
331
72C76
  5
72C76
331
75CDC
  5
75CDC
331
75C66
  5
75C66
331
75BF0
  5
75BF0
331
75B7A
  5
75B7A
331
75BB9
  5
75BB9
331
75C2F
  5
75C2F
331
75CA5
  5
75CA5
331
75D1B
  5
75D1B
331
72BDA
  5
72BDA
331
72C31
  5
72C31
331
75AF4
  5
75AF4
331
622AB
  5
622AB
331
75B3B
  5
75B3B
331
75CE4
  5
75CE4
331
75C6E
  5
75C6E
331
75C37
  5
75C37
331
75CAD
  5
75CAD
331
75D23
  5
75D23
331
72BE2
  5
72BE2
331
74E95
  5
74E95
331
75AFC
  5
75AFC
331
622B3
  5
622B3
331
75B43
  5
75B43
331
75B04
  5
75B04
331
66F63
  5
66F63
331
75BC1
  5
75BC1
331
75B82
  5
75B82
331
75BF8
  5
75BF8
331
75DEA
  5
75DEA
331
75CB5
  5
75CB5
331
75B8A
  5
75B8A
331
75BC9
  5
75BC9
331
75C00
  5
75C00
331
75C3F
  5
75C3F
331
75C76
  5
75C76
331
75CEC
  5
75CEC
331
75D2B
  5
75D2B
331
72BEA
  5
72BEA
331
75B0C
  5
75B0C
331
75C47
  5
75C47
331
75B92
  5
75B92
331
75BD1
  5
75BD1
331
75C08
  5
75C08
331
75C7E
  5
75C7E
331
75CBD
  5
75CBD
331
75CF4
  5
75CF4
331
75D33
  5
75D33
331
72C0A
  5
72C0A
331
72CCE
  5
72CCE
331
75B4B
  5
75B4B
331
75B53
  5
75B53
331
75B14
  5
75B14
331
72CD6
  5
72CD6
331
75D3B
  5
75D3B
331
75C4F
  5
75C4F
331
75B9A
  5
75B9A
331
75C10
  5
75C10
331
75C86
  5
75C86
331
75CC5
  5
75CC5
331
75CFC
  5
75CFC
331
72C61
  5
72C61
331
74EDD
  5
74EDD
331
75B1C
  5
75B1C
331
75C8E
  5
75C8E
331
75D04
  5
75D04
331
72C1A
  5
72C1A
331
72CDE
  5
72CDE
331
75B5B
  5
75B5B
331
66F73
  5
66F73
331
75B24
  5
75B24
331
74E6E
  5
74E6E
331
6B28B
  5
6B28B
331
622A4
  5
622A4
331
75DA3
  5
75DA3
331
75E3A
  5
75E3A
331
75BD9
  5
75BD9
331
75DAB
  5
75DAB
331
75B63
  5
75B63
331
75BA2
  5
75BA2
331
75C18
  5
75C18
331
6B293
  5
6B293
331
72C22
  5
72C22
331
75CCD
  5
75CCD
331
75C57
  5
75C57
331
75BE1
  5
75BE1
331
75DB3
  5
75DB3
331
75E72
  5
75E75
331
75B6B
  5
75B6B
331
75BAA
  5
75BAA
331
75C20
  5
75C20
331
75C96
  5
75C96
331
75D0C
  5
75D0C
331
75B2C
  5
75B2C
331
72C6F
  5
72C6F
331
6B29B
  5
6B29B
331
72C2A
  5
72C2A
331
74E76
  5
74E76
331
75AED
  5
75AED
331
75CD5
  5
75CD5
331
75C5F
  5
75C5F
331
75BE9
  5
75BE9
331
75DBB
  5
75DBB
331
75B73
  5
75B73
331
75BB2
  5
75BB2
331
75C28
  5
75C28
331
75C9E
  5
75C9E
331
75D14
  5
75D14
331
75B34
  5
75B34
331
72C77
  5
72C77
331
72BDB
  5
72BDB
331
75AF5
  5
75AF5
331
622AC
  5
622AC
331
75CDD
  5
75CDD
331
75C67
  5
75C67
331
75BF1
  5
75BF1
331
75B7B
  5
75B7B
331
75BBA
  5
75BBA
331
75C30
  5
75C30
331
75CA6
  5
75CA6
331
75D1C
  5
75D1C
331
75B3C
  5
75B3C
331
72BE3
  5
72BE3
331
75AFD
  5
75AFD
331
622B4
  5
622B4
331
75CE5
  5
75CE5
331
75C6F
  5
75C6F
331
75CAE
  5
75CAE
331
75D24
  5
75D24
331
75B44
  5
75B44
331
75B05
  5
75B05
331
66F0C
  5
66F0C
331
66F64
  5
66F64
331
75DEB
  5
75DEB
331
75B83
  5
75B83
331
75BC2
  5
75BC2
331
75BF9
  5
75BF9
331
75C38
  5
75C38
331
72BEB
  5
72BEB
331
75C40
  5
75C40
331
75B8B
  5
75B8B
331
75BCA
  5
75BCA
331
75C01
  5
75C01
331
75C77
  5
75C77
331
75CB6
  5
75CB6
331
75CED
  5
75CED
331
75D2C
  5
75D2C
331
75B0D
  5
75B0D
331
72C5A
  5
72C5A
331
74ECE
  5
74ECE
331
75B4C
  5
75B4C
331
75D34
  5
75D34
331
75BD2
  5
75BD2
331
75B93
  5
75B93
331
75C09
  5
75C09
331
75C48
  5
75C48
331
75C7F
  5
75C7F
331
75CBE
  5
75CBE
331
75CF5
  5
75CF5
331
75B15
  5
75B15
331
72C13
  5
72C13
331
74EDE
  5
74EDE
331
75B54
  5
75B54
331
75CC6
  5
75CC6
331
75B9B
  5
75B9B
331
75C11
  5
75C11
331
75C87
  5
75C87
331
75CFD
  5
75CFD
331
75D3C
  5
75D3C
331
75B1D
  5
75B1D
331
72C1B
  5
72C1B
331
75B5C
  5
75B5C
331
66F74
  5
66F74
331
75C8F
  5
75C8F
331
75D05
  5
75D05
331
75B25
  5
75B25
331
74E6F
  5
74E6F
331
6B28C
  5
6B28C
331
622A5
  5
622A5
331
75DA4
  5
75DA4
331
75E3B
  5
75E3B
331
75C50
  5
75C50
331
75BDA
  5
75BDA
331
75DAC
  5
75DAC
331
75B64
  5
75B64
331
75BA3
  5
75BA3
331
75C19
  5
75C19
331
6B294
  5
6B294
331
72C23
  5
72C23
331
72C68
  5
72C68
331
75CCE
  5
75CCE
331
75C58
  5
75C58
331
75BE2
  5
75BE2
331
75E73
  5
75E6E
331
75DB4
  5
75DB4
331
75B6C
  5
75B6C
331
75BAB
  5
75BAB
331
75C21
  5
75C21
331
75C97
  5
75C97
331
75D0D
  5
75D0D
331
75B2D
  5
75B2D
331
72C70
  5
72C70
331
72C2B
  5
72C2B
331
6B29C
  5
6B29C
331
74E77
  5
74E77
331
75AEE
  5
75AEE
331
75CD6
  5
75CD6
331
75C60
  5
75C60
331
75BEA
  5
75BEA
331
75B74
  5
75B74
331
75BB3
  5
75BB3
331
75C29
  5
75C29
331
75C9F
  5
75C9F
331
75D15
  5
75D15
331
75B35
  5
75B35
331
72C78
  5
72C78
331
72BDC
  5
72BDC
331
75AF6
  5
75AF6
331
75CDE
  5
75CDE
331
75C68
  5
75C68
331
75BF2
  5
75BF2
331
75B7C
  5
75B7C
331
75BBB
  5
75BBB
331
75C31
  5
75C31
331
75CA7
  5
75CA7
331
75D1D
  5
75D1D
331
75B3D
  5
75B3D
331
72BE4
  5
72BE4
331
72CB8
  5
72CB8
331
75AFE
  5
75AFE
331
622B5
  5
622B5
331
75CE6
  5
75CE6
331
75CAF
  5
75CAF
331
75D25
  5
75D25
331
75B45
  5
75B45
331
75B06
  5
75B06
331
66F65
  5
66F65
331
75C70
  5
75C70
331
75DEC
  5
75DEC
331
75B84
  5
75B84
331
75BC3
  5
75BC3
331
75BFA
  5
75BFA
331
75C39
  5
75C39
331
72BEC
  5
72BEC
331
75BCB
  5
75BCB
331
75E14
  5
75E14
331
75B8C
  5
75B8C
331
75C02
  5
75C02
331
75C41
  5
75C41
331
75C78
  5
75C78
331
75CB7
  5
75CB7
331
75CEE
  5
75CEE
331
75D2D
  5
75D2D
331
75B0E
  5
75B0E
331
72CD0
  5
72CD0
331
72C5B
  5
72C5B
331
75B4D
  5
75B4D
331
75CBF
  5
75CBF
331
75B94
  5
75B94
331
75BD3
  5
75BD3
331
75C0A
  5
75C0A
331
75C49
  5
75C49
331
75C80
  5
75C80
331
75CF6
  5
75CF6
331
75D35
  5
75D35
331
75B16
  5
75B16
331
75B55
  5
75B55
331
75CC7
  5
75CC7
331
75C12
  5
75C12
331
75B9C
  5
75B9C
331
75C88
  5
75C88
331
75CFE
  5
75CFE
331
75D3D
  5
75D3D
331
75B5D
  5
75B5D
331
75B1E
  5
75B1E
331
72C1C
  5
72C1C
331
75AE7
  5
75AE7
331
75D06
  5
75D06
331
75B26
  5
75B26
331
6B28D
  5
6B28D
331
622A6
  5
622A6
331
75E3C
  5
75E3C
331
75DA5
  5
75DA5
331
75C51
  5
75C51
331
75BDB
  5
75BDB
331
75DAD
  5
75DAD
331
75B65
  5
75B65
331
75BA4
  5
75BA4
331
75C1A
  5
75C1A
331
75C90
  5
75C90
331
6B295
  5
6B295
331
72C24
  5
72C24
331
72C69
  5
72C69
331
74E70
  5
74E70
331
75CCF
  5
75CCF
331
75C59
  5
75C59
331
75BE3
  5
75BE3
331
75E74
  5
75E6F
331
75DB5
  5
75DB5
331
75B6D
  5
75B6D
331
75BAC
  5
75BAC
331
75C22
  5
75C22
331
75C98
  5
75C98
331
75D0E
  5
75D0E
331
75B2E
  5
75B2E
331
72C71
  5
72C71
331
6B29D
  5
6B29D
331
72C2C
  5
72C2C
331
74E78
  5
74E78
331
75AEF
  5
75AEF
331
75CD7
  5
75CD7
331
75C61
  5
75C61
331
75BEB
  5
75BEB
331
75B75
  5
75B75
331
75BB4
  5
75BB4
331
75C2A
  5
75C2A
331
75CA0
  5
75CA0
331
75D16
  5
75D16
331
75B36
  5
75B36
331
72BDD
  5
72BDD
331
75AF7
  5
75AF7
331
75CDF
  5
75CDF
331
75C69
  5
75C69
331
75BF3
  5
75BF3
331
75B7D
  5
75B7D
331
75BBC
  5
75BBC
331
75C32
  5
75C32
331
75CA8
  5
75CA8
331
75D1E
  5
75D1E
331
75B3E
  5
75B3E
331
72BE5
  5
72BE5
331
75AFF
  5
75AFF
331
75CE7
  5
75CE7
331
75D26
  5
75D26
331
75B46
  5
75B46
331
75B07
  5
75B07
331
66F66
  5
66F66
331
75BFB
  5
75BFB
331
75DED
  5
75DED
331
75B85
  5
75B85
331
75BC4
  5
75BC4
331
75C3A
  5
75C3A
331
75C71
  5
75C71
331
75CB0
  5
75CB0
331
72BED
  5
72BED
331
75CEF
  5
75CEF
331
75E15
  5
75E15
331
75B8D
  5
75B8D
331
75BCC
  5
75BCC
331
75C03
  5
75C03
331
75C42
  5
75C42
331
75C79
  5
75C79
331
75CB8
  5
75CB8
331
75D2E
  5
75D2E
331
75B0F
  5
75B0F
331
72C5C
  5
72C5C
331
75B4E
  5
75B4E
331
75CF7
  5
75CF7
331
75C4A
  5
75C4A
331
75B95
  5
75B95
331
75BD4
  5
75BD4
331
75C0B
  5
75C0B
331
75C81
  5
75C81
331
75CC0
  5
75CC0
331
75D36
  5
75D36
331
75B17
  5
75B17
331
72C64
  5
72C64
331
75B56
  5
75B56
331
75D3E
  5
75D3E
331
75CFF
  5
75CFF
331
75B9D
  5
75B9D
331
75C13
  5
75C13
331
75C89
  5
75C89
331
75B1F
  5
75B1F
331
75B5E
  5
75B5E
331
75D07
  5
75D07
331
6B28E
  5
6B28E
331
75B27
  5
75B27
331
6229F
  5
6229F
331
622A7
  5
622A7
331
75DA6
  5
75DA6
331
75E3D
  5
75E3D
331
75CC8
  5
75CC8
331
75C52
  5
75C52
331
75BDC
  5
75BDC
331
75DAE
  5
75DAE
331
75B66
  5
75B66
331
75BA5
  5
75BA5
331
75C1B
  5
75C1B
331
75C91
  5
75C91
331
74E71
  5
74E71
331
72C25
  5
72C25
331
6B296
  5
6B296
331
72C6A
  5
72C6A
331
75AE8
  5
75AE8
331
75D0F
  5
75D0F
331
75CD0
  5
75CD0
331
75C5A
  5
75C5A
331
75BE4
  5
75BE4
331
75DB6
  5
75DB6
331
75E75
  5
75E70
331
75B6E
  5
75B6E
331
75BAD
  5
75BAD
331
75C23
  5
75C23
331
75C99
  5
75C99
331
74E79
  5
74E79
331
72C72
  5
72C72
331
6B29E
  5
6B29E
331
72C2D
  5
72C2D
331
75AF0
  5
75AF0
331
75B2F
  5
75B2F
331
75D17
  5
75D17
331
75CD8
  5
75CD8
331
75C62
  5
75C62
331
75BEC
  5
75BEC
331
75B76
  5
75B76
331
75BB5
  5
75BB5
331
75C2B
  5
75C2B
331
75CA1
  5
75CA1
331
74E91
  5
74E91
331
72BDE
  5
72BDE
331
75AF8
  5
75AF8
331
75B37
  5
75B37
331
75D1F
  5
75D1F
331
75CE0
  5
75CE0
331
75C6A
  5
75C6A
331
75BF4
  5
75BF4
331
75B7E
  5
75B7E
331
75BBD
  5
75BBD
331
75C33
  5
75C33
331
75CA9
  5
75CA9
331
75B00
  5
75B00
331
72CBA
  5
72CBA
331
72BE6
  5
72BE6
331
75B3F
  5
75B3F
331
75D27
  5
75D27
331
75B47
  5
75B47
331
66F67
  5
66F67
331
75DE6
  5
75DE6
331
75CE8
  5
75CE8
331
75DEE
  5
75DEE
331
75B86
  5
75B86
331
75BC5
  5
75BC5
331
75BFC
  5
75BFC
331
75C3B
  5
75C3B
331
75C72
  5
75C72
331
75CB1
  5
75CB1
331
75B08
  5
75B08
331
75CF0
  5
75CF0
331
75C7A
  5
75C7A
331
75E16
  5
75E16
331
75B8E
  5
75B8E
331
75BCD
  5
75BCD
331
75C04
  5
75C04
331
75C43
  5
75C43
331
75CB9
  5
75CB9
331
75D2F
  5
75D2F
331
75B10
  5
75B10
331
72C5D
  5
72C5D
331
75B4F
  5
75B4F
331
75CF8
  5
75CF8
331
75C0C
  5
75C0C
331
75E1E
  5
75E1E
331
75B96
  5
75B96
331
75BD5
  5
75BD5
331
75C4B
  5
75C4B
331
75C82
  5
75C82
331
75CC1
  5
75CC1
331
75D37
  5
75D37
331
75B18
  5
75B18
331
72C16
  5
72C16
331
72C65
  5
72C65
331
75B57
  5
75B57
331
75D3F
  5
75D3F
331
75D00
  5
75D00
331
75C8A
  5
75C8A
331
75B9E
  5
75B9E
331
75C14
  5
75C14
331
75B5F
  5
75B5F
331
75B20
  5
75B20
331
622A0
  5
622A0
331
6B28F
  5
6B28F
  0
SORTENTSTABLE
  5
1D632
102
{ACAD_REACTORS
330
1D631
102
}
330
1D631
100
AcDbSortentsTable
330
1D61C
  0
SORTENTSTABLE
  5
275BE
102
{ACAD_REACTORS
330
275BD
102
}
330
275BD
100
AcDbSortentsTable
330
27503
  0
SORTENTSTABLE
  5
30EEB
102
{ACAD_REACTORS
330
30EEA
102
}
330
30EEA
100
AcDbSortentsTable
330
30E79
  0
SORTENTSTABLE
  5
441A5
102
{ACAD_REACTORS
330
441A4
102
}
330
441A4
100
AcDbSortentsTable
330
441A2
  0
SORTENTSTABLE
  5
60945
102
{ACAD_REACTORS
330
60944
102
}
330
60944
100
AcDbSortentsTable
330
60919
  0
LAYOUT
  5
1E
102
{ACAD_XDICTIONARY
360
7D4
102
}
102
{ACAD_REACTORS
330
1A
102
}
330
1A
100
AcDbPlotSettings
  1

  2
Bullzip PDF Printer
  4
A3
  6

 40
3.174999952316284
 41
3.174999952316284
 42
3.17498779296875
 43
3.17498779296875
 44
297.0530090332031
 45
420.1583251953125
 46
0.0
 47
0.0
 48
6.561544945354853
 49
3.282189374834842
140
416.7133315898103
141
290.5875349075164
142
1.0
143
1.0
 70
   672
 72
     1
 73
     1
 74
     4
  7
monochrome.ctb
 75
    16
147
25.4
 76
     0
 77
     2
 78
   300
148
-6.561544945354853
149
-3.282189374834842
100
AcDbLayout
  1
Layout1
 70
     0
 71
     1
 10
3.386557152386103
 20
0.1071894225185588
 11
423.5448823476986
 21
297.1601984557217
 12
0.0
 22
0.0
 32
0.0
 14
6.561544945354853
 24
3.282189374834842
 34
0.0
 15
416.7133315898103
 25
290.5875349075164
 35
0.0
146
0.0
 13
0.0
 23
0.0
 33
0.0
 16
1.0
 26
0.0
 36
0.0
 17
0.0
 27
1.0
 37
0.0
 76
     0
330
1B
331
7CA
1001
ACAD_PSEXT
1000
Bullzip PDF Printer
1000
Bullzip PDF Printer
1000
BULLZIP
1000
Bullzip PDF Printer 7.2.0.1338
1070
     0
  0
LAYOUT
  5
22
102
{ACAD_REACTORS
330
1A
102
}
330
1A
100
AcDbPlotSettings
  1

  2
none_device
  4
Letter_(8.50_x_11.00_Inches)
  6

 40
6.349999904632568
 41
6.349999904632568
 42
6.350006103515625
 43
6.350006103515625
 44
215.8999938964844
 45
279.3999938964844
 46
0.0
 47
0.0
 48
0.0
 49
0.0
140
0.0
141
0.0
142
1.0
143
4.058158908229113
 70
 11952
 72
     0
 73
     1
 74
     0
  7

 75
     0
147
0.2464171617262708
 76
     0
 77
     2
 78
   300
148
1933.62028725314
149
-468.3247528513851
100
AcDbLayout
  1
Model
 70
     1
 71
     0
 10
0.0
 20
0.0
 11
12.0
 21
9.0
 12
0.0
 22
0.0
 32
0.0
 14
1.000000000000000E+20
 24
1.000000000000000E+20
 34
1.000000000000000E+20
 15
-1.000000000000000E+20
 25
-1.000000000000000E+20
 35
-1.000000000000000E+20
146
0.0
 13
0.0
 23
0.0
 33
0.0
 16
1.0
 26
0.0
 36
0.0
 17
0.0
 27
1.0
 37
0.0
 76
     0
330
1F
331
29
1001
ACAD_PSEXT
1000
Brak
1000
Brak
1000
Nie można zastosować.
1000
Arkusz nie zostanie wydrukowany dopóki nie wybrano konfiguracji plotera.
1070
     0
  0
MATERIAL
  5
3D
102
{ACAD_XDICTIONARY
360
75EBE
102
}
102
{ACAD_REACTORS
330
3B
102
}
330
3B
100
AcDbMaterial
  1
ByBlock
 73
     1
 78
     1
172
     1
176
     1
270
     1
274
     1
  0
MATERIAL
  5
3C
102
{ACAD_XDICTIONARY
360
75EBC
102
}
102
{ACAD_REACTORS
330
3B
102
}
330
3B
100
AcDbMaterial
  1
ByLayer
 73
     1
 78
     1
172
     1
176
     1
270
     1
274
     1
  0
MATERIAL
  5
3E
102
{ACAD_XDICTIONARY
360
75EC0
102
}
102
{ACAD_REACTORS
330
3B
102
}
330
3B
100
AcDbMaterial
  1
Global
 73
     1
 78
     1
172
     1
176
     1
270
     1
274
     1
  0
MLEADERSTYLE
  5
10545
102
{ACAD_REACTORS
330
489
102
}
330
489
100
AcDbMLeaderStyle
170
     2
171
     1
172
     0
 90
        2
 40
0.0
 41
0.0
173
     1
 91
-1056964608
340
14
 92
       -2
290
     1
 42
0.09
291
     1
 43
0.36
  3
Standard
 44
0.18
300

342
11
174
     1
178
     6
175
     1
176
     0
 93
-1056964608
 45
0.18
292
     0
297
     0
 46
0.18
 94
-1056964608
 47
1.0
 49
1.0
140
1.0
293
     1
141
0.0
294
     1
177
     0
142
1.0
295
     0
296
     0
143
0.125
1001
ACAD_MLEADERVER
1070
     2
  0
MLINESTYLE
  5
18
102
{ACAD_REACTORS
330
17
102
}
330
17
100
AcDbMlineStyle
  2
STANDARD
 70
     0
  3

 62
   256
 51
90.0
 52
90.0
 71
     2
 49
0.5
 62
   256
  6
BYLAYER
 49
-0.5
 62
   256
  6
BYLAYER
  0
ACDBPLACEHOLDER
  5
F
102
{ACAD_REACTORS
330
E
102
}
330
E
  0
SCALE
  5
10524
102
{ACAD_REACTORS
330
10523
102
}
330
10523
100
AcDbScale
 70
     0
300
1:1
140
1.0
141
1.0
290
     1
  0
SCALE
  5
10525
102
{ACAD_REACTORS
330
10523
102
}
330
10523
100
AcDbScale
 70
     0
300
1:2
140
1.0
141
2.0
290
     0
  0
SCALE
  5
10526
102
{ACAD_REACTORS
330
10523
102
}
330
10523
100
AcDbScale
 70
     0
300
1:4
140
1.0
141
4.0
290
     0
  0
SCALE
  5
10527
102
{ACAD_REACTORS
330
10523
102
}
330
10523
100
AcDbScale
 70
     0
300
1:5
140
1.0
141
5.0
290
     0
  0
SCALE
  5
10528
102
{ACAD_REACTORS
330
10523
102
}
330
10523
100
AcDbScale
 70
     0
300
1:8
140
1.0
141
8.0
290
     0
  0
SCALE
  5
10529
102
{ACAD_REACTORS
330
10523
102
}
330
10523
100
AcDbScale
 70
     0
300
1:10
140
1.0
141
10.0
290
     0
  0
SCALE
  5
1052A
102
{ACAD_REACTORS
330
10523
102
}
330
10523
100
AcDbScale
 70
     0
300
1:16
140
1.0
141
16.0
290
     0
  0
SCALE
  5
1052B
102
{ACAD_REACTORS
330
10523
102
}
330
10523
100
AcDbScale
 70
     0
300
1:20
140
1.0
141
20.0
290
     0
  0
SCALE
  5
1052C
102
{ACAD_REACTORS
330
10523
102
}
330
10523
100
AcDbScale
 70
     0
300
1:30
140
1.0
141
30.0
290
     0
  0
SCALE
  5
1052D
102
{ACAD_REACTORS
330
10523
102
}
330
10523
100
AcDbScale
 70
     0
300
1:40
140
1.0
141
40.0
290
     0
  0
SCALE
  5
1052E
102
{ACAD_REACTORS
330
10523
102
}
330
10523
100
AcDbScale
 70
     0
300
1:50
140
1.0
141
50.0
290
     0
  0
SCALE
  5
1052F
102
{ACAD_REACTORS
330
10523
102
}
330
10523
100
AcDbScale
 70
     0
300
1:100
140
1.0
141
100.0
290
     0
  0
SCALE
  5
10530
102
{ACAD_REACTORS
330
10523
102
}
330
10523
100
AcDbScale
 70
     0
300
2:1
140
2.0
141
1.0
290
     0
  0
SCALE
  5
10531
102
{ACAD_REACTORS
330
10523
102
}
330
10523
100
AcDbScale
 70
     0
300
4:1
140
4.0
141
1.0
290
     0
  0
SCALE
  5
10532
102
{ACAD_REACTORS
330
10523
102
}
330
10523
100
AcDbScale
 70
     0
300
8:1
140
8.0
141
1.0
290
     0
  0
SCALE
  5
10533
102
{ACAD_REACTORS
330
10523
102
}
330
10523
100
AcDbScale
 70
     0
300
10:1
140
10.0
141
1.0
290
     0
  0
SCALE
  5
10534
102
{ACAD_REACTORS
330
10523
102
}
330
10523
100
AcDbScale
 70
     0
300
100:1
140
100.0
141
1.0
290
     0
  0
SCALE
  5
10535
102
{ACAD_REACTORS
330
10523
102
}
330
10523
100
AcDbScale
 70
     0
300
1/128" = 1'-0"
140
0.0078125
141
12.0
290
     0
  0
SCALE
  5
10536
102
{ACAD_REACTORS
330
10523
102
}
330
10523
100
AcDbScale
 70
     0
300
1/64" = 1'-0"
140
0.015625
141
12.0
290
     0
  0
SCALE
  5
10537
102
{ACAD_REACTORS
330
10523
102
}
330
10523
100
AcDbScale
 70
     0
300
1/32" = 1'-0"
140
0.03125
141
12.0
290
     0
  0
SCALE
  5
10538
102
{ACAD_REACTORS
330
10523
102
}
330
10523
100
AcDbScale
 70
     0
300
1/16" = 1'-0"
140
0.0625
141
12.0
290
     0
  0
SCALE
  5
10539
102
{ACAD_REACTORS
330
10523
102
}
330
10523
100
AcDbScale
 70
     0
300
3/32" = 1'-0"
140
0.09375
141
12.0
290
     0
  0
SCALE
  5
1053A
102
{ACAD_REACTORS
330
10523
102
}
330
10523
100
AcDbScale
 70
     0
300
1/8" = 1'-0"
140
0.125
141
12.0
290
     0
  0
SCALE
  5
1053B
102
{ACAD_REACTORS
330
10523
102
}
330
10523
100
AcDbScale
 70
     0
300
3/16" = 1'-0"
140
0.1875
141
12.0
290
     0
  0
SCALE
  5
1053C
102
{ACAD_REACTORS
330
10523
102
}
330
10523
100
AcDbScale
 70
     0
300
1/4" = 1'-0"
140
0.25
141
12.0
290
     0
  0
SCALE
  5
1053D
102
{ACAD_REACTORS
330
10523
102
}
330
10523
100
AcDbScale
 70
     0
300
3/8" = 1'-0"
140
0.375
141
12.0
290
     0
  0
SCALE
  5
1053E
102
{ACAD_REACTORS
330
10523
102
}
330
10523
100
AcDbScale
 70
     0
300
1/2" = 1'-0"
140
0.5
141
12.0
290
     0
  0
SCALE
  5
1053F
102
{ACAD_REACTORS
330
10523
102
}
330
10523
100
AcDbScale
 70
     0
300
3/4" = 1'-0"
140
0.75
141
12.0
290
     0
  0
SCALE
  5
10540
102
{ACAD_REACTORS
330
10523
102
}
330
10523
100
AcDbScale
 70
     0
300
1" = 1'-0"
140
1.0
141
12.0
290
     0
  0
SCALE
  5
10541
102
{ACAD_REACTORS
330
10523
102
}
330
10523
100
AcDbScale
 70
     0
300
1-1/2" = 1'-0"
140
1.5
141
12.0
290
     0
  0
SCALE
  5
10542
102
{ACAD_REACTORS
330
10523
102
}
330
10523
100
AcDbScale
 70
     0
300
3" = 1'-0"
140
3.0
141
12.0
290
     0
  0
SCALE
  5
10543
102
{ACAD_REACTORS
330
10523
102
}
330
10523
100
AcDbScale
 70
     0
300
6" = 1'-0"
140
6.0
141
12.0
290
     0
  0
SCALE
  5
10544
102
{ACAD_REACTORS
330
10523
102
}
330
10523
100
AcDbScale
 70
     0
300
1'-0" = 1'-0"
140
12.0
141
12.0
290
     0
  0
TABLESTYLE
  5
4BB
102
{ACAD_XDICTIONARY
360
1055A
102
}
102
{ACAD_REACTORS
330
4BA
102
}
330
4BA
100
AcDbTableStyle
  3
Standard
 70
     0
 71
     0
 40
0.06
 41
0.06
280
     0
281
     0
  7
Standard
140
0.18
170
     2
 62
     0
 63
     7
283
     0
274
    -2
284
     1
 64
     0
275
    -2
285
     1
 65
     0
276
    -2
286
     1
 66
     0
277
    -2
287
     1
 67
     0
278
    -2
288
     1
 68
     0
279
    -2
289
     1
 69
     0
  7
Standard
140
0.25
170
     5
 62
     0
 63
     7
283
     0
274
    -2
284
     1
 64
     0
275
    -2
285
     1
 65
     0
276
    -2
286
     1
 66
     0
277
    -2
287
     1
 67
     0
278
    -2
288
     1
 68
     0
279
    -2
289
     1
 69
     0
  7
Standard
140
0.18
170
     5
 62
     0
 63
     7
283
     0
274
    -2
284
     1
 64
     0
275
    -2
285
     1
 65
     0
276
    -2
286
     1
 66
     0
277
    -2
287
     1
 67
     0
278
    -2
288
     1
 68
     0
279
    -2
289
     1
 69
     0
  0
VISUALSTYLE
  5
2F
102
{ACAD_XDICTIONARY
360
49A
102
}
102
{ACAD_REACTORS
330
2A
102
}
330
2A
100
AcDbVisualStyle
  2
2dWireframe
 70
     4
 71
     0
 72
     2
 73
     0
 90
        0
 40
-0.6
 41
-30.0
 62
     5
 63
     7
 74
     1
 91
        4
 64
     7
 65
   257
 75
     1
175
     1
 42
1.0
 92
        0
 66
   257
 43
1.0
 76
     1
 77
     6
 78
     2
 67
     7
 79
     5
170
     0
171
     0
290
     0
174
     0
 93
        1
 44
0.0
173
     0
291
     0
 45
0.0
1001
ACAD
1000
AcDbSavedByObjectVersion
1070
     0
  0
VISUALSTYLE
  5
A47
102
{ACAD_REACTORS
330
2A
102
}
330
2A
100
AcDbVisualStyle
  2
3D Hidden
 70
     6
 71
     1
 72
     2
 73
     2
 90
        0
 40
-0.6
 41
-30.0
 62
     5
 63
     7
 74
     2
 91
        2
 64
     7
 65
   257
 75
     2
175
     1
 42
40.0
 92
        0
 66
   257
 43
1.0
 76
     1
 77
     6
 78
     2
 67
     7
 79
     3
170
     0
171
     0
290
     0
174
     0
 93
        1
 44
0.0
173
     0
291
     0
 45
0.0
1001
ACAD
1000
AcDbSavedByObjectVersion
1070
     0
  0
VISUALSTYLE
  5
A48
102
{ACAD_XDICTIONARY
360
A49
102
}
102
{ACAD_REACTORS
330
2A
102
}
330
2A
100
AcDbVisualStyle
  2
3dWireframe
 70
     5
 71
     0
 72
     2
 73
     0
 90
        0
 40
-0.6
 41
-30.0
 62
     5
 63
     7
 74
     1
 91
        4
 64
     7
 65
   257
 75
     1
175
     1
 42
1.0
 92
        0
 66
   257
 43
1.0
 76
     1
 77
     6
 78
     2
 67
     7
 79
     5
170
     0
171
     0
290
     0
174
     0
 93
        1
 44
0.0
173
     0
291
     0
 45
0.0
1001
ACAD
1000
AcDbSavedByObjectVersion
1070
     0
  0
VISUALSTYLE
  5
32
102
{ACAD_XDICTIONARY
360
4A0
102
}
102
{ACAD_REACTORS
330
2A
102
}
330
2A
100
AcDbVisualStyle
  2
Basic
 70
     7
 71
     1
 72
     0
 73
     1
 90
        0
 40
-0.6
 41
-30.0
 62
     5
 63
     7
 74
     0
 91
        4
 64
     7
 65
   257
 75
     1
175
     1
 42
1.0
 92
        8
 66
     7
 43
1.0
 76
     1
 77
     6
 78
     2
 67
     7
 79
     5
170
     0
171
     0
290
     0
174
     0
 93
        1
 44
0.0
173
     0
291
     1
 45
0.0
1001
ACAD
1000
AcDbSavedByObjectVersion
1070
     0
  0
VISUALSTYLE
  5
36
102
{ACAD_XDICTIONARY
360
4A8
102
}
102
{ACAD_REACTORS
330
2A
102
}
330
2A
100
AcDbVisualStyle
  2
Brighten
 70
    12
 71
     2
 72
     2
 73
     0
 90
        0
 40
-0.6
 41
-30.0
 62
     5
 63
     7
 74
     1
 91
        4
 64
     7
 65
   257
 75
     1
175
     1
 42
1.0
 92
        8
 66
     7
 43
1.0
 76
     1
 77
     6
 78
     2
 67
     7
 79
     5
170
     0
171
     0
290
     0
174
     0
 93
        1
 44
50.0
173
     0
291
     1
 45
0.0
1001
ACAD
1000
AcDbSavedByObjectVersion
1070
     0
  0
VISUALSTYLE
  5
3A
102
{ACAD_XDICTIONARY
360
4B0
102
}
102
{ACAD_REACTORS
330
2A
102
}
330
2A
100
AcDbVisualStyle
  2
ColorChange
 70
    16
 71
     2
 72
     2
 73
     3
 90
        0
 40
-0.6
 41
-30.0
 62
     5
 63
     8
 74
     1
 91
        4
 64
     7
 65
   257
 75
     1
175
     1
 42
1.0
 92
        8
 66
     8
 43
1.0
 76
     1
 77
     6
 78
     2
 67
     7
 79
     5
170
     0
171
     0
290
     0
174
     0
 93
        1
 44
0.0
173
     0
291
     1
 45
0.0
1001
ACAD
1000
AcDbSavedByObjectVersion
1070
     0
  0
VISUALSTYLE
  5
A4B
102
{ACAD_REACTORS
330
2A
102
}
330
2A
100
AcDbVisualStyle
  2
Conceptual
 70
     9
 71
     3
 72
     2
 73
     0
 90
        0
 40
-0.6
 41
-30.0
 62
     5
 63
     7
 74
     2
 91
        2
 64
     7
 65
   257
 75
     1
175
     1
 42
40.0
 92
        8
 66
     7
 43
1.0
 76
     1
 77
     6
 78
     2
 67
     7
 79
     3
170
     0
171
     0
290
     0
174
     0
 93
        1
 44
0.0
173
     0
291
     0
 45
0.0
1001
ACAD
1000
AcDbSavedByObjectVersion
1070
     0
  0
VISUALSTYLE
  5
35
102
{ACAD_XDICTIONARY
360
4A6
102
}
102
{ACAD_REACTORS
330
2A
102
}
330
2A
100
AcDbVisualStyle
  2
Dim
 70
    11
 71
     2
 72
     2
 73
     0
 90
        0
 40
-0.6
 41
-30.0
 62
     5
 63
     7
 74
     1
 91
        4
 64
     7
 65
   257
 75
     1
175
     1
 42
1.0
 92
        8
 66
     7
 43
1.0
 76
     1
 77
     6
 78
     2
 67
     7
 79
     5
170
     0
171
     0
290
     0
174
     0
 93
        1
 44
-50.0
173
     0
291
     1
 45
0.0
1001
ACAD
1000
AcDbSavedByObjectVersion
1070
     0
  0
VISUALSTYLE
  5
39
102
{ACAD_XDICTIONARY
360
4AE
102
}
102
{ACAD_REACTORS
330
2A
102
}
330
2A
100
AcDbVisualStyle
  2
Facepattern
 70
    15
 71
     2
 72
     2
 73
     0
 90
        0
 40
-0.6
 41
-30.0
 62
     5
 63
     7
 74
     1
 91
        4
 64
     7
 65
   257
 75
     1
175
     1
 42
1.0
 92
        8
 66
     7
 43
1.0
 76
     1
 77
     6
 78
     2
 67
     7
 79
     5
170
     0
171
     0
290
     0
174
     0
 93
        1
 44
0.0
173
     0
291
     1
 45
0.0
1001
ACAD
1000
AcDbSavedByObjectVersion
1070
     0
  0
VISUALSTYLE
  5
2B
102
{ACAD_XDICTIONARY
360
492
102
}
102
{ACAD_REACTORS
330
2A
102
}
330
2A
100
AcDbVisualStyle
  2
Flat
 70
     0
 71
     2
 72
     1
 73
     1
 90
        2
 40
-0.6
 41
30.0
 62
     5
 63
     7
 74
     0
 91
        4
 64
     7
 65
   257
 75
     1
175
     1
 42
1.0
 92
        8
 66
     7
 43
1.0
 76
     1
 77
     6
 78
     2
 67
     7
 79
     5
170
     0
171
     0
290
     0
174
     0
 93
       13
 44
0.0
173
     0
291
     1
 45
0.0
1001
ACAD
1000
AcDbSavedByObjectVersion
1070
     0
  0
VISUALSTYLE
  5
2C
102
{ACAD_XDICTIONARY
360
494
102
}
102
{ACAD_REACTORS
330
2A
102
}
330
2A
100
AcDbVisualStyle
  2
FlatWithEdges
 70
     1
 71
     2
 72
     1
 73
     1
 90
        2
 40
-0.6
 41
30.0
 62
     5
 63
     7
 74
     1
 91
        4
 64
     7
 65
   257
 75
     1
175
     1
 42
1.0
 92
        0
 66
   257
 43
1.0
 76
     1
 77
     6
 78
     2
 67
     7
 79
     5
170
     0
171
     0
290
     0
174
     0
 93
       13
 44
0.0
173
     0
291
     1
 45
0.0
1001
ACAD
1000
AcDbSavedByObjectVersion
1070
     0
  0
VISUALSTYLE
  5
2D
102
{ACAD_XDICTIONARY
360
496
102
}
102
{ACAD_REACTORS
330
2A
102
}
330
2A
100
AcDbVisualStyle
  2
Gouraud
 70
     2
 71
     2
 72
     2
 73
     1
 90
        2
 40
-0.6
 41
30.0
 62
     5
 63
     7
 74
     0
 91
        4
 64
     7
 65
   257
 75
     1
175
     1
 42
1.0
 92
        0
 66
     7
 43
1.0
 76
     1
 77
     6
 78
     2
 67
     7
 79
     5
170
     0
171
     0
290
     0
174
     0
 93
       13
 44
0.0
173
     0
291
     1
 45
0.0
1001
ACAD
1000
AcDbSavedByObjectVersion
1070
     0
  0
VISUALSTYLE
  5
2E
102
{ACAD_XDICTIONARY
360
498
102
}
102
{ACAD_REACTORS
330
2A
102
}
330
2A
100
AcDbVisualStyle
  2
GouraudWithEdges
 70
     3
 71
     2
 72
     2
 73
     1
 90
        2
 40
-0.6
 41
30.0
 62
     5
 63
     7
 74
     1
 91
        4
 64
     7
 65
   257
 75
     1
175
     1
 42
1.0
 92
        0
 66
   257
 43
1.0
 76
     1
 77
     6
 78
     2
 67
     7
 79
     5
170
     0
171
     0
290
     0
174
     0
 93
       13
 44
0.0
173
     0
291
     1
 45
0.0
1001
ACAD
1000
AcDbSavedByObjectVersion
1070
     0
  0
VISUALSTYLE
  5
38
102
{ACAD_XDICTIONARY
360
4AC
102
}
102
{ACAD_REACTORS
330
2A
102
}
330
2A
100
AcDbVisualStyle
  2
Linepattern
 70
    14
 71
     2
 72
     2
 73
     0
 90
        0
 40
-0.6
 41
-30.0
 62
     5
 63
     7
 74
     1
 91
        4
 64
     7
 65
   257
 75
     7
175
     7
 42
1.0
 92
        8
 66
     7
 43
1.0
 76
     1
 77
     6
 78
     2
 67
     7
 79
     5
170
     0
171
     0
290
     0
174
     0
 93
        1
 44
0.0
173
     0
291
     1
 45
0.0
1001
ACAD
1000
AcDbSavedByObjectVersion
1070
     0
  0
VISUALSTYLE
  5
A4C
102
{ACAD_XDICTIONARY
360
A4D
102
}
102
{ACAD_REACTORS
330
2A
102
}
330
2A
100
AcDbVisualStyle
  2
Realistic
 70
     8
 71
     2
 72
     2
 73
     0
 90
        0
 40
-0.6
 41
-30.0
 62
     5
 63
     7
 74
     1
 91
        0
 64
     7
 65
   257
 75
     1
175
     1
 42
1.0
 92
        8
 66
     8
 43
1.0
 76
     1
 77
     6
 78
     2
 67
     7
 79
     5
170
     0
171
     0
290
     0
174
     0
 93
       13
 44
0.0
173
     0
291
     0
 45
0.0
1001
ACAD
1000
AcDbSavedByObjectVersion
1070
     0
  0
VISUALSTYLE
  5
37
102
{ACAD_XDICTIONARY
360
4AA
102
}
102
{ACAD_REACTORS
330
2A
102
}
330
2A
100
AcDbVisualStyle
  2
Thicken
 70
    13
 71
     2
 72
     2
 73
     0
 90
        0
 40
-0.6
 41
-30.0
 62
     5
 63
     7
 74
     1
 91
        4
 64
     7
 65
   257
 75
     1
175
     1
 42
1.0
 92
       12
 66
     7
 43
1.0
 76
     1
 77
     6
 78
     2
 67
     7
 79
     5
170
     0
171
     0
290
     0
174
     0
 93
        1
 44
0.0
173
     0
291
     1
 45
0.0
1001
ACAD
1000
AcDbSavedByObjectVersion
1070
     0
  0
DICTIONARYVAR
  5
1055F
102
{ACAD_REACTORS
330
487
102
}
330
487
100
DictionaryVariables
280
     0
  1
1:1
  0
DICTIONARYVAR
  5
1055D
102
{ACAD_REACTORS
330
487
102
}
330
487
100
DictionaryVariables
280
     0
  1
STANDARD
  0
DICTIONARYVAR
  5
5FE
102
{ACAD_REACTORS
330
487
102
}
330
487
100
DictionaryVariables
280
     0
  1
STANDARD
  0
DICTIONARYVAR
  5
48A
102
{ACAD_REACTORS
330
487
102
}
330
487
100
DictionaryVariables
280
     0
  1
2
  0
DICTIONARYVAR
  5
48B
102
{ACAD_REACTORS
330
487
102
}
330
487
100
DictionaryVariables
280
     0
  1
1
  0
DICTIONARYVAR
  5
86B
102
{ACAD_REACTORS
330
487
102
}
330
487
100
DictionaryVariables
280
     0
  1
0
  0
DICTIONARYVAR
  5
10560
102
{ACAD_REACTORS
330
487
102
}
330
487
100
DictionaryVariables
280
     0
  1
0
  0
DICTIONARYVAR
  5
1055E
102
{ACAD_REACTORS
330
487
102
}
330
487
100
DictionaryVariables
280
     0
  1
0
  0
DICTIONARYVAR
  5
86A
102
{ACAD_REACTORS
330
487
102
}
330
487
100
DictionaryVariables
280
     0
  1
127
  0
DICTIONARY
  5
7D4
330
1E
100
AcDbDictionary
280
     1
281
     1
  3
ADSK_XREC_LAYOUTTHUMBNAIL
360
7D5
  0
DICTIONARY
  5
75EBE
330
3D
100
AcDbDictionary
280
     1
281
     1
  3
ACAD_XREC_ROUNDTRIP
360
75EBF
  0
DICTIONARY
  5
75EBC
330
3C
100
AcDbDictionary
280
     1
281
     1
  3
ACAD_XREC_ROUNDTRIP
360
75EBD
  0
DICTIONARY
  5
75EC0
330
3E
100
AcDbDictionary
280
     1
281
     1
  3
ACAD_XREC_ROUNDTRIP
360
75EC1
  0
DICTIONARY
  5
1055A
330
4BB
100
AcDbDictionary
280
     1
281
     1
  3
ACAD_ROUNDTRIP_2008_TABLESTYLE_CELLSTYLEMAP
360
75EBB
  3
ACAD_XREC_ROUNDTRIP
360
75EC2
  0
DICTIONARY
  5
49A
330
2F
100
AcDbDictionary
280
     1
281
     1
  3
ACAD_XREC_ROUNDTRIP
360
49B
  0
DICTIONARY
  5
A49
330
A48
100
AcDbDictionary
280
     1
281
     1
  3
ACAD_XREC_ROUNDTRIP
360
A4A
  0
DICTIONARY
  5
4A0
330
32
100
AcDbDictionary
280
     1
281
     1
  3
ACAD_XREC_ROUNDTRIP
360
4A1
  0
DICTIONARY
  5
4A8
330
36
100
AcDbDictionary
280
     1
281
     1
  3
ACAD_XREC_ROUNDTRIP
360
4A9
  0
DICTIONARY
  5
4B0
330
3A
100
AcDbDictionary
280
     1
281
     1
  3
ACAD_XREC_ROUNDTRIP
360
4B1
  0
DICTIONARY
  5
4A6
330
35
100
AcDbDictionary
280
     1
281
     1
  3
ACAD_XREC_ROUNDTRIP
360
4A7
  0
DICTIONARY
  5
4AE
330
39
100
AcDbDictionary
280
     1
281
     1
  3
ACAD_XREC_ROUNDTRIP
360
4AF
  0
DICTIONARY
  5
492
330
2B
100
AcDbDictionary
280
     1
281
     1
  3
ACAD_XREC_ROUNDTRIP
360
493
  0
DICTIONARY
  5
494
330
2C
100
AcDbDictionary
280
     1
281
     1
  3
ACAD_XREC_ROUNDTRIP
360
495
  0
DICTIONARY
  5
496
330
2D
100
AcDbDictionary
280
     1
281
     1
  3
ACAD_XREC_ROUNDTRIP
360
497
  0
DICTIONARY
  5
498
330
2E
100
AcDbDictionary
280
     1
281
     1
  3
ACAD_XREC_ROUNDTRIP
360
499
  0
DICTIONARY
  5
4AC
330
38
100
AcDbDictionary
280
     1
281
     1
  3
ACAD_XREC_ROUNDTRIP
360
4AD
  0
DICTIONARY
  5
A4D
330
A4C
100
AcDbDictionary
280
     1
281
     1
  3
ACAD_XREC_ROUNDTRIP
360
A4E
  0
DICTIONARY
  5
4AA
330
37
100
AcDbDictionary
280
     1
281
     1
  3
ACAD_XREC_ROUNDTRIP
360
4AB
  0
XRECORD
  5
7D5
102
{ACAD_REACTORS
330
7D4
102
}
330
7D4
100
AcDbXrecord
280
     1
310
28000000B40000007F00000001000800000000004C59000000000000000000000001000000000000FFFFFF0000000000FFFFFF000000000000000000000000000000000000000000000000000000000000000000330000006600000099000000CC000000FF00000000330000333300006633000099330000CC330000FF3300
310
0000660000336600006666000099660000CC660000FF66000000990000339900006699000099990000CC990000FF99000000CC000033CC000066CC000099CC0000CCCC0000FFCC000000FF000033FF000066FF000099FF0000CCFF0000FFFF000000003300330033006600330099003300CC003300FF003300003333003333
310
33006633330099333300CC333300FF33330000663300336633006666330099663300CC663300FF66330000993300339933006699330099993300CC993300FF99330000CC330033CC330066CC330099CC3300CCCC3300FFCC330000FF330033FF330066FF330099FF3300CCFF3300FFFF330000006600330066006600660099
310
006600CC006600FF00660000336600333366006633660099336600CC336600FF33660000666600336666006666660099666600CC666600FF66660000996600339966006699660099996600CC996600FF99660000CC660033CC660066CC660099CC6600CCCC6600FFCC660000FF660033FF660066FF660099FF6600CCFF6600
310
FFFF660000009900330099006600990099009900CC009900FF00990000339900333399006633990099339900CC339900FF33990000669900336699006666990099669900CC669900FF66990000999900339999006699990099999900CC999900FF99990000CC990033CC990066CC990099CC9900CCCC9900FFCC990000FF99
310
0033FF990066FF990099FF9900CCFF9900FFFF99000000CC003300CC006600CC009900CC00CC00CC00FF00CC000033CC003333CC006633CC009933CC00CC33CC00FF33CC000066CC003366CC006666CC009966CC00CC66CC00FF66CC000099CC003399CC006699CC009999CC00CC99CC00FF99CC0000CCCC0033CCCC0066CC
310
CC0099CCCC00CCCCCC00FFCCCC0000FFCC0033FFCC0066FFCC0099FFCC00CCFFCC00FFFFCC000000FF003300FF006600FF009900FF00CC00FF00FF00FF000033FF003333FF006633FF009933FF00CC33FF00FF33FF000066FF003366FF006666FF009966FF00CC66FF00FF66FF000099FF003399FF006699FF009999FF00CC
310
99FF00FF99FF0000CCFF0033CCFF0066CCFF0099CCFF00CCCCFF00FFCCFF0000FFFF0033FFFF0066FFFF0099FFFF00CCFFFF00FFFFFF00000000000D0D0D001A1A1A00282828003535350043434300505050005D5D5D006B6B6B00787878008686860093939300A1A1A100AEAEAE00BBBBBB00C9C9C900D6D6D600E4E4E400
310
F1F1F100FFFFFF0000000000000000000000000000000000000000000000000000000000000000000000000000000000E2E2E2E2E2E2E2E2E2E2E2E2E2E2E2E2E2E2E2E2E2E2E2E2E2E2E2E2E2E2E2E2E2E2E2E2E2E2E2E2E2E2E2E2E2E2E2E2E2E2E2E2E2E2E2E2E2E2E2E2E2E2E2E2E2E2E2E2E2E2E2E2E2E2E2E2E2E2E2
310
E2E2E2E2E2E2E2E2E2E2E2E2E2E2E2E2E2E2E2E2E2E2E2E2E2E2E2E2E2E2E2E2E2E2E2E2E2E2E2E2E2E2E2E2E2E2E2E2E2E2E2E2E2E2E2E2E2E2E2E2E2E2E2E2E2E2E2E2E2E2E2E2E2E2E2E2E2E2E2E2E2E2E2E2E2E2E2E2E2E2E2E2E2E2E2E2E2E2E2E2EFE2E2E2E2E2E2E2E2E2E2E2E2E2E2E2E2E2E2E2E2E2E2E2E2E2E2
310
E2E2E2E2E2E2E2E2E2E2E2E2E2E2E2E2E2E2E2E2E2E2E2E2E2E2E2E2E2E2E2E2E2E2E2E2E2E2E2E2E2E2E2E2E2E2E2E2E2E2E2E2E2E2E2E2E2E2E2E2E2E2E2E2E2E2E2E2E2E2E2E2E2E2E2E2E2E2E2E2E2E2E2E2E2E2E2E2E2E2E2E2E2E2E2E2E2E2E2E2E2E2E2E2E2E2E2E2E2E2E2E2E2E2E2E2E2E2E2E2E2E2E2E2E2E2E2
310
E2E2E2E2E2E2E2E2E2E2E2E2E2E2E2E2E2E2E2E2E2E2E2E2E2E2EFE2E2F5F5F5F5F5F5F5F5F5F5F5F5F5F5F5F5F5F5F5F5F5F5F5F5F5F5F5F5F5F5F5F5F5F5F5F5F5F5F5F5F5F5F5F5F5F5F5F5F5F5F5F5F5F5F5F5F5F5F5F5F5F5F5F5F5F5F5F5F5F5F5F5F5F5F5F5F5F5F5F5F5F5F5F5F5F5F5F5F5F5F5F5F5F5F5F5F5F5
310
F5F5F5F5F5F5F5F5F5F5F5F5F5F5F5F5F5F5F5F5F5F5F5F5F5F5F5F5F5F5F5F5F5F5F5F5F5F5F5F5F5F5F5F5F5F5F5F5F5F5F5F5F5F5F5F5F5F5F5F5F5F5F5F5F5F5F5F5F5F5F5F5F5F5F5E2E2E2E2EFE2E2F5F5F5F5F5F5F5F5F5F5F5F5F5F5F5F5F5F5F5F5F5F5F5F5F5F5F5F5F5F5F5F5F5F5F5F5F5F5F5F5F5F5F5F5F5
310
F5F5F5F5F5F5F5F5F5F5F5F5F5F5F5F5F5F5F5F5F5F5F5F5F5F5F5F5F5F5F5F5F5F5F5F5F5F5F5F5F5F5F5F5F5F5F5F5F5F5F5F5F5F5F5F5F5F5F5F5F5F5F5F5F5F5F5F5F5F5F5F5F5F5F5F5F5F5F5F5F5F5F5F5F5F5F5F5F5F5F5F5F5F5F5F5F5F5F5F5F5F5F5F5F5F5F5F5F5F5F5F5F5F5F5F5F5F5F5F5F5F5F5F5F5F5F5
310
F5E2E2E2E2EFE2E2F5F5F5F5F5F5F5F5F5F5F5F5F5F5F5F5F5F5F5F5F5F5F5F5F5F5F5F5F5F5F5F5F5F5F5F5F5F5F5F5F5F5F5F5F5F5F5F5F5F5F5F5F5F5F5F5F5F5F5F5F5F5F5F5F5F5F5F5F5F5F5F5F5F5F5F5F5F5F5F5F5F5F5F5F5F5F5F5F5F5F5F5F5F5F5F5F5F5F5F5F5F5F5F5F5F5F5F5F5F5F5F5F5F5F5F5F5F5F5
310
F5F5F5F5F5F5F5F5F5F5F5F5F5F5F5F5F5F5F5F5F5F5F5F5F5F5F5F5F5F5F5F5F5F5F5F5F5F5F5F5F5F5F5F5F5F5F5F5F5F5F5F5F5F5E2E2E2E2EFE2E2F5F5F5F5F5F5F5F5F5F5F5F5F5F5F5F5F5F5F5F5F5F5F5F5F5F5F5F5F5F5F5F5F5F5F5F5F5F5F5F5F5F5F5F5F5F5F5F5F5F5F5F5F5F5F5F5F5F5F5F5F5F5F5F5F5F5
310
F5F5F5F5F5F5F5F5F5F5F5F5F5F5F5F5F5F5F5F5F5F5F5F5F5F5F5F5F5F5F5F5F5F5F5F5F5F5F5F5F5F5F5F5F5F5F5F5F5F5F5F5F5F5F5F5F5F5F5F5F5F5F5F5F5F5F5F5F5F5F5F5F5F5F5F5F5F5F5F5F5F5F5F5F5F5F5F5F5F5F5F5F5F5F5F5F5F5F5F5F5F5F5F5F5F5F5E2E2E2E2EFE2E2F5F5F5F5F5F5F5F5F5F5F5F5F5
310
F5F5F5F5F5F5F5F5F5F5F5F5F5F5F5F5F5F5F5F5F5F5F5F5F5F5F5F5F5F5F5F5F5F5F5F5F5F5F5F5F5F5F5F5F5F5F5F5F5F5F5F5F5F5F5F5F5F5F5F5F5F5F5F5F5F5F5F5F5F5F5F5F5F5F5F5F5F5F5F5F5F5F5F5F5F5F5F5F5F5F5F5F5F5F5F5F5F5F5F5F5F5F5F5F5F5F5F5F5F5F5F5F5F5F5F5F5F5F5F5F5F5F5F5F5F5F5
310
F5F5F5F5F5F5F5F5F5F5F5F5F5F5F5F5F5F5F5F5F5F5F5F5F5F5F5F5F5F5F5F5F5E2E2E2E2EFE2E2F5F5F5F5F5F5F5F5F5F5F5F5F5F5F5F5F5F5F5F5F5F5F5F5F5F5F5F5F5F5F5F5F5F5F5F5F5F5F5F5F5F5F5F5F5F5F5F5F5F5F5F5F5F5F5F5F5F5F5F5F5F5F5F5F5F5F5F5F5F5F5F5F5F5F5F5F5F5F5F5F5F5F5F5F5F5F5
310
F5F5F5F5F5F5F5F5F5F5F5F5F5F5F5F5F5F5F5F5F5F5F5F5F5F5F5F5F5F5F5F5F5F5F5F5F5F5F5F5F5F5F5F5F5F5F5F5F5F5F5F5F5F5F5F5F5F5F5F5F5F5F5F5F5F5F5F5F5F5F5F5F5F5F5F5F5F5F5F5F5F5F5F5F5F5E2E2E2E2EFE2E2F5F5F5F5F5F5F5F5F5F5F5F5F5F5F5F5F5F5F5F5F5F5F5F5F5F5F5F5F5F5F5F5F5F5
310
F5F5F5F5F5F5F5F5F5F5F5F5F5F5F5F5F5F5F5F5F5F5F5F5F5F5F5F5F5F5F5F5F5F5F5F5F5F5F5F5F5F5F5F5F5F5F5F5F5F5F5F5F5F5F5F5F5F5F5F5F5F5F5F5F5F5F5F5F5F5F5F5F5F5F5F5F5F5F5F5F5F5F5F5F5F5F5F5F5F5F5F5F5F5F5F5F5F5F5F5F5F5F5F5F5F5F5F5F5F5F5F5F5F5F5F5F5F5F5F5F5F5F5F5F5F5F5
310
F5F5F5F5F5F5F5F5F5F5F5F5E2E2E2E2EFE2E2F5F5F5F5F5F5F5F5F5F5F5F5F5F5F5F5F5F5F5F5F5F5F5F5F5F5F5F5F5F5F5F5F5F5F5F5F5F5F5F5F5F5F5F5F5F5F5F5F5F5F5F5F5F5F5F5F5F5F5F5F5F5F5F5F5F5F5F5F5F5F5F5F5F5F5F5F5F5F5F5F5F5F5F5F5F5F5F5F5F5F5F5F5F5F5F5F5F5F5F5F5F5F5F5F5F5F5F5
310
F5F5F5F5F5F5F5F5F5F5F5F5F5F5F5F5F5F5F5F5F5F5F5F5F5F5F5F5F5F5F5F5F5F5F5F5F5F5F5F5F5F5F5F5F5F5F5F5F5F5F5F5F5F5F5F5F5F5F5F5F5F5F5F5F5E2F5E2E2EFE2E2F5F5F5F5F5F5F5F5F5F5F5F5F5F5F5F5F5F5F5F5F5F5F5F5F5F5F5F5F5F5F5F5F5F5F5F5F5F5F5F5F5F5F5F5F5F5F5F5F5F5F5F5F5F5F5
310
F5F5F5F5F5F5F5F5F5F5F5F5F5F5F5F5F5F5F5F5F5F5F5F5F5F5F5F5F5F5F5F5F5F5F5F5F5F5F5F5F5F5F5F5F5F5F5F5F5F5F5F5F5F5F5F5F5F5F5F5F5F5F5F5F5F5F5F5F5F5F5F5F5F5F5F5F5F5F5F5F5F5F5F5F5F5F5F5F5F5F5F5F5F5F5F5F5F5F5F5F5F5F5F5F5F5F5F5F5F5F5F5F5F5F5F5F5F5E2F5E2E2EFE2E2F5F5
310
F5F5F5F5F5F5F5F5F5F5F5F5F5F5F5F5F5F5F5F5F5F5F5F5F5F5F5F5F5F5F5F5F5F5F5F5F5F5F5F5F5F5F5F5F5F5F5F5F5F5F5F5F5F5F5F5F5F5F5F5F5F5F5F5F5F5F5F5F5F5F5F5F5F5F5F5F5F5F5F5F5F5F5F5F5F5F5F5F5F5F5F5F5F5F5F5F5F5F5F5F5F5F5F5F5F5F5F5F5F5F5F5F5F5F5F5F5F5F5F5F5F5F5F5F5F5F5
310
F5F5F5F5F5F5F5F5F5F5F5F5F5F5F5F5F5F5F5F5F5F5F5F5F5F5F5F5F5F5F5F5F5F5F5F5F5F5F5F5F5F5F5F5E2F5E2E2EFE2E2F5F5F5F5F5F5F5F5F5F5F5F5F5F5F5F5F5F5F5F5F5F5F5F5F5F5F5F5F5F5F5F5F5F5F5F5F5F5F5F5F5F5F5F5F5F5F5F5F5F5F5F5F5F5F5F5F5F5F5F5F5F5F5F5F5F5F5F5F5F5F5F5F5F5F5F5
310
F5F5F5F5F5F5F5F5F5F5F5F5F5F5F5F5F5F5F5F5F5F5F5F5F5F5F5F5F5F5F5F5F5F5F5F5F5F5F5F5F5F5F5F5F5F5F5F5F5F5F5F5F5F5F5F5F5F5F5F5F5F5F5F5F5F5F5F5F5F5F5F5F5F5F5F5F5F5F5F5F5F5F5F5F5F5F5F5F5F5F5F5F5F5F5F5F5E2F5E2E2EFE2E2F5F5F5F5F5F5F5F5F5F5F5F5F5F5F5F5F5F5F5F5F5F5F5
310
F5F5F5F5F5F5F5F5F5F5F5F5F5F5F5F5F5F5F5F5F5F5F5F5F5F5F5F5F5F5F5F5F5F5F5F5F5F5F5F5F5F5F5F5F5F5F5F5F5F5F5F5F5F5F5F5F5F5F5F5F5F5F5F5F5F5F5F5F5F5F5F5F5F5F5F5F5F5F5F5F5F5F5F5F5F5F5F5F5F5F5F5F5F5F5F5F5F5F5F5F5F5F5F5F5F5F5F5F5F5F5F5F5F5F5F5F5F5F5F5F5F5F5F5F5F5F5
310
F5F5F5F5F5F5F5F5F5F5F5F5F5F5F5F5F5F5F5F5F5F5F5E2F5E2E2EFE2E2F5F5F5F5F5F5F5F5F5F5F5F5F5F5F5F5F5F5F5F5F5F5F5F5F5F5F5F5F5F5F5F5F5F5F5F5F5F5F5F5F5F5F5F5F5F5F5F5F5F5F5F5F5F5F5F5F5F5F5F5F5F5F5F5F5F5F5F5F5F5F5F5F5F5F5F5F5F5F5F5F5F5F5F5F5F5F5F5F5F5F5F5F5F5F5F5F5
310
F5F5F5F5F5F5F5F5F5F5F5F5F5F5F5F5F5F5F5F5F5F5F5F5F5F5F5F5F5F5F5F5F5F5F5F5F5F5F5F5F5F5F5F5F5F5F5F5F5F5F5F5F5F5F5F5F5F5F5F5F5F5F5F5F5F5F5F5F5F5F5F5F5F5F5F5E2F5E2E2EFE2E2F5F5F5F5F5F5F5F5F5F5F5F5F5F5F5F5F5F5F5F5F5F5F5F5F5F5F5F5F5F5F5F5F5F5F5F5F5F5F5F5F5F5F5F5
310
F5F5F5F5F5F5F5F5F5F5F5F5F5F5F5F5F5F5F5F5F5F5F5F5F5F5E2E2E2E2E2E2E2E2E2E2E2E2E2E2E2E2E2E2E2E2E2E2E2E2E2E2E2E2E2E2E2E2F5F5F5F5F5F5F5F5F5F5F5F5F5F5F5F5F5F5F5F5F5F5F5F5F5F5F5F5F5F5F5F5F5F5F5F5F5F5F5F5F5F5F5F5F5F5F5F5F5F5F5F5F5F5F5F5F5F5F5F5F5F5F5F5F5F5F5F5F5
310
F5F5E2F5E2E2EFE2E2F5F5F5F5F5F5F5F5F5F5F5F5F5F5F5F5F5F5F5F5F5F5F5F5F5F5F5F5F5F5F5F5F5F5F5F5F5F5F5F5F5F5F5F5F5F5F5F5F5F5F5F5F5F5F5F5F5F5F5F5F5F5F5F5F5F5F5F5F5F5E2E2E2E2E2E2E2E2E2E2E2E2E2E2E2E2E2E2E2E2E2E2E2E2E2E2E2E2E2E2E2E2F5F5F5F5F5F5F5F5F5F5F5F5F5F5F5F5
310
F5F5F5F5F5F5F5F5F5F5F5F5F5F5F5F5F5F5F5F5F5F5F5F5F5F5F5F5F5F5F5F5F5F5F5F5F5F5F5F5F5F5F5F5F5F5F5F5F5F5F5F5F5F5F5E2F5E2E2EFE2E2F5F5F5F5F5F5F5F5F5F5F5F5F5F5F5F5F5F5F5F5F5F5F5F5F5F5F5F5F5F5F5F5F5F5F5F5F5F5F5F5F5F5F5F5F5F5F5F5F5F5F5F5F5F5F5F5F5F5F5F5F5F5F5F5F5
310
F5F5F5F5F5F5F5F5F5F5F5F5F5F5F5F5F5F5F5F5F5F5F5F5F5F5F5F5F5F5F5F5F5F5F5F5F5F5F5F5F5F5F5F5F5F5F5F5F5F5F5F5F5F5F5F5F5F5F5F5F5F5F5F5F5F5F5F5F5F5F5F5F5F5F5F5F5F5F5F5F5F5F5F5F5F5F5F5F5F5F5F5F5F5F5F5F5F5F5F5F5F5F5F5F5F5F5F5E2F5E2E2EFE2E2F5F5F5F5F5F5F5F5F5F5F5F5
310
F5F5F5F5F5F5F5F5F5F5F5F5F5F5F5F5F5F5F5F5F5F5F5F5F5F5F5F5F5F5F5F5F5F5F5F5F5F5F5F5F5F5F5F5F5F5F5F5F5F5F5F5F5F5F5F5F5F5F5F5F5F5F5F5F5F5F5F5F5F5F5F5F5F5F5F5F5F5F5F5F5F5F5F5F5F5F5F5F5F5F5F5F5F5F5F5F5F5F5F5F5F5F5F5F5F5F5F5F5F5F5F5F5F5F5F5F5F5F5F5F5F5F5F5F5F5F5
310
F5F5F5F5F5F5F5F5F5F5F5F5F5F5F5F5F5F5F5F5F5F5F5F5F5F5F5F5F5F5F5F5F5F5E2E2E2E2EFE2E2F5F5F5F5F5F5F5F5F5F5F5F5F5F5F5F5F5F5F5F5F5F5F5F5F5F5F5F5F5F5F5F5F5E2BEF5F5F5F5F5F5F5F5F5F5F5F5F5F5F5F5F5F5F5F5F5F5F5F5F5F5F5F5F5F5F5F5F5F5F5F5F5F5F5F5F5F5F5F5F5F5F5F5F5F5F5
310
F5F5F5F5F5F5F5F5F5F5F5F5F5F5F5F5F5F5F5F5F5F5F5F5F5F5F5F5F5F5F5F5F5F5F5F5F5F5F5F5F5F5F5F5F5F5F5F5F5F5F5F5F5F5F5F5F5F5F5F5F5F5F5F5F5F5F5F5F5F5F5F5F5F5F5F5F5F5F5F5F5F5F5F5F5F5F5E2E2E2E2EFE2E2F5F5F5F5F5F5F5F5F5F5F5F5F5F5F5F5F5F5F5F5F5F5F5F5F5F5F5F5F5F5F5F5E2
310
E2BEE2F5F5F5F5F5F5F5F5F5F5F5F5F5F5F5F5F5F5F5F5F5F5F5F5F5F5F5F5F5F5F5F5F5F5E2E2E2E2F5E2E2E2E2E2E2F5E2E2E2E2E2F5E2E2E2E2E2F5E2E2E2E2E2E2F5E2E2E2E2E2F5E2E2E2E2E2F5F5F5F5F5F5F5F5F5F5F5F5F5F5F5F5F5F5F5F5F5F5F5F5F5F5F5F5F5F5F5F5F5F5F5F5F5F5F5F5F5F5F5F5F5F5F5F5
310
F5F5F5F5F5F5F5F5F5F5F5F5F5E2E2E2E2EFE2E2F5F5F5F5F5F5F5F5F5F5F5F5F5F5F5F5F5F5F5F5F5F5F5F5F5F5F5F5F5F5F5F5F5E2F5F5F5F5F5F5F5F5F5F5F5F5F5F5F5F5F5F5F5F5F5F5F5F5F5F5F5F5F5F5F5F5F5F5F5F5E2F5F5F5F5F5F5F5F5F5F5F5F5F5F5F5F5F5F5F5F5F5F5F5F5F5F5F5F5F5F5F5F5F5F5F5F5
310
F5F5F5F5E2F5F5F5F5F5F5F5F5F5F5F5F5F5F5F5F5F5F5F5F5F5F5F5F5F5F5F5F5F5F5F5F5F5F5F5F5F5F5F5F5F5F5F5F5F5F5F5F5F5F5F5F5F5F5F5F5F5F5F5F5F5E2E2E2E2EFE2E2F5F5F5F5F5F5F5F5F5F5F5F5F5F5F5F5F5F5F5F5F5F5F5F5F5F5F5F5F5F5F5F5F5E2F5F5F5F5F5F5F5F5F5F5F5F5F5F5F5F5F5F5F5F5
310
F5F5F5F5F5F5F5F5F5F5F5F5F5F5F5F5E2F5F5F5F5F5F5F5F5F5F5F5F5F5F5F5F5F5F5F5F5F5F5F5F5F5F5F5F5F5F5F5F5F5F5F5F5F5F5F5F5E2F5F5F5F5F5F5F5F5F5F5F5F5F5F5F5F5F5F5F5F5F5F5F5F5F5F5F5F5F5F5F5F5F5F5F5F5F5F5F5F5F5F5F5F5F5F5F5F5F5F5F5F5F5F5F5F5F5F5F5F5F5E2E2E2E2EFE2E2F5
310
F5F5F5F5F5F5F5F5F5F5F5F5F5F5F5F5F5F5F5F5F5F5F5F5F5F5F5F5F5F5F5F5E2F5F5F5F5F5F5F5F5F5F5F5F5F5F5F5F5F5F5F5F5F5F5F5F5F5F5F5F5F5F5F5F5F5F5F5F5E2F5F5F5F5F5F5F5F5F5F5F5F5F5F5F5F5F5F5F5F5F5F5F5F5F5F5F5F5F5F5F5F5F5F5F5F5F5F5F5F5E2F5F5F5F5F5F5F5F5F5F5F5F5F5F5F5F5
310
F5F5F5F5F5F5F5F5F5F5F5F5F5F5F5F5F5F5F5F5F5F5F5F5F5F5F5F5F5F5F5F5F5F5F5F5F5F5F5F5F5F5F5F5F5E2E2E2E2EFE2E2F5F5F5F5F5F5F5F5F5F5F5F5F5F5F5F5F5F5F5F5F5F5F5F5F5F5F5F5F5F5F5F5F5E2F5F5F5F5F5F5F5F5F5F5F5F5F5F5F5F5F5F5F5F5F5F5F5F5F5F5F5F5F5F5F5F5F5F5F5F5F5F5F5F5F5
310
F5F5F5F5F5F5F5F5F5F5F5F5F5F5F5F5F5F5F5F5F5F5F5F5F5F5F5F5F5F5F5F5F5F5F5F5E2F5F5F5F5F5F5F5F5F5F5F5F5F5F5F5F5F5F5F5F5F5F5F5F5F5F5F5F5F5F5F5F5F5F5F5F5F5F5F5F5F5F5F5F5F5F5F5F5F5F5F5F5F5F5F5F5F5F5F5F5F5E2E2E2E2EFE2E2F5F5F5F5F5F5F5F5F5F5F5F5F5F5F5F5F5F5F5F5F5F5
310
F5F5F5F5F5F5F5F5F5F5F5E2F5F5F5F5F5F5F5F5F5F5F5F5F5F5F5F5F5F5F5F5F5F5F5F5F5F5F5F5F5F5F5F5F5F5F5F5E2F5F5F5F5F5F5F5F5F5F5F5F5F5F5F5F5F5F5F5F5F5F5F5F5F5F5F5F5F5F5F5F5F5F5F5F5F5F5F5F5F5F5F5F5F5F5F5F5F5F5F5F5F5F5F5F5F5F5F5F5F5F5F5F5F5F5F5F5F5F5F5F5F5F5F5F5F5F5
310
F5F5F5F5F5F5F5F5F5F5F5F5F5F5F5F5F5F5F5F5F5F5F5F5E2E2E2E2EFE2E2F5F5F5F5F5F5F5F5F5F5F5F5F5F5F5F5F5F5F5F5F5F5F5F5F5F5F5F5F5F5F5F5F5E2F5F5F5F5F5F5F5F5F5F5F5F5F5F5F5F5F5F5F5F5F5F5F5F5F5F5F5F5F5F5F5F5F5F5F5F5E2F5F5F5F5F5F5F5F5F5F5F5F5F5F5F5F5F5F5F5F5F5F5F5F5F5
310
F5F5F5F5F5F5F5F5F5F5F5F5F5F5F5E2F5F5F5F5F5F5F5F5F5F5F5F5F5F5F5F5F5F5F5F5F5F5F5F5F5F5F5F5F5F5F5F5F5F5F5F5F5F5F5F5F5F5F5F5F5F5F5F5F5F5F5F5F5F5F5F5F5F5F5F5F5E2E2E2E2EFE2E2F5F5F5F5F5F5F5F5F5F5F5F5F5F5F5F5F5F5F5F5F5F5F5F5F5F5F5F5F5F5F5F5F5E2F5F5F5F5F5F5F5F5F5
310
F5F5F5F5F5F5F5F5F5F5F5F5F5F5F5F5F5F5F5F5F5F5F5F5F5F5F5E2F5F5F5F5F5F5F5F5F5F5F5F5F5F5F5F5F5F5F5F5F5F5F5F5F5F5F5F5F5F5F5F5F5F5F5F5F5F5F5F5E2F5F5F5F5F5F5F5F5F5F5F5F5F5F5F5F5F5F5F5F5F5F5F5F5F5F5F5F5F5F5F5F5F5F5F5F5F5F5F5F5F5F5F5F5F5F5F5F5F5F5F5F5F5F5F5F5F5F5
310
F5F5F5E2E2E2E2EFE2E2F5F5F5F5F5F5F5F5F5F5F5F5F5F5F5F5F5F5F5F5F5F5F5F5F5F5F5F5F5F5F5F5F5E2F5F5F5F5F5F5F5F5F5F5F5F5F5F5F5F5F5F5F5F5F5F5F5F5F5F5F5F5F5F5F5F5F5F5F5F5E2F5F5F5F5F5F5F5F5F5F5F5F5F5F5F5F5F5F5F5F5F5F5F5F5F5F5F5F5F5F5F5F5F5F5F5F5F5F5F5F5E2F5F5F5F5F5
310
F5F5F5F5F5F5F5F5F5F5F5F5F5F5F5F5F5F5F5F5F5F5F5F5F5F5F5F5F5F5F5F5F5F5F5F5F5F5F5F5F5F5F5F5F5F5F5F5F5F5F5F5F5F5F5F5E2E2E2E2EFE2E2F5F5F5F5F5F5F5F5F5F5F5F5F5F5F5F5F5F5F5F5F5F5F5F5F5F5F5F5F5F5F5F5F5E2F5F5F5F5F5F5F5F5F5F5F5F5F5F5F5F5F5F5F5F5F5F5F5F5F5F5F5F5F5F5
310
F5F5F5F5F5F5E2F5F5F5F5F5F5F5F5F5F5F5F5F5F5F5F5F5F5F5F5F5F5F5F5F5F5F5F5F5F5F5F5F5F5F5F5F5F5F5F5E2F5F5F5F5F5F5F5F5F5F5F5F5F5F5F5F5F5F5F5F5F5F5F5F5F5F5F5F5F5F5F5F5F5F5F5F5F5F5F5F5F5F5F5F5F5F5F5F5F5F5F5F5F5F5F5F5F5F5F5F5F5E2E2E2E2EFE2E2F5F5F5F5F5F5F5F5F5F5F5
310
F5F5F5F5F5F5F5F5F5F5F5F5F5F5F5F5F5F5F5F5F5F5E2F5F5F5F5F5F5F5F5F5F5F5F5F5F5F5F5F5F5F5F5F5F5F5F5F5F5F5F5F5F5F5F5F5F5F5F5E2F5F5F5F5F5F5F5F5F5F5F5F5F5F5F5F5F5F5F5F5F5F5F5F5F5F5F5F5F5F5F5F5F5F5F5F5F5F5F5F5E2F5F5F5F5F5F5F5F5F5F5F5F5F5F5F5F5F5F5F5F5F5F5F5F5F5F5
310
F5F5F5F5F5F5F5F5F5F5F5F5F5F5F5F5F5F5F5F5F5F5F5F5F5F5F5F5F5F5F5F5F5F5F5E2E2E2E2EFE2E2F5F5F5F5F5F5F5F5F5F5F5F5F5F5F5F5F5F5F5F5F5F5F5F5F5F5F5F5F5F5F5F5F5E2F5F5F5F5F5F5F5F5F5F5F5F5F5F5F5F5F5F5F5F5F5F5F5F5F5F5F5F5F5F5F5F5F5F5F5F5F5F5F5F5F5F5F5F5F5F5F5F5F5F5F5
310
F5F5F5F5F5F5F5F5F5F5F5F5F5F5F5F5F5F5F5F5F5F5F5F5F5F5F5F5F5F5F5F5F5F5F5F5F5F5F5F5F5F5F5F5F5F5F5F5F5F5F5F5F5F5F5F5F5F5F5F5F5F5F5F5F5F5F5F5F5F5F5F5F5F5F5F5F5F5F5F5F5F5F5F5F5F5F5F5E2E2E2E2EFE2E2F5F5F5F5F5F5F5F5F5F5F5F5F5F5F5F5F5F5F5F5F5F5F5F5F5F5F5F5F5F5F5F5
310
F5E2F5F5F5F5F5F5F5F5F5F5F5F5F5F5F5F5F5F5F5F5F5F5F5F5F5F5F5F5F5F5F5F5F5F5F5F5E2F5F5F5F5F5F5F5F5F5F5F5F5F5F5F5F5F5F5F5F5F5F5F5F5F5F5F5F5F5F5F5F5F5F5F5F5F5F5F5F5E2F5F5F5F5F5F5F5F5F5F5F5F5F5F5F5F5F5F5F5F5F5F5F5F5F5F5F5F5F5F5F5F5F5F5F5F5F5F5F5F5F5F5F5F5F5F5F5
310
F5F5F5F5F5F5F5F5F5F5F5F5F5F5E2E2E2E2EFE2E2F5F5F5F5F5F5F5F5F5F5F5F5F5F5F5F5F5F5F5F5F5F5F5F5F5F5F5F5F5F5F5F5F5E2F5F5F5F5F5F5F5F5F5F5F5F5F5F5F5F5F5F5F5F5F5F5F5F5F5F5F5F5F5F5F5F5F5F5F5F5E2F5F5F5F5F5F5F5F5F5F5F5F5F5F5F5F5F5F5F5F5F5F5F5F5F5F5F5F5F5F5F5F5F5F5F5
310
F5F5F5F5F5E2F5F5F5F5F5F5F5F5F5F5F5F5F5F5F5F5F5F5F5F5F5F5F5F5F5F5F5F5F5F5F5F5F5F5F5F5F5F5F5F5F5F5F5F5F5F5F5F5F5F5F5F5F5F5F5F5F5F5F5F5F5E2E2E2E2EFE2E2F5F5F5F5F5F5F5F5F5F5F5F5F5F5F5F5F5F5F5F5F5F5F5F5F5F5F5F5F5F5F5F5F5E2F5F5F5F5F5F5F5F5F5F5F5F5F5F5F5F5F5F5F5
310
F5F5F5F5F5F5F5F5F5F5F5F5F5F5F5F5F5E2F5F5F5F5F5F5F5F5F5F5F5F5F5F5F5F5F5F5F5F5F5F5F5F5F5F5F5F5F5F5F5F5F5F5F5F5F5F5F5F5E2F5F5F5F5F5F5F5F5F5F5F5F5F5F5F5F5F5F5F5F5F5F5F5F5F5F5F5F5F5F5F5F5F5F5F5F5F5F5F5F5F5F5F5F5F5F5F5F5F5F5F5F5F5F5F5F5F5F5F5F5F5E2F5E2E2EFE2E2
310
F5F5F5F5F5F5F5F5F5F5F5F5F5F5F5F5F5F5F5F5F5F5F5F5F5F5F5F5F5F5F5F5F5E2F5F5F5F5F5F5F5F5F5F5F5F5F5F5F5F5F5F5F5F5F5F5F5F5F5F5F5F5F5F5F5F5F5F5F5F5E2F5F5F5F5F5F5F5F5F5F5F5F5F5F5F5F5F5F5F5F5F5F5F5F5F5F5F5F5F5F5F5F5F5F5F5F5F5F5F5F5E2F5F5F5F5F5F5F5F5F5F5F5F5F5F5F5
310
F5F5F5F5F5F5F5F5F5F5F5F5F5F5F5F5F5F5F5F5F5F5F5F5F5F5F5F5F5F5F5F5F5F5F5F5F5F5F5F5F5F5F5F5F5F5E2F5E2E2EFE2E2F5F5F5F5F5F5F5F5F5F5F5F5F5F5F5F5F5F5F5F5F5F5F5F5F5F5F5F5F5F5F5F5F5E2F5F5F5F5F5F5F5F5F5F5F5F5F5F5F5F5F5F5F5F5F5F5F5F5F5F5F5F5F5F5F5F5F5F5F5F5E2F5F5F5
310
F5F5F5F5F5F5F5F5F5F5F5F5F5F5F5F5F5F5F5F5F5F5F5F5F5F5F5F5F5F5F5F5F5F5F5F5F5E2F5F5F5F5F5F5F5F5F5F5F5F5F5F5F5F5F5F5F5F5F5F5F5F5F5F5F5F5F5F5F5F5F5F5F5F5F5F5F5F5F5F5F5F5F5F5F5F5F5F5F5F5F5F5F5F5F5F5F5F5F5E2F5E2E2EFE2E2F5F5F5F5F5F5F5F5F5F5F5F5F5F5F5F5F5F5F5F5F5
310
F5F5F5F5F5F5F5F5F5F5F5F5E2F5F5F5F5F5F5F5F5F5F5F5F5F5F5F5F5F5F5F5F5F5F5F5F5F5F5F5F5F5F5F5F5F5F5F5F5F5F5F5F5F5F5F5F5F5F5F5F5F5F5F5F5F5F5F5F5F5F5F5F5F5F5F5F5F5F5F5F5F5F5F5F5F5F5F5F5F5E2F5F5F5F5F5F5F5F5F5F5F5F5F5F5F5F5F5F5F5F5F5F5F5F5F5F5F5F5F5F5F5F5F5F5F5F5
310
F5F5F5F5F5F5F5F5F5F5F5F5F5F5F5F5F5F5F5F5F5F5F5F5F5E2F5E2E2EFE2E2F5F5F5F5F5F5F5F5F5F5F5F5F5F5F5F5F5F5F5F5F5F5F5F5F5F5F5F5F5F5F5F5F5E2F5F5F5F5F5F5F5F5F5F5F5F5F5F5F5F5F5F5F5F5F5F5F5F5F5F5F5F5F5F5F5F5F5F5F5F5E2F5F5F5F5F5F5F5F5F5F5F5F5F5F5F5F5F5F5F5F5F5F5F5F5
310
F5F5F5F5F5F5F5F5F5F5F5F5F5F5F5F5F5F5F5F5F5F5F5F5F5F5F5F5F5F5F5F5F5F5F5F5F5F5F5F5F5F5F5F5F5F5F5F5F5F5F5F5F5F5F5F5F5F5F5F5F5F5F5F5F5F5F5F5F5F5F5F5F5F5F5F5F5F5E2F5E2E2EFE2E2F5F5F5F5F5F5F5F5F5F5F5F5F5F5F5F5F5F5F5F5F5F5F5F5F5F5F5F5F5F5F5F5F5E2F5F5F5F5F5F5F5F5
310
F5F5F5F5F5F5F5F5F5F5F5F5F5F5F5F5F5F5F5F5F5F5F5F5F5F5F5F5E2F5F5F5F5F5F5F5F5F5F5F5F5F5F5F5F5F5F5F5F5F5F5F5F5F5F5F5F5F5F5F5F5F5F5F5F5F5F5F5F5E2F5F5F5F5F5F5F5F5F5F5F5F5F5F5F5F5F5F5F5F5F5F5F5F5F5F5F5F5F5F5F5F5F5F5F5F5F5F5F5F5F5F5F5F5F5F5F5F5F5F5F5F5F5F5F5F5F5
310
F5F5F5F5E2F5E2E2EFE2E2F5F5F5F5F5F5F5F5F5F5F5F5F5F5F5F5F5F5F5F5F5F5F5F5F5F5F5F5F5F5F5F5F5E2F5F5F5F5F5F5F5F5F5F5F5F5F5F5F5F5F5F5F5F5F5F5F5F5F5F5F5F5F5F5F5F5F5F5F5F5E2F5F5F5F5F5F5F5F5F5F5F5F5F5F5F5F5E2E2E2E2E2E2E2E2F5F5F5F5F5F5F5F5F5F5F5F5F5F5F5F5E2F5F5F5F5
310
F5F5F5F5F5F5F5F5F5F5F5F5F5F5F5F5F5F5F5F5F5F5F5F5F5F5F5F5F5F5F5F5F5F5F5F5F5F5F5F5F5F5F5F5F5F5F5F5F5F5F5F5F5F5F5F5F5E2F5E2E2EFE2E2F5F5F5F5F5F5F5F5F5F5F5F5F5F5F5F5F5F5F5F5F5F5F5F5F5F5F5F5F5F5F5F5F5E2F5F5F5F5F5F5F5F5F5F5F5F5F5F5F5F5F5F5F5F5F5F5F5F5F5F5F5F5F5
310
F5F5F5F5F5F5F5E2F5F5F5F5F5F5F5F5F5F5F5F5F5F5F5F5E2F5F5E2F5F5F5E2F5F5F5F5F5F5F5F5F5F5F5F5F5F5F5F5E2F5F5F5F5F5F5F5F5F5F5F5F5F5F5F5F5F5F5F5F5F5F5F5F5F5F5F5F5F5F5F5F5F5F5F5F5F5F5F5F5F5F5F5F5F5F5F5F5F5F5F5F5F5F5F5F5F5F5F5F5F5E2F5E2E2EFE2E2F5F5F5F5F5F5F5F5F5F5
310
F5F5F5F5F5F5F5F5F5F5F5F5F5F5F5F5F5F5F5F5F5F5F5E2F5F5F5F5F5F5F5F5F5F5F5F5F5F5F5F5F5F5F5F5F5F5F5F5F5F5F5F5F5F5F5F5F5F5F5F5E2F5F5F5F5F5F5F5F5F5F5F5F5F5F5F5F5E2F5F5E2F5F5F5E2F5F5F5F5F5F5F5F5F5F5F5F5F5F5F5F5E2F5F5F5F5F5F5F5F5F5F5F5F5F5F5F5F5F5F5F5F5F5F5F5F5F5
310
F5F5F5F5F5F5F5F5F5F5F5F5F5F5F5F5F5F5F5F5F5F5F5F5F5F5F5F5F5F5F5F5F5F5F5F5E2F5E2E2EFE2E2F5F5F5F5F5F5F5F5F5F5F5F5F5F5F5F5F5F5F5F5F5F5F5F5F5F5F5F5F5F5F5F5F5E2F5F5F5F5F5F5F5F5F5F5F5F5F5F5F5F5F5F5F5F5F5F5F5F5F5F5F5F5F5F5F5F5F5F5F5F5F5F5F5F5F5F5F5F5F5F5F5F5F5F5
310
F5F5F5E2F5F5E2F5F5F5E2F5F5F5F5F5F5F5F5F5F5F5F5F5F5F5F5E2F5F5F5F5F5F5F5F5F5F5F5F5F5F5F5F5F5F5F5F5F5F5F5F5F5F5F5F5F5F5F5F5F5F5F5F5F5F5F5F5F5F5F5F5F5F5F5F5F5F5F5F5F5F5F5F5F5F5F5F5F5E2E2E2E2EFE2E2F5F5F5F5F5F5F5F5F5F5F5F5F5F5F5F5F5F5F5F5F5F5F5F5F5F5F5F5F5F5F5
310
F5F5E2F5F5F5F5F5F5F5F5F5F5F5F5F5F5F5F5F5F5F5F5F5F5F5F5F5F5F5F5F5F5F5F5F5F5F5F5E2F5F5F5F5F5F5F5F5F5F5F5F5F5F5F5F5E2F5F5E2F5F5F5E2F5F5F5F5F5F5F5F5F5F5F5F5F5F5F5F5F5F5F5F5F5F5F5F5F5F5F5F5F5F5F5F5F5F5F5F5F5F5F5F5F5F5F5F5F5F5F5F5F5F5F5F5F5F5F5F5F5F5F5F5F5F5F5
310
F5F5F5F5F5F5F5F5F5F5F5F5F5F5F5E2E2E2E2EFE2E2F5F5F5F5F5F5F5F5F5F5F5F5F5F5F5F5F5F5F5F5F5F5F5F5F5F5F5F5F5F5F5F5F5E2F5F5F5F5F5F5F5F5F5F5F5F5F5F5F5F5F5F5F5F5F5F5F5F5F5F5F5F5F5F5F5F5F5F5F5F5E2F5F5F5F5F5F5F5F5F5F5F5F5F5F5F5F5E2F5F5E2F5F5F5E2F5F5F5F5F5F5F5F5F5F5
310
F5F5F5F5F5F5E2F5F5F5F5F5F5F5F5F5F5F5F5F5F5F5F5F5F5F5F5F5F5F5F5F5F5F5F5F5F5F5F5F5F5F5F5F5F5F5F5F5F5F5F5F5F5F5F5F5F5F5F5F5F5F5F5F5F5F5F5F5E2E2E2E2EFE2E2F5F5F5F5F5F5F5F5F5F5F5F5F5F5F5F5F5F5F5F5F5F5F5F5F5F5F5F5F5F5F5F5F5E2F5F5F5F5F5F5F5F5F5F5F5F5F5F5F5F5F5F5
310
F5F5F5F5F5F5F5F5F5F5F5F5F5F5F5F5F5F5E2F5F5F5F5F5F5F5F5F5F5F5F5F5F5F5F5E2F5F5E2F5F5F5E2F5F5F5F5F5F5F5F5F5F5F5F5F5F5F5F5E2F5F5F5F5F5F5F5F5F5F5F5F5F5F5F5F5F5F5F5F5F5F5F5F5F5F5F5F5F5F5F5F5F5F5F5F5F5F5F5F5F5F5F5F5F5F5F5F5F5F5F5F5F5F5F5F5F5F5F5F5F5E2E2E2E2EFE2
310
E2F5F5F5F5F5F5F5F5F5F5F5F5F5F5F5F5F5F5F5F5F5F5F5F5F5F5F5F5F5F5F5F5F5E2F5F5F5F5F5F5F5E2E2E2E2E2F5E2E2E2E2E2F5E2E2E2E2E2F5E2E2E2E2E2E2F5E2E2E2E2E2F5F5F5F5F5F5F5F5F5F5F5F5F5F5F5F5E2F5F5E2F5F5F5E2F5F5F5F5F5F5F5F5F5F5F5F5F5F5F5F5E2F5F5F5F5F5F5F5F5F5F5F5F5F5F5
310
F5F5F5F5F5F5F5F5F5F5F5F5F5F5F5F5F5F5F5F5F5F5F5F5F5F5F5F5F5F5F5F5F5F5F5F5F5F5F5F5F5F5F5F5F5F5F5E2E2E2E2EFE2E2F5F5F5F5F5F5F5F5F5F5F5F5F5F5F5F5F5F5F5F5F5F5F5F5F5F5F5F5F5F5F5F5F5E2F5F5F5F5F5F5F5E2F5F5F5F5F5F5F5F5F5F5F5F5F5F5F5F5F5F5F5F5F5F5F5F5F5F5F5F5F5F5F5
310
F5F5F5F5F5F5F5F5F5F5F5F5F5F5E2F5F5E2F5F5F5E2F5F5F5F5F5F5F5F5F5F5F5F5F5F5F5F5E2F5F5F5F5F5F5F5F5F5F5F5F5F5F5F5F5F5F5F5F5F5F5F5F5F5F5F5F5F5F5F5F5F5F5F5F5F5F5F5F5F5F5F5F5F5F5F5F5F5F5F5F5F5F5F5F5F5F5F5F5F5E2E2E2E2EFE2E2F5F5F5F5F5F5F5F5F5F5F5F5F5F5F5F5F5F5F5F5
310
F5F5F5F5F5F5F5F5F5F5F5F5F5E2F5F5F5F5F5F5F5E2F5F5F5F5F5F5F5F5F5F5F5F5F5F5F5F5F5F5F5F5F5F5F5F5F5F5F5F5F5F5F5F5F5F5F5F5F5F5F5F5F5F5F5F5F5E2F5F5E2F5F5F5E2F5F5F5F5F5F5F5F5F5F5F5F5F5F5F5F5E2F5F5F5F5F5F5F5F5F5F5F5F5F5F5F5F5F5F5F5F5F5F5F5F5F5F5F5F5F5F5F5F5F5F5F5
310
F5F5F5F5F5F5F5F5F5F5F5F5F5F5F5F5F5F5F5F5F5F5F5F5F5F5E2E2E2E2EFE2E2F5F5F5F5F5F5F5F5F5F5F5F5F5F5F5F5F5F5F5F5F5F5F5F5F5F5F5F5F5F5F5F5F5E2F5F5F5F5F5F5F5E2F5F5F5F5F5F5F5F5F5F5F5F5F5F5F5F5F5F5F5F5F5F5F5F5F5F5F5F5F5F5F5F5F5F5F5F5F5F5F5F5F5F5F5F5F5E2F5F5E2F5F5F5
310
E2F5F5F5F5F5F5F5F5F5F5F5F5F5F5F5F5F5F5F5F5F5F5F5F5F5F5F5F5F5F5F5F5F5F5F5F5F5F5F5F5F5F5F5F5F5F5F5F5F5F5F5F5F5F5F5F5F5F5F5F5F5F5F5F5F5F5F5F5F5F5F5F5F5F5F5F5F5F5E2E2E2E2EFE2E2F5F5F5F5F5F5F5F5F5F5F5F5F5F5F5F5F5F5F5F5F5F5F5F5F5F5F5F5F5F5F5F5F5E2F5F5F5F5F5F5F5
310
E2F5F5F5F5F5F5F5F5F5F5F5F5F5F5F5F5F5F5F5F5F5F5F5F5F5F5F5F5F5F5F5F5F5F5F5F5F5F5F5F5F5F5F5F5F5E2F5F5E2F5F5F5E2F5F5F5F5F5F5F5F5F5F5F5F5F5F5F5F5E2F5F5F5F5F5F5F5F5F5F5F5F5F5F5F5F5F5F5F5F5F5F5F5F5F5F5F5F5F5F5F5F5F5F5F5F5F5F5F5F5F5F5F5F5F5F5F5F5F5F5F5F5F5F5F5F5
310
F5F5F5F5F5E2E2E2E2EFE2E2F5F5F5F5F5F5F5F5F5F5F5F5F5F5F5F5F5F5F5F5F5F5F5F5F5F5F5F5F5F5F5F5F5E2F5F5F5F5F5F5F5F5F5F5F5F5F5F5F5F5F5F5F5F5F5F5F5F5F5F5F5F5F5F5F5F5F5F5F5F5F5F5F5F5F5F5F5F5F5F5F5F5F5F5F5F5F5E2F5F5E2F5F5F5E2F5F5F5F5F5F5F5F5F5F5F5F5F5F5F5F5E2F5F5F5
310
F5F5F5F5F5F5F5F5F5F5F5F5F5F5F5F5F5F5F5F5F5F5F5F5F5F5F5F5F5F5F5F5F5F5F5F5F5F5F5F5F5F5F5F5F5F5F5F5F5F5F5F5F5F5F5F5F5F5E2E2E2E2EFE2E2F5F5F5F5F5F5F5F5F5F5F5F5F5F5F5F5F5F5F5F5F5F5F5F5F5F5F5F5F5F5F5F5F5E2F5F5F5F5F5F5F5E2F5F5F5F5F5F5F5F5F5F5F5F5F5F5F5F5F5F5F5F5
310
F5F5F5F5F5F5F5F5F5F5F5F5F5F5F5F5F5F5F5F5F5F5F5F5F5E2F5F5E2F5F5F5E2F5F5F5F5F5F5F5F5F5F5F5F5F5F5F5F5E2F5F5F5F5F5F5F5F5F5F5F5F5F5F5F5F5F5F5F5F5F5F5F5F5F5F5F5F5F5F5F5F5F5F5F5F5F5F5F5F5F5F5F5F5F5F5F5F5F5F5F5F5F5F5F5F5F5F5F5F5F5E2E2E2E2EFE2E2F5F5F5F5F5F5F5F5F5
310
F5F5F5F5F5F5F5F5F5F5F5F5F5F5F5F5F5F5F5F5F5F5F5F5E2F5F5F5F5F5F5F5E2F5F5F5F5F5F5F5F5F5F5F5F5F5F5F5F5F5F5F5F5F5F5F5F5F5F5F5F5F5F5F5F5F5F5F5F5F5F5F5F5F5F5F5F5F5E2F5F5E2F5F5F5E2F5F5F5F5F5F5F5F5F5F5F5F5F5F5F5F5E2F5F5F5F5F5F5F5F5F5F5F5F5F5F5F5F5F5F5F5F5F5F5F5F5
310
F5F5F5F5F5F5F5F5F5F5F5F5F5F5F5F5F5F5F5F5F5F5F5F5F5F5F5F5F5F5F5F5F5F5F5F5F5E2E2E2E2EFE2E2F5F5F5F5F5F5F5F5F5F5F5F5F5F5F5F5F5F5F5F5F5F5F5F5F5F5F5F5F5F5F5F5F5E2F5F5F5F5F5F5F5E2F5F5F5F5F5F5F5F5F5F5F5F5F5F5F5F5F5F5F5F5F5F5F5F5F5F5F5F5F5F5F5F5F5F5F5F5F5F5F5F5F5
310
F5F5F5F5E2F5F5E2F5F5F5E2F5F5F5F5F5F5F5F5F5F5F5F5F5F5F5F5E2F5F5F5F5F5F5F5F5F5F5F5F5F5F5F5F5F5F5F5F5F5F5F5F5F5F5F5F5F5F5F5F5F5F5F5F5F5F5F5F5F5F5F5F5F5F5F5F5F5F5F5F5F5F5F5F5F5F5F5F5F5E2E2E2E2EFE2E2F5F5F5F5F5F5F5F5F5F5F5F5F5F5F5F5F5F5F5F5F5F5F5F5F5F5F5F5F5F5
310
F5F5F5E2F5F5F5F5F5F5F5E2F5F5F5F5F5F5F5F5F5F5F5F5F5F5F5F5F5F5F5F5F5F5F5F5F5F5F5F5F5F5F5F5F5F5F5F5F5F5F5F5F5F5F5F5F5E2F5F5E2F5F5F5E2F5F5F5F5F5F5F5F5F5F5F5F5F5F5F5F5E2F5F5F5F5F5F5F5F5F5F5F5F5F5F5F5F5F5F5F5F5F5F5F5F5F5F5F5F5F5F5F5F5F5F5F5F5F5F5F5F5F5F5F5F5F5
310
F5F5F5F5F5F5F5F5F5F5F5F5F5F5F5F5E2E2E2E2EFE2E2F5F5F5F5F5F5F5F5F5F5F5F5F5F5F5F5F5F5F5F5F5F5F5F5F5F5F5F5F5F5F5F5F5E2F5F5F5F5F5F5F5E2F5F5F5F5F5F5F5F5F5F5F5F5F5F5F5F5F5F5F5F5F5F5F5F5F5F5F5F5F5F5F5F5F5F5F5F5F5F5F5F5F5F5F5E2E2E2E2E2E2E2E2E2E2E2F5F5F5F5F5F5F5F5
310
F5F5F5F5F5F5F5F5F5F5F5F5F5F5F5F5F5F5F5F5F5F5F5F5F5F5F5F5F5F5F5F5F5F5F5F5F5F5F5F5F5F5F5F5F5F5F5F5F5F5F5F5F5F5F5F5F5F5F5F5F5F5F5F5F5F5F5F5F5E2E2E2E2EFE2E2F5F5F5F5F5F5F5F5F5F5F5F5F5F5F5F5F5F5F5F5F5F5F5F5F5F5F5F5F5F5E2E2E2E2F5F5F5F5F5F5F5F5F5F5F5F5F5F5F5F5F5
310
F5F5F5F5F5F5F5F5F5F5F5F5F5F5F5F5F5F5F5F5F5F5F5F5F5F5F5F5E2E2E2E2E2E2E2F5F5F5F5E2E2F5F5F5E2F5F5F5F5F5F5F5F5F5F5F5F5F5F5F5E2F5F5F5F5F5F5F5F5F5F5F5F5F5F5F5F5F5F5F5F5F5F5F5F5F5F5F5F5F5F5F5F5F5F5F5F5F5F5F5F5F5F5F5F5F5F5F5F5F5F5F5F5F5F5F5F5F5F5F5F5F5E2E2E2E2EF
310
E2E2F5F5F5F5F5F5F5F5F5F5F5F5F5F5F5F5F5F5F5F5F5F5F5F5F5F5F5F5F5F5E2E2E2E2F5F5F5F5F5F5F5E2F5F5F5F5F5F5F5F5F5F5F5F5F5F5F5F5F5F5F5F5F5F5F5F5F5F5F5F5F5F5F5F5F5F5F5F5F5E2E2E2E2E2E2E2F5F5F5F5E2E2F5F5F5E2F5F5F5F5F5F5F5F5F5F5F5F5F5F5F5E2F5F5F5F5F5F5F5F5F5F5F5F5F5
310
F5F5F5F5F5F5F5F5F5F5F5F5F5F5F5F5F5F5F5F5F5F5F5F5F5F5F5F5F5F5F5F5F5F5F5F5F5F5F5F5F5F5F5F5F5F5F5F5E2F5E2E2EFE2E2F5F5F5F5F5F5F5F5F5F5F5F5F5F5F5F5F5F5F5F5F5F5F5F5F5F5F5F5F5F5E2E2E2E2F5F5F5F5F5F5F5E2F5F5F5F5F5F5F5F5F5F5F5F5F5F5F5F5F5F5F5F5F5F5F5F5F5F5F5F5F5F5
310
F5F5F5F5F5F5F5F5F5E2E2E2E2E2F5F5F5F5E2E2F5F5F5E2F5F5F5F5F5F5F5F5F5F5F5F5F5F5F5E2F5F5F5F5F5F5F5F5F5F5F5F5F5F5F5F5F5F5F5F5F5F5F5F5F5F5F5F5F5F5F5F5F5F5F5F5F5F5F5F5F5F5F5F5F5F5F5F5F5F5F5F5F5F5F5F5F5F5F5F5F5E2F5E2E2EFE2E2F5F5F5F5F5F5F5F5F5F5F5F5F5F5F5F5F5F5F5
310
F5F5F5F5F5F5F5F5F5F5F5E2E2E2E2F5F5F5F5F5F5F5E2F5F5F5F5F5F5F5F5F5F5F5F5F5F5F5F5F5F5F5F5F5F5F5F5F5F5F5F5F5F5F5F5F5F5F5F5F5F5F5E2E2E2E2E2F5F5F5F5E2E2F5F5F5E2F5F5F5F5F5F5F5F5F5F5F5F5F5F5F5E2F5F5F5F5F5F5F5F5F5F5F5F5F5F5F5F5F5F5F5F5F5F5F5F5F5F5F5F5F5F5F5F5F5F5
310
F5F5F5F5F5F5F5F5F5F5F5F5F5F5F5F5F5F5F5F5F5F5F5F5F5F5F5E2F5E2E2EFE2E2F5F5F5F5F5F5F5F5F5F5F5F5F5F5F5F5F5F5F5F5F5F5F5F5F5F5F5F5F5F5F5F5F5E2F5F5F5F5F5F5F5E2F5F5F5F5F5F5F5F5F5F5F5F5F5F5F5F5F5F5F5F5F5F5F5F5F5F5F5F5F5F5F5F5F5F5F5F5F5F5F5E2E2E2E2E2F5F5F5F5E2E2F5
310
F5F5E2E2E2E2F5F5F5F5F5F5F5F5F5F5F5F5E2E2E2E2E2E2F5F5F5F5F5F5F5F5F5F5F5F5F5F5F5F5F5F5F5F5F5F5F5F5F5F5F5F5F5F5F5F5F5F5F5F5F5F5F5F5F5F5F5F5F5F5F5F5F5F5F5F5F5F5F5F5E2F5E2E2EFE2E2F5F5F5F5F5F5F5F5F5F5F5F5F5F5F5F5F5F5F5F5F5F5F5F5F5F5F5F5F5F5F5F5F5E2F5F5F5F5F5F5
310
F5E2F5F5F5F5F5F5F5F5F5F5F5F5F5F5F5F5F5F5F5F5F5F5F5F5F5F5F5F5F5F5F5F5F5F5F5F5F5F5F5E2E2E2E2E2F5F5F5F5E2E2F5F5F5E2F5F5F5F5F5F5F5F5F5F5F5F5F5F5F5F5F5F5F5F5E2F5F5F5F5F5F5F5F5F5F5F5F5F5F5F5F5F5F5F5F5F5F5F5F5F5F5F5F5F5F5F5F5F5F5F5F5F5F5F5F5F5F5F5F5F5F5F5F5F5F5
310
F5F5F5F5F5F5E2F5E2E2EFE2E2F5F5F5F5F5F5F5F5F5F5F5F5F5F5F5F5F5F5F5F5F5F5F5F5F5F5F5F5F5F5F5F5F5E2F5F5F5F5F5F5F5F5F5F5F5F5F5F5F5F5F5F5F5F5F5F5F5F5E2E2F5F5F5F5F5F5F5F5F5F5F5F5F5F5F5F5F5F5F5E2E2E2E2E2E2E2F5F5F5F5E2E2F5F5F5E2F5F5F5F5F5F5F5F5F5F5F5F5F5F5F5F5F5F5
310
F5F5E2F5F5F5F5F5F5F5F5F5F5F5F5F5F5F5F5F5F5F5F5F5F5F5F5F5F5F5F5F5F5F5F5F5F5F5F5F5F5F5F5F5F5F5F5F5F5F5F5F5F5F5F5F5F5F5F5E2F5E2E2EFE2E2F5F5F5F5F5F5F5F5F5F5F5F5F5F5F5F5F5F5F5F5F5F5F5F5F5F5F5F5F5F5F5F5F5E2F5F5F5F5F5F5F5E2F5F5F5F5F5F5F5F5F5F5F5F5F5F5E2E2E2E2E2
310
E2F5F5F5F5F5F5F5F5F5F5F5F5F5F5F5F5F5E2E2E2E2E2E2E2F5F5F5F5E2E2F5F5F5E2F5F5F5F5F5F5F5F5F5F5F5F5F5F5F5F5F5F5F5F5E2F5F5F5F5F5F5F5F5F5F5F5F5F5F5F5F5F5F5F5F5F5F5F5F5F5F5F5F5F5F5F5F5F5F5F5F5F5F5F5F5F5F5F5F5F5F5F5F5F5F5F5F5F5F5F5F5E2F5E2E2EFE2E2F5F5F5F5F5F5F5F5
310
F5F5F5F5F5F5F5F5F5F5F5F5F5F5F5F5F5F5F5F5F5F5F5F5F5E2F5F5F5F5F5F5F5E2F5F5F5F5F5F5F5F5F5F5F5F5F5E2E2E2F5F5F5F5E2E2E2F5F5F5F5F5F5F5F5F5F5F5F5F5F5F5F5F5F5F5F5E2E2E2E2E2E2E2E2E2E2E2F5F5F5F5F5F5F5F5F5F5F5F5F5F5F5F5F5F5F5F5F5F5F5F5F5F5F5F5F5F5F5F5F5F5F5F5F5F5F5
310
F5F5F5F5F5F5F5F5F5F5F5F5F5F5F5F5F5F5F5F5F5F5F5F5F5F5F5F5F5F5F5F5F5F5F5F5F5F5E2F5E2E2EFE2E2F5F5F5F5F5F5F5F5F5F5F5F5F5F5F5F5F5F5F5F5F5F5F5F5F5F5F5F5F5F5F5F5F5E2F5F5F5F5F5F5F5E2F5F5F5F5F5F5F5F5F5F5F5F5E2E2F5F5F5F5F5F5F5E2E2F5F5F5F5F5F5F5F5F5F5F5F5F5F5F5F5F5
310
F5F5F5F5F5F5E2F5F5F5F5E2F5F5F5F5F5F5F5F5F5F5F5F5F5F5F5F5F5F5F5F5F5F5E2F5F5F5F5F5F5F5F5F5F5F5F5F5F5F5F5F5F5F5F5F5F5F5F5F5F5F5F5F5F5F5F5F5F5F5F5F5F5F5F5F5F5F5F5F5F5F5F5F5F5F5F5F5F5F5F5E2F5E2E2EFE2E2F5F5F5F5F5F5F5F5F5F5F5F5F5F5F5F5F5F5F5F5F5F5F5F5F5F5F5F5F5
310
F5F5F5F5E2F5F5F5F5F5F5F5E2F5F5F5F5F5F5F5F5F5F5F5F5E2F5F5F5F5F5F5F5F5E2E2F5F5F5F5F5F5F5F5F5F5F5F5F5F5F5F5F5F5F5F5F5F5F5E2F5F5F5F5E2F5F5F5F5F5F5F5F5F5F5F5F5F5F5F5F5F5F5F5F5F5F5E2F5F5F5F5F5F5F5F5F5F5F5F5F5F5F5F5F5F5F5F5F5F5F5F5F5F5F5F5F5F5F5F5F5F5F5F5F5F5F5
310
F5F5F5F5F5F5F5F5F5F5F5F5F5F5F5F5F5E2E2E2E2EFE2E2F5F5F5F5F5F5F5F5F5F5F5F5F5F5F5F5F5F5F5F5F5F5F5F5F5F5F5F5F5F5F5F5F5E2F5F5F5F5F5F5F5E2F5F5F5F5F5F5F5F5F5F5F5E2E2F5F5F5E2E2F5F5F5F5E2F5F5F5F5F5F5F5F5F5F5F5F5F5F5F5F5F5F5F5F5F5F5F5E2F5F5F5F5E2F5F5F5F5F5F5F5F5F5
310
F5F5F5F5F5F5F5F5F5F5F5F5F5E2F5F5F5F5F5F5F5F5F5F5F5F5F5F5F5F5F5F5F5F5F5F5F5F5F5F5F5F5F5F5F5F5F5F5F5F5F5F5F5F5F5F5F5F5F5F5F5F5F5F5F5F5F5F5F5F5E2E2E2E2EFE2E2F5F5F5F5F5F5F5F5F5F5F5F5F5F5F5F5F5F5F5F5F5F5F5F5F5F5F5F5F5F5F5F5F5E2F5F5F5F5F5F5F5E2F5F5F5F5F5F5F5F5
310
F5F5F5E2E2F5F5F5E2E2F5F5F5F5E2F5F5F5F5F5F5F5F5F5F5F5F5F5F5F5F5F5F5F5F5F5F5F5E2F5F5F5F5E2F5F5F5F5F5F5F5F5F5F5F5F5F5F5F5F5F5F5F5F5F5F5E2F5F5F5F5F5F5F5F5F5F5F5F5F5F5F5F5F5F5F5F5F5F5F5F5F5F5F5F5F5F5F5F5F5F5F5F5F5F5F5F5F5F5F5F5F5F5F5F5F5F5F5F5F5F5F5F5E2E2E2E2
310
EFE2E2F5F5F5F5F5F5F5F5F5F5F5F5F5F5F5F5F5F5F5F5F5F5F5F5F5F5F5F5F5F5F5F5F5E2F5F5F5F5F5F5F5F5F5F5F5F5F5F5F5F5F5F5F5F5E2F5F5F5F5E2F5F5F5F5E2F5F5F5F5F5F5F5F5F5F5F5F5F5F5F5F5F5F5F5F5F5F5F5E2F5F5F5F5E2F5F5F5F5F5F5F5F5F5F5F5F5F5F5F5F5F5F5F5F5F5F5E2F5F5F5F5F5F5F5
310
F5F5F5F5F5F5F5F5F5F5F5F5F5F5F5F5F5F5F5F5F5F5F5F5F5F5F5F5F5F5F5F5F5F5F5F5F5F5F5F5F5F5F5F5F5F5F5F5F5E2E2E2E2EFE2E2F5F5F5F5F5F5F5F5F5F5F5F5F5F5F5F5F5F5F5F5F5F5F5F5F5F5F5F5F5F5F5F5F5E2F5F5F5F5F5F5F5E2F5F5F5F5F5F5F5F5F5F5F5F5E2E2F5F5F5E2F5F5F5F5E2F5F5F5F5F5F5
310
F5F5F5F5F5F5F5F5F5F5F5F5F5F5F5F5F5E2F5F5F5F5E2F5F5F5F5F5F5F5F5F5F5F5F5F5F5F5F5F5F5F5F5F5F5E2F5F5F5F5F5F5F5F5F5F5F5F5F5F5F5F5F5F5F5F5F5F5F5F5F5F5F5F5F5F5F5F5F5F5F5F5F5F5F5F5F5F5F5F5F5F5F5F5F5F5F5F5F5F5F5F5E2E2E2E2EFE2E2F5F5F5F5F5F5F5F5F5F5F5F5F5F5F5F5F5F5
310
F5F5F5F5F5F5F5F5F5F5F5F5F5F5F5E2F5F5F5F5F5F5F5E2F5F5F5F5F5F5F5F5F5F5F5F5F5E2F5F5F5E2F5F5F5E2E2F5F5F5F5F5F5F5F5F5F5F5F5F5F5F5F5F5F5F5F5F5F5F5E2F5F5F5F5E2F5F5F5F5F5F5F5F5F5F5F5F5F5F5F5F5F5F5F5F5F5F5F5F5F5F5F5F5F5F5F5F5F5F5F5F5F5F5F5F5F5F5F5F5F5F5F5F5F5F5F5
310
F5F5F5F5F5F5F5F5F5F5F5F5F5F5F5F5F5F5F5F5F5F5F5F5F5F5F5F5E2E2E2E2EFE2E2F5F5F5F5F5F5F5F5F5F5F5F5F5F5F5F5F5F5F5F5F5F5F5F5F5F5F5F5F5F5F5F5F5E2F5F5F5F5F5F5F5E2F5F5F5F5F5F5F5F5F5F5F5F5E2E2E2E2E2E2E2E2E2E2E2E2F5F5F5F5F5F5F5F5F5F5F5F5F5F5F5F5F5F5F5F5F5E2E2E2E2E2
310
E2E2F5F5F5F5F5F5F5F5F5F5F5F5F5F5F5F5F5F5F5F5F5F5E2F5F5F5F5F5F5F5F5F5F5F5F5F5F5F5F5F5F5F5F5F5F5F5F5F5F5F5F5F5F5F5F5F5F5F5F5F5F5F5F5F5F5F5F5F5F5F5F5F5F5F5F5F5F5F5F5E2E2E2E2EFE2E2F5F5F5F5F5F5F5F5F5F5F5F5F5F5F5F5F5F5F5F5F5F5F5F5F5F5F5F5F5F5F5F5F5E2F5F5F5F5F5
310
F5F5E2F5F5F5F5F5F5F5F5F5F5F5F5E2E2F5F5F5F5F5F5F5F5E2E2E2E2E2E2E2E2E2E2E2E2E2E2E2E2E2E2E2E2E2E2E2E2E2E2E2E2E2E2E2E2F5F5F5F5F5F5F5F5F5F5F5F5F5F5F5F5F5F5F5F5E2F5F5F5F5F5F5F5F5F5F5F5F5F5F5F5F5F5F5F5F5F5F5F5F5F5F5F5F5F5F5F5F5F5F5F5F5F5F5F5F5F5F5F5F5F5F5F5F5F5
310
F5F5F5F5F5F5F5E2E2E2E2EFE2E2F5F5F5F5F5F5F5F5F5F5F5F5F5F5F5F5F5F5F5F5F5F5F5F5F5F5F5F5F5F5F5F5F5E2F5F5F5F5F5F5F5E2F5F5F5F5F5F5F5F5F5F5F5F5E2F5E2F5F5F5F5F5F5E2F5E2E2E2E2E2E2E2E2E2E2E2E2E2E2E2E2E2E2E2E2E2E2E2E2E2E2E2E2E2E2E2E2E2E2E2E2E2F5F5F5F5F5F5F5F5F5F5F5
310
F5F5F5E2F5F5F5F5F5F5F5F5F5F5F5F5F5F5F5F5F5F5F5F5F5F5F5F5F5F5F5F5F5F5F5F5F5F5F5F5F5F5F5F5F5F5F5F5F5F5F5F5F5F5F5F5F5F5F5F5E2E2E2E2EFE2E2F5F5F5F5F5F5F5F5F5F5F5F5F5F5F5F5F5F5F5F5F5F5F5F5F5F5F5F5F5F5F5F5F5E2F5F5F5F5F5F5F5F5F5F5F5F5F5F5F5F5F5F5F5F5E2F5F5E2E2F5
310
F5F5E2F5F5E2E2E2E2E2E2E2E2E2E2E2E2E2E2E2E2E2E2E2E2E2E2E2E2E2E2E2E2E2E2E2E2E2E2E2E2E2F5F5F5F5F5F5F5F5F5F5F5F5F5F5E2F5F5F5F5F5F5F5F5F5F5F5F5F5F5F5F5F5F5F5F5F5F5F5F5F5F5F5F5F5F5F5F5F5F5F5F5F5F5F5F5F5F5F5F5F5F5F5F5F5F5F5F5F5F5F5F5E2E2E2E2EFE2E2F5F5F5F5F5F5F5
310
F5F5F5F5F5F5F5F5F5F5F5F5F5F5F5F5F5F5F5F5F5F5F5F5F5F5E2F5F5F5F5F5F5F5E2F5F5F5F5F5F5F5F5F5F5F5F5E2F5F5F5F5E2F5E2F5F5F5E2E2E2E2E2E2E2E2E2E2E2E2E2E2E2E2E2E2E2E2E2E2E2E2E2E2E2E2E2E2E2E2E2E2E2E2E2F5F5F5F5F5F5F5F5F5F5F5F5F5F5E2F5F5F5F5F5F5F5F5F5F5F5F5F5F5F5F5F5
310
F5F5F5F5F5F5F5F5F5F5F5F5F5F5F5F5F5F5F5F5F5F5F5F5F5F5F5F5F5F5F5F5F5F5F5F5F5F5F5E2E2E2E2EFE2E2F5F5F5F5F5F5F5F5F5F5F5F5F5F5F5F5F5F5F5F5F5F5F5F5F5F5F5F5F5F5F5F5F5E2F5F5F5F5F5F5F5E2F5F5F5F5F5F5F5F5F5F5F5F5E2F5F5F5F5E2E2E2F5F5F5E2E2E2E2E2E2E2E2E2E2E2E2E2E2E2E2
310
E2E2E2E2E2E2E2E2E2E2E2E2E2E2E2F5F5E2F5E2E2F5F5F5F5F5F5F5F5F5F5F5F5F5F5F5F5F5F5F5F5F5F5F5F5F5F5F5F5F5F5F5F5F5F5F5F5F5F5F5F5F5F5F5F5F5F5F5F5F5F5F5F5F5F5F5F5F5F5F5F5F5F5F5F5F5F5F5F5F5F5F5E2E2E2E2EFE2E2F5F5F5F5F5F5F5F5F5F5F5F5F5F5F5F5F5F5F5F5F5F5F5F5F5F5F5F5
310
F5F5F5F5F5E2F5F5F5F5F5F5F5E2F5F5F5F5F5F5F5F5F5F5F5F5E2F5F5F5F5E2E2E2F5F5F5E2E2E2E2E2E2E2E2E2E2E2E2E2E2E2E2E2E2E2E2E2E2E2E2E2E2E2E2E2E2E2F5F5E2E2E2E2F5F5F5F5F5F5F5F5F5F5F5F5F5F5E2F5F5F5F5F5F5F5F5F5F5F5F5F5F5F5F5F5F5F5F5F5F5F5F5F5F5F5F5F5F5F5F5F5F5F5F5F5F5
310
F5F5F5F5F5F5F5F5F5F5F5F5F5F5F5F5F5F5E2E2E2E2EFE2E2F5F5F5F5F5F5F5F5F5F5F5F5F5F5F5F5F5F5F5F5F5F5F5F5F5F5F5F5F5F5F5F5F5E2F5F5F5F5F5F5F5E2F5F5F5F5F5F5F5F5F5F5F5F5E2F5F5F5E2F5F5F5E2F5F5E2E2E2E2E2E2E2E2E2E2E2E2E2E2E2E2E2E2E2E2E2E2E2E2E2E2E2E2E2E2E2E2E2E2E2E2E2
310
F5F5F5F5F5F5F5F5F5F5F5F5F5F5E2F5F5F5F5F5F5F5F5F5F5F5F5F5F5F5F5F5F5F5F5F5F5F5F5F5F5F5F5F5F5F5F5F5F5F5F5F5F5F5F5F5F5F5F5F5F5F5F5F5F5F5F5F5F5F5F5E2E2E2E2EFE2E2F5F5F5F5F5F5F5F5F5F5F5F5F5F5F5F5F5F5F5F5F5F5F5F5F5F5F5F5F5F5F5F5F5E2F5F5F5F5F5F5F5E2F5F5F5F5F5F5F5
310
F5F5F5F5F5E2F5F5E2F5F5F5F5F5E2F5E2E2E2E2E2E2E2E2E2E2E2E2E2E2E2E2E2E2E2E2E2E2E2E2E2E2E2E2E2E2E2E2E2F5E2F5E2F5F5F5F5F5F5F5F5F5F5F5F5F5F5E2F5F5F5F5F5F5F5F5F5F5F5F5F5F5F5F5F5F5F5F5F5F5F5F5F5F5F5F5F5F5F5F5F5F5F5F5F5F5F5F5F5F5F5F5F5F5F5F5F5F5F5F5F5F5F5F5E2E2E2
310
E2EFE2E2F5F5F5F5F5F5F5F5F5F5F5F5F5F5F5F5F5F5F5F5F5F5F5F5F5F5F5F5F5F5F5F5F5E2F5F5F5F5F5F5F5F5F5F5F5F5F5F5F5F5F5F5F5F5E2E2E2F5F5F5F5F5F5F5E2E2E2E2E2E2E2E2E2E2E2E2E2E2E2E2E2E2E2E2E2E2E2E2E2E2E2E2E2E2E2E2E2E2E2E2E2E2F5F5F5F5F5F5F5F5F5F5F5F5F5F5E2F5F5F5F5F5F5
310
F5F5F5F5F5F5F5F5F5F5F5F5F5F5F5F5F5F5F5F5F5F5F5F5F5F5F5F5F5F5F5F5F5F5F5F5F5F5F5F5F5F5F5F5F5F5F5F5F5F5E2E2E2E2EFE2E2F5F5F5F5F5F5F5F5F5F5F5F5F5F5F5F5F5F5F5F5F5F5F5F5F5F5F5F5F5F5F5F5F5E2F5F5F5F5F5F5F5E2F5F5F5F5F5F5F5F5F5F5F5F5E2E2E2F5F5F5F5F5F5F5E2E2E2E2E2E2
310
E2E2E2E2E2E2E2E2E2E2E2E2E2E2E2E2E2E2E2E2E2E2E2E2E2E2F5F5F5F5F5F5F5F5F5F5F5F5F5F5F5F5F5F5F5F5E2F5F5F5F5F5F5F5F5F5F5F5F5F5F5F5F5F5F5F5F5F5F5F5F5F5F5F5F5F5F5F5F5F5F5F5F5F5F5F5F5F5F5F5F5F5F5F5F5F5F5F5F5F5F5F5F5E2F5E2E2EFE2E2F5F5F5F5F5F5F5F5F5F5F5F5F5F5F5F5F5
310
F5F5F5F5F5F5F5F5F5F5F5F5F5F5F5F5E2F5F5F5F5F5F5F5E2F5F5F5F5F5F5F5F5F5F5F5F5E2E2E2E2E2E2E2E2E2E2E2E2F5F5F5F5F5F5F5F5F5F5F5F5F5F5F5F5F5F5F5F5F5F5F5F5F5F5F5F5F5F5F5F5F5F5F5F5F5F5F5F5F5F5F5F5F5F5F5F5F5F5F5F5F5F5F5F5F5F5F5F5F5F5F5F5F5F5F5F5F5F5F5F5F5F5F5F5F5F5
310
F5F5F5F5F5F5F5F5F5F5F5F5F5F5F5F5F5F5F5F5F5F5F5F5F5F5F5F5F5E2F5E2E2EFE2E2F5F5F5F5F5F5F5F5F5F5F5F5F5F5F5F5F5F5F5F5F5F5F5F5F5F5F5F5F5F5F5F5F5E2F5F5F5F5F5F5F5E2F5F5F5F5F5F5F5F5F5F5F5F5F5F5F5F5F5F5E2F5F5F5F5F5F5F5F5F5F5F5F5F5F5F5F5F5F5F5F5F5F5F5F5F5F5F5F5F5F5
310
F5F5F5F5F5F5F5F5F5F5F5F5F5F5F5F5F5F5F5F5F5F5F5F5F5E2F5F5F5F5F5F5F5F5F5F5F5F5F5F5F5F5F5F5F5F5F5F5F5F5F5F5F5F5F5F5F5F5F5F5F5F5F5F5F5F5F5F5F5F5F5F5F5F5F5F5F5F5F5F5F5F5E2F5E2E2EFE2E2F5F5F5F5F5F5F5F5F5F5F5F5F5F5F5F5F5F5F5F5F5F5F5F5F5F5F5F5F5F5F5F5F5E2F5F5F5F5
310
F5F5F5E2F5F5F5F5F5F5F5F5F5F5F5F5F5F5F5F5F5F5E2F5F5F5F5F5F5F5F5F5F5F5F5F5F5F5F5F5F5F5F5F5F5F5F5F5F5F5F5F5F5F5F5F5F5F5F5F5F5F5F5F5F5F5F5F5F5F5F5F5F5F5F5F5F5F5E2F5F5F5F5F5F5F5F5F5F5F5F5F5F5F5F5F5F5F5F5F5F5F5F5F5F5F5F5F5F5F5F5F5F5F5F5F5F5F5F5F5F5F5F5F5F5F5F5
310
F5F5F5F5F5F5F5F5E2F5E2E2EFE2E2F5F5F5F5F5F5F5F5F5F5F5F5F5F5F5F5F5F5F5F5F5F5F5F5F5F5F5F5F5F5F5F5F5E2F5F5F5F5F5F5F5E2F5F5F5F5F5F5F5F5F5F5F5F5F5F5F5E2E2E2E2E2E2F5F5F5F5F5F5F5F5F5F5F5F5F5F5F5F5F5F5F5F5F5F5F5F5F5F5F5F5F5F5F5F5F5F5F5F5F5F5F5F5F5F5F5F5F5F5F5F5F5
310
F5F5F5F5E2F5F5F5F5F5F5F5F5F5F5F5F5F5F5F5F5F5F5F5F5F5F5F5F5F5F5F5F5F5F5F5F5F5F5F5F5F5F5F5F5F5F5F5F5F5F5F5F5F5F5F5F5F5F5F5F5E2F5E2E2EFE2E2F5F5F5F5F5F5F5F5F5F5F5F5F5F5F5F5F5F5F5F5F5F5F5F5F5F5F5F5F5F5F5F5F5E2F5F5F5F5F5F5F5E2F5F5F5F5F5F5F5F5F5F5F5F5F5F5F5F5F5
310
F5F5F5F5F5F5F5F5F5F5F5F5F5F5F5F5F5F5F5F5F5F5F5F5F5F5F5F5F5F5F5F5F5F5F5F5F5F5F5F5F5F5F5F5F5F5F5F5F5F5F5F5F5F5F5F5F5E2F5F5F5F5F5F5F5F5F5F5F5F5F5F5F5F5F5F5F5F5F5F5F5F5F5F5F5F5F5F5F5F5F5F5F5F5F5F5F5F5F5F5F5F5F5F5F5F5F5F5F5F5F5F5F5F5E2F5E2E2EFE2E2F5F5F5F5F5F5
310
F5F5F5F5F5F5F5F5F5F5F5F5F5F5F5F5F5F5F5F5F5F5F5F5F5F5F5E2F5F5F5F5F5F5F5F5F5F5F5F5F5F5F5F5F5F5F5F5F5F5F5F5F5F5F5F5F5F5F5F5F5F5F5F5F5F5F5F5F5F5F5F5F5F5F5F5F5F5F5F5F5F5F5F5F5F5F5F5F5F5F5F5F5F5F5F5F5F5F5F5F5F5F5F5F5F5F5F5F5F5E2F5F5F5F5F5F5F5F5F5F5F5F5F5F5F5F5
310
F5F5F5F5F5F5F5F5F5F5F5F5F5F5F5F5F5F5F5F5F5F5F5F5F5F5F5F5F5F5F5F5F5F5F5F5F5F5F5F5E2F5E2E2EFE2E2F5F5F5F5F5F5F5F5F5F5F5F5F5F5F5F5F5F5F5F5F5F5F5F5F5F5F5F5F5F5F5F5F5E2F5F5F5F5F5F5F5E2F5F5F5F5F5F5F5F5F5F5F5F5F5F5F5F5F5F5F5F5F5F5F5F5F5F5F5F5F5F5F5F5F5F5F5F5F5F5
310
F5F5F5F5F5F5F5F5F5F5F5F5F5F5F5F5F5F5F5F5F5F5F5F5F5F5F5F5F5F5F5F5F5F5F5F5E2F5F5F5F5F5F5F5F5F5F5F5F5F5F5F5F5F5F5F5F5F5F5F5F5F5F5F5F5F5F5F5F5F5F5F5F5F5F5F5F5F5F5F5F5F5F5F5F5F5F5F5F5F5F5F5F5E2F5E2E2EFE2E2F5F5F5F5F5F5F5F5F5F5F5F5F5F5F5F5F5F5F5F5F5F5F5F5F5F5F5
310
F5F5F5F5F5F5E2F5F5F5F5F5F5F5E2F5F5F5F5F5F5F5F5F5F5F5F5F5F5F5F5F5F5F5F5F5F5F5F5F5F5F5F5F5F5F5F5F5F5F5F5F5F5F5F5F5F5F5F5F5F5F5F5F5F5F5F5F5F5F5F5F5F5F5F5F5F5F5F5F5F5F5F5F5F5F5F5F5F5F5F5F5F5F5F5F5F5F5F5F5F5F5F5F5F5F5F5F5F5F5F5F5F5F5F5F5F5F5F5F5F5F5F5F5F5F5F5
310
F5F5F5F5F5F5F5F5F5F5F5F5F5F5F5F5F5F5F5E2F5E2E2EFE2E2F5F5F5F5F5F5F5F5F5F5F5F5F5F5F5F5F5F5F5F5F5F5F5F5F5F5F5F5F5F5F5F5F5E2F5F5F5F5F5F5F5E2F5F5F5F5F5F5F5F5F5F5F5F5F5F5F5F5F5F5F5F5F5F5F5F5F5F5F5F5F5F5F5F5F5F5F5F5F5F5F5F5F5F5F5F5F5F5F5F5F5F5F5F5F5F5F5F5F5F5F5
310
F5F5F5F5F5F5F5F5F5F5F5F5F5F5F5E2F5F5F5F5F5F5F5F5F5F5F5F5F5F5F5F5F5F5F5F5F5F5F5F5F5F5F5F5F5F5F5F5F5F5F5F5F5F5F5F5F5F5F5F5F5F5F5F5F5F5F5F5F5F5F5F5E2E2E2E2EFE2E2F5F5F5F5F5F5F5F5F5F5F5F5F5F5F5F5F5F5F5F5F5F5F5F5F5F5F5F5F5F5F5F5F5E2F5F5F5F5F5F5F5E2F5F5F5F5F5F5
310
F5F5F5F5F5F5F5F5F5F5F5F5F5F5F5F5F5F5F5F5F5F5F5F5F5F5F5F5F5F5F5F5F5F5F5F5F5F5F5F5F5F5F5F5F5F5F5F5F5F5F5F5F5F5F5F5F5F5F5F5F5F5F5F5F5F5F5F5E2F5F5F5F5F5F5F5F5F5F5F5F5F5F5F5F5F5F5F5F5F5F5F5F5F5F5F5F5F5F5F5F5F5F5F5F5F5F5F5F5F5F5F5F5F5F5F5F5F5F5F5F5F5F5F5F5E2E2
310
E2E2EFE2E2F5F5F5F5F5F5F5F5F5F5F5F5F5F5F5F5F5F5F5F5F5F5F5F5F5F5F5F5F5F5F5F5F5E2F5F5F5F5F5F5F5E2F5F5F5F5F5F5F5F5F5F5F5F5F5F5F5F5F5F5F5F5F5F5F5F5F5F5F5F5F5F5F5F5F5F5F5F5F5F5F5F5F5F5F5F5F5F5F5F5F5F5F5F5F5F5F5F5F5F5F5F5F5F5F5F5F5F5F5F5F5F5F5F5F5F5E2F5F5F5F5F5
310
F5F5F5F5F5F5F5F5F5F5F5F5F5F5F5F5F5F5F5F5F5F5F5F5F5F5F5F5F5F5F5F5F5F5F5F5F5F5F5F5F5F5F5F5F5F5F5F5F5F5F5E2E2E2E2EFE2E2F5F5F5F5F5F5F5F5F5F5F5F5F5F5F5F5F5F5F5F5F5F5F5F5F5F5F5F5F5F5F5F5F5E2F5F5F5F5F5F5F5F5F5F5F5F5F5F5F5F5F5F5F5F5F5F5F5F5F5F5F5F5F5F5F5F5F5F5F5
310
F5F5F5F5F5F5F5F5F5E2E2E2E2E2E2F5E2E2E2E2E2E2F5E2E2E2E2E2F5E2E2E2E2E2F5E2E2E2E2E2E2F5E2E2E2E2E2E2F5F5F5F5F5F5F5F5F5F5F5F5F5F5F5F5F5F5F5F5F5F5F5F5F5F5F5F5F5F5F5F5F5F5F5F5F5F5F5F5F5F5F5F5F5F5F5F5F5F5F5F5F5F5F5F5E2E2E2E2EFE2E2F5F5F5F5F5F5F5F5F5F5F5F5F5F5F5F5
310
F5F5F5F5F5F5F5F5F5F5F5F5F5F5F5F5F5E2F5F5F5F5F5F5F5E2F5F5F5F5F5F5F5F5F5F5F5F5F5F5F5F5F5F5F5F5F5F5F5F5F5F5F5F5F5F5F5F5F5F5F5F5E2F5F5F5F5F5F5F5F5F5F5F5F5F5F5F5F5F5F5F5F5F5F5F5F5F5F5F5F5F5F5F5F5F5F5F5F5F5F5F5F5F5F5F5F5F5F5F5F5F5F5F5F5F5F5F5F5F5F5F5F5F5F5F5F5
310
F5F5F5F5F5F5F5F5F5F5F5F5F5F5F5F5F5F5F5F5F5F5F5F5F5F5F5F5F5F5E2E2E2E2EFE2E2F5F5F5F5F5F5F5F5F5F5F5F5F5F5F5F5F5F5F5F5F5F5F5F5F5F5F5F5F5F5F5F5F5E2F5F5F5F5F5F5F5E2F5F5F5F5F5F5F5F5F5F5F5F5F5F5F5F5F5F5F5F5F5F5F5F5F5F5F5F5F5F5F5F5F5F5F5F5E2F5F5F5F5F5F5F5F5F5F5F5
310
F5F5F5F5F5F5F5F5F5F5F5F5F5F5F5F5F5F5F5F5F5F5F5F5F5F5F5F5F5F5F5F5F5F5F5F5F5F5F5F5F5F5F5F5F5F5F5F5F5F5F5F5F5F5F5F5F5F5F5F5F5F5F5F5F5F5F5F5F5F5F5F5F5F5F5F5F5F5F5F5F5F5F5E2E2E2E2EFE2E2F5F5F5F5F5F5F5F5F5F5F5F5F5F5F5F5F5F5F5F5F5F5F5F5F5F5F5F5F5F5F5F5F5E2F5F5F5
310
F5F5F5F5E2F5F5F5F5F5F5F5F5F5F5F5F5F5F5F5F5F5F5F5F5F5F5F5F5F5F5F5F5F5F5F5F5F5F5F5F5E2F5F5F5F5F5F5F5F5F5F5F5F5F5F5F5F5F5F5F5F5F5F5F5F5F5F5F5F5F5F5F5F5F5F5F5F5F5F5F5F5F5F5F5F5F5F5F5F5F5F5F5F5F5F5F5F5F5F5F5F5F5F5F5F5F5F5F5F5F5F5F5F5F5F5F5F5F5F5F5F5F5F5F5F5F5
310
F5F5F5F5F5F5F5F5F5E2E2E2E2EFE2E2F5F5F5F5F5F5F5F5F5F5F5F5F5F5F5F5F5F5F5F5F5F5F5F5F5F5F5F5F5F5F5F5E2E2BEE2F5F5F5F5F5E2E2E2E2E2E2F5E2E2E2E2E2F5E2E2E2E2E2F5E2E2E2E2E2E2F5E2E2E2E2E2F5E2E2E2E2E2E2F5F5F5F5F5F5F5F5F5F5F5F5F5F5F5F5F5F5F5F5F5F5F5F5F5F5F5F5F5F5F5F5
310
F5F5F5F5F5F5F5F5F5F5F5F5F5F5F5F5F5F5F5F5F5F5F5F5F5F5F5F5F5F5F5F5F5F5F5F5F5F5F5F5F5F5F5F5F5F5F5F5F5F5F5F5F5F5F5F5F5F5F5F5F5F5E2E2E2E2EFE2E2F5F5F5F5F5F5F5F5F5F5F5F5F5F5F5F5F5F5F5F5F5F5F5F5F5F5F5F5F5F5F5F5F5E2F5F5F5F5F5F5F5F5F5F5F5F5F5F5F5F5F5F5F5F5F5F5F5F5
310
F5F5F5F5F5F5F5F5F5F5F5F5F5F5F5F5F5F5F5F5F5F5F5F5F5F5F5F5F5F5F5F5F5F5F5F5F5F5F5F5F5F5F5F5F5F5F5F5F5F5F5F5F5F5F5F5F5F5F5F5F5F5F5F5F5F5F5F5F5F5F5F5F5F5F5F5F5F5F5F5F5F5F5F5F5F5F5F5F5F5F5F5F5F5F5F5F5F5F5F5F5F5F5F5F5F5F5F5F5F5F5F5F5F5F5E2E2E2E2EFE2E2F5F5F5F5F5
310
F5F5F5F5F5F5F5F5F5F5F5F5F5F5F5F5F5F5F5F5F5F5F5F5F5F5F5F5F5F5F5F5F5F5F5F5F5F5F5F5F5F5F5F5F5F5F5F5F5F5F5F5F5F5F5F5F5F5F5F5F5F5F5F5F5F5F5F5F5F5F5F5F5F5F5F5F5F5F5F5F5F5F5F5F5F5F5F5F5F5F5F5F5F5F5F5F5F5F5F5F5F5F5F5F5F5F5F5F5F5F5F5F5F5F5F5F5F5F5F5F5F5F5F5F5F5F5
310
F5F5F5F5F5F5F5F5F5F5F5F5F5F5F5F5F5F5F5F5F5F5F5F5F5F5F5F5F5F5F5F5F5F5F5F5F5F5F5F5F5E2E2E2E2EFE2E2F5F5F5F5F5F5F5F5F5F5F5F5F5F5F5F5F5F5F5F5F5F5F5F5F5F5F5F5F5F5F5F5F5F5F5F5F5F5F5F5F5F5F5F5F5F5F5F5F5F5F5F5F5F5F5F5F5F5F5F5F5F5F5F5F5F5F5F5F5F5F5F5F5F5F5F5F5F5F5
310
F5F5F5F5F5F5F5F5F5F5F5F5F5F5F5F5F5F5F5F5F5F5F5F5F5F5F5F5F5F5F5F5F5F5F5F5F5F5F5F5F5F5F5F5F5F5F5F5F5F5F5F5F5F5F5F5F5F5F5F5F5F5F5F5F5F5F5F5F5F5F5F5F5F5F5F5F5F5F5F5F5F5F5F5F5F5F5F5F5F5F5F5F5F5E2E2E2E2EFE2E2F5F5F5F5F5F5F5F5F5F5F5F5F5F5F5F5F5F5F5F5F5F5F5F5F5F5
310
F5F5F5F5F5F5F5F5F5F5F5F5F5F5F5F5F5F5F5F5F5F5F5F5F5F5F5F5F5F5F5F5F5F5F5F5F5F5F5F5F5F5F5F5F5F5F5F5F5F5F5F5F5F5F5F5F5F5F5F5F5F5F5F5F5F5F5F5F5F5F5F5F5F5F5F5F5F5F5F5F5F5F5F5F5F5F5F5F5F5F5F5F5F5F5F5F5F5F5F5F5F5F5F5F5F5F5F5F5F5F5F5F5F5F5F5F5F5F5F5F5F5F5F5F5F5F5
310
F5F5F5F5F5F5F5F5F5F5F5F5F5F5F5F5F5F5F5F5E2E2E2E2EFE2E2F5F5F5F5F5F5F5F5F5F5F5F5F5F5F5F5F5F5F5F5F5F5F5F5F5F5F5F5F5F5F5F5F5F5F5F5F5F5F5F5F5F5F5F5F5F5F5F5F5F5F5F5F5F5F5F5F5F5F5F5F5F5F5F5F5F5F5F5F5F5F5F5F5F5F5F5F5F5F5F5F5F5F5F5F5F5F5F5F5F5F5F5F5F5F5F5F5F5F5F5
310
F5F5F5F5F5F5F5F5F5F5F5F5F5F5F5F5F5F5F5F5F5F5F5F5F5F5F5F5F5F5F5F5F5F5F5F5F5F5F5F5F5F5F5F5F5F5F5F5F5F5F5F5F5F5F5F5F5F5F5F5F5F5F5F5F5F5F5F5F5F5F5F5F5E2E2E2E2EFE2E2F5F5F5F5F5F5F5F5F5F5F5F5F5F5F5F5F5F5F5F5F5F5F5F5F5F5F5F5F5F5F5F5F5F5F5F5F5F5F5F5BEE2F5F5F5F5F5
310
F5F5F5F5F5F5F5F5F5F5F5F5F5F5F5F5F5F5F5F5F5F5F5F5F5F5F5F5F5F5F5F5F5F5F5F5F5F5F5F5F5F5F5F5F5F5F5F5F5F5F5F5F5F5F5F5F5F5F5F5F5F5F5F5F5F5F5F5BEE2F5F5F5F5F5F5F5F5F5F5F5F5F5F5F5F5F5F5F5F5F5F5F5F5F5F5F5F5F5F5F5F5F5F5F5F5F5F5F5F5F5F5F5F5F5F5F5F5F5F5F5F5F5F5F5F5E2
310
E2E2E2EFE2E2F5F5F5F5F5F5F5F5F5F5F5F5F5F5F5F5F5F5F5F5F5F5F5F5F5F5F5F5F5F5F5F5F5F5F5F5F5F5F5F5E2E2E2E2E2E2E2E2E2E2E2E2E2E2E2E2E2E2E2E2E2E2E2E2E2E2E2E2E2E2E2E2E2E2E2E2E2E2E2E2E2E2E2E2E2E2E2E2E2E2E2E2E2E2E2E2E2E2E2E2E2E2E2E2E2E2E2E2E2E2E2E2E2E2E2E2E2E2F5F5F5
310
F5F5F5F5F5F5F5F5F5F5F5F5F5F5F5F5F5F5F5F5F5F5F5F5F5F5F5F5F5F5F5F5F5F5F5F5F5F5F5F5F5F5F5F5F5F5F5F5F5F5F5F5E2E2E2E2EFE2E2F5F5F5F5F5F5F5F5F5F5F5F5F5F5F5F5F5F5F5F5F5F5F5F5F5F5F5F5F5F5F5F5F5F5F5F5F5F5F5F5F5BEF5F5F5F5F5F5F5F5F5F5F5F5F5F5F5F5F5F5F5F5F5F5F5F5F5F5
310
F5F5F5F5F5F5F5F5F5E2E2E2F5F5F5F5F5F5F5F5F5F5F5F5F5F5F5F5F5F5F5F5F5F5F5F5F5F5F5F5F5F5F5F5F5F5F5F5E2BEF5F5F5F5F5F5F5F5F5F5F5F5F5F5F5F5F5F5F5F5F5F5F5F5F5F5F5F5F5F5F5F5F5F5F5F5F5F5F5F5F5F5F5F5F5F5F5F5F5F5F5F5F5F5F5E2E2E2E2EFE2E2F5F5F5F5F5F5F5F5F5F5F5F5F5F5F5
310
F5F5F5F5F5F5F5F5F5F5F5F5F5F5F5F5F5F5F5F5F5F5F5F5F5F5F5F5F5F5F5F5F5F5F5F5F5F5F5F5F5F5F5F5F5F5F5F5F5F5F5F5F5F5F5F5F5F5F5F5F5F5E2E2E2F5F5F5F5F5F5F5F5F5F5F5F5F5F5F5F5F5F5F5F5F5F5F5F5F5F5F5F5F5F5F5F5F5F5F5F5F5F5F5F5F5F5F5F5F5F5F5F5F5F5F5F5F5F5F5F5F5F5F5F5F5F5
310
F5F5F5F5F5F5F5F5F5F5F5F5F5F5F5F5F5F5F5F5F5F5F5F5F5F5F5F5F5F5F5E2F5E2E2EFE2E2F5F5F5F5F5F5F5F5F5F5F5F5F5F5F5F5F5F5F5F5F5F5F5F5F5F5F5F5F5F5F5F5F5F5F5F5F5F5F5F5F5F5F5F5F5F5F5F5F5F5F5F5F5F5F5F5F5F5F5F5F5F5F5F5F5F5F5F5F5F5F5F5F5F5F5F5F5F5F5F5F5F5F5F5F5F5F5F5F5
310
F5F5F5F5F5F5F5F5F5F5F5F5F5F5F5F5F5F5F5F5F5F5F5F5F5F5F5F5F5F5F5F5F5F5F5F5F5F5F5F5F5F5F5F5F5F5F5F5F5F5F5F5F5F5F5F5F5F5F5F5F5F5F5F5F5F5F5F5F5F5F5F5F5F5F5F5F5F5F5F5F5F5F5F5E2F5E2E2EFE2E2F5F5F5F5F5F5F5F5F5F5F5F5F5F5F5F5F5F5F5F5F5F5F5F5F5F5F5F5F5F5F5F5F5F5F5F5
310
F5F5F5F5F5F5F5F5F5F5F5F5F5F5F5F5F5F5F5F5F5F5F5F5F5F5F5F5F5F5F5F5F5F5F5F5F5F5F5F5F5F5F5F5F5F5F5F5F5F5F5F5F5F5F5F5F5F5F5F5F5F5F5F5F5F5F5F5F5F5F5F5F5F5F5F5F5F5F5F5F5F5F5F5F5F5F5F5F5F5F5F5F5F5F5F5F5F5F5F5F5F5F5F5F5F5F5F5F5F5F5F5F5F5F5F5F5F5F5F5F5F5F5F5F5F5F5
310
F5F5F5F5F5F5F5F5F5F5E2F5E2E2EFE2E2F5F5F5F5F5F5F5F5F5F5F5F5F5F5F5F5F5F5F5F5F5F5F5F5F5F5F5F5F5F5F5F5F5F5F5F5F5F5F5F5F5F5F5F5F5F5F5F5F5F5F5F5F5F5F5F5F5F5F5F5F5F5F5F5F5F5F5F5F5F5F5F5F5F5F5F5F5F5F5F5F5F5F5F5F5F5F5F5F5F5F5F5F5F5F5F5F5F5F5F5F5F5F5F5F5F5F5F5F5F5
310
F5F5F5F5F5F5F5F5F5F5F5F5F5F5F5F5F5F5F5F5F5F5F5F5F5F5F5F5F5F5F5F5F5F5F5F5F5F5F5F5F5F5F5F5F5F5F5F5F5F5F5F5F5F5F5F5F5F5F5F5F5F5F5E2F5E2E2EFE2E2F5F5F5F5F5F5F5F5F5F5F5F5F5F5F5F5F5F5F5F5F5F5F5F5F5F5F5F5F5F5F5F5F5F5F5F5F5F5F5F5F5F5F5F5F5F5F5F5F5F5F5F5F5F5F5F5F5
310
F5F5F5F5F5F5F5F5F5F5F5F5F5F5F5F5F5F5F5F5F5F5F5F5F5F5F5F5F5F5F5F5F5F5F5F5F5F5F5F5F5F5F5F5F5F5F5F5F5F5F5F5F5F5F5F5F5F5F5F5F5F5F5F5F5F5F5F5F5F5F5F5F5F5F5F5F5F5F5F5F5F5F5F5F5F5F5F5F5F5F5F5F5F5F5F5F5F5F5F5F5F5F5F5F5F5F5F5F5F5F5F5F5F5F5F5E2F5E2E2EFE2E2F5F5F5F5
310
F5F5F5F5F5F5F5F5F5F5F5F5F5F5F5F5F5F5F5F5F5F5F5F5F5F5F5F5F5F5F5F5F5F5F5F5F5F5F5F5F5F5F5F5F5F5F5F5F5F5F5F5F5F5F5F5F5F5F5F5F5F5F5F5F5F5F5F5F5F5F5F5F5F5F5F5F5F5F5F5F5F5F5F5F5F5F5F5F5F5F5F5F5F5F5F5F5F5F5F5F5F5F5F5F5F5F5F5F5F5F5F5F5F5F5F5F5F5F5F5F5F5F5F5F5F5F5
310
F5F5F5F5F5F5F5F5F5F5F5F5F5F5F5F5F5F5F5F5F5F5F5F5F5F5F5F5F5F5F5F5F5F5F5F5F5F5F5F5F5F5E2F5E2E2EFE2E2F5F5F5F5F5F5F5F5F5F5F5F5F5F5F5F5F5F5F5F5F5F5F5F5F5F5F5F5F5F5F5F5F5F5F5F5F5F5F5F5F5F5F5F5F5F5F5F5F5F5F5F5F5F5F5F5F5F5F5F5F5F5F5F5F5F5F5F5F5F5F5F5F5F5F5F5F5F5
310
F5F5F5F5F5F5F5F5F5F5F5F5F5F5F5F5F5F5F5F5F5F5F5F5F5F5F5F5F5F5F5F5F5F5F5F5F5F5F5F5F5F5F5F5F5F5F5F5F5F5F5F5F5F5F5F5F5F5F5F5F5F5F5F5F5F5F5F5F5F5F5F5F5F5F5F5F5F5F5F5F5F5F5F5F5F5F5F5F5F5F5F5F5F5F5E2F5E2E2EFE2E2F5F5F5F5F5F5F5F5F5F5F5F5F5F5F5F5F5F5F5F5F5F5F5F5F5
310
F5F5F5F5F5F5F5F5F5F5F5F5F5F5F5F5F5F5F5F5F5F5F5F5F5F5F5F5F5F5F5F5F5F5F5F5F5F5F5F5F5F5F5F5F5F5F5F5F5F5F5F5F5F5F5F5F5F5F5F5F5F5F5F5F5F5F5F5F5F5F5F5F5F5F5F5F5F5F5F5F5F5F5F5F5F5F5F5F5F5F5F5F5F5F5F5F5F5F5F5F5F5F5F5F5F5F5F5F5F5F5F5F5F5F5F5F5F5F5F5F5F5F5F5F5F5F5
310
F5F5F5F5F5F5F5F5F5F5F5F5F5F5F5F5F5F5F5F5F5E2F5E2E2EFE2E2F5F5F5F5F5F5F5F5F5F5F5F5F5F5F5F5F5F5F5F5F5F5F5F5F5F5F5F5F5F5F5F5F5F5F5F5F5F5F5F5F5F5F5F5F5F5F5F5F5F5F5F5F5F5F5F5F5F5F5F5F5F5F5F5F5F5F5F5F5F5F5F5F5F5F5F5F5F5F5F5F5F5F5F5F5F5F5F5F5F5F5F5F5F5F5F5F5F5F5
310
F5F5F5F5F5F5F5F5F5F5F5F5F5F5F5F5F5F5F5F5F5F5F5F5F5F5F5F5F5F5F5F5F5F5F5F5F5F5F5F5F5F5F5F5F5F5F5F5F5F5F5F5F5F5F5F5F5F5F5F5F5F5F5F5F5F5F5F5F5F5F5F5F5F5E2F5E2E2EFE2E2F5F5F5F5F5F5F5F5F5F5F5F5F5F5F5F5F5F5F5F5F5F5F5F5F5F5F5F5F5F5F5F5F5F5F5F5F5F5F5F5F5F5F5F5F5F5
310
F5F5F5F5F5F5F5F5F5F5F5F5F5F5F5F5F5F5F5F5F5F5F5F5F5F5F5F5F5F5F5F5F5F5F5F5F5F5F5F5F5F5F5F5F5F5F5F5F5F5F5F5F5F5F5F5F5F5F5F5F5F5F5F5F5F5F5F5F5F5F5F5F5F5F5F5F5F5F5F5F5F5F5F5F5F5F5F5F5F5F5F5F5F5F5F5F5F5F5F5F5F5F5F5F5F5F5F5F5F5F5F5F5F5F5F5F5F5F5F5F5F5F5F5F5F5F5
310
E2E2E2E2EFE2E2F5F5F5F5F5F5F5F5F5F5F5F5F5F5F5F5F5F5F5F5F5F5F5F5F5F5F5F5F5F5F5F5F5F5F5F5F5F5F5F5F5F5F5F5F5F5F5F5F5F5F5F5F5F5F5F5F5F5F5F5F5F5F5F5F5F5F5F5F5F5F5F5F5F5F5F5F5F5F5F5F5F5F5F5F5F5F5F5F5F5F5F5F5F5F5F5F5F5F5F5F5F5F5F5F5F5F5F5F5F5F5F5F5F5F5F5F5F5F5F5
310
F5F5F5F5F5F5F5F5F5F5F5F5F5F5F5F5F5F5F5F5F5F5F5F5F5F5F5F5F5F5F5F5F5F5F5F5F5F5F5F5F5F5F5F5F5F5F5F5F5F5F5F5F5E2E2E2E2EFE2E2F5F5F5F5F5F5F5F5F5F5F5F5F5F5F5F5F5F5F5F5F5F5F5F5F5F5F5F5F5F5F5F5F5F5F5F5F5F5F5F5F5F5F5F5F5F5F5F5F5F5F5F5F5F5F5F5F5F5F5F5F5F5F5F5F5F5F5
310
F5F5F5F5F5F5F5F5F5F5F5F5F5F5F5F5F5F5F5F5F5F5F5F5F5F5F5F5F5F5F5F5F5F5F5F5F5F5F5F5F5F5F5F5F5F5F5F5F5F5F5F5F5F5F5F5F5F5F5F5F5F5F5F5F5F5F5F5F5F5F5F5F5F5F5F5F5F5F5F5F5F5F5F5F5F5F5F5F5F5F5F5F5F5F5F5F5F5F5F5F5F5F5F5F5F5E2E2E2E2EFE2E2F5F5F5F5F5F5F5F5F5F5F5F5F5F5
310
F5F5F5F5F5F5F5F5F5F5F5F5F5F5F5F5F5F5F5F5F5F5F5F5F5F5F5F5F5F5F5F5F5F5F5F5F5F5F5F5F5F5F5F5F5F5F5F5F5F5F5F5F5F5F5F5F5F5F5F5F5F5F5F5F5F5F5F5F5F5F5F5F5F5F5F5F5F5F5F5F5F5F5F5F5F5F5F5F5F5F5F5F5F5F5F5F5F5F5F5F5F5F5F5F5F5F5F5F5F5F5F5F5F5F5F5F5F5F5F5F5F5F5F5F5F5F5
310
F5F5F5F5F5F5F5F5F5F5F5F5F5F5F5F5F5F5F5F5F5F5F5F5F5F5F5F5F5F5F5F5E2E2E2E2EFE2E2F5F5F5F5F5F5F5F5F5F5F5F5F5F5F5F5F5F5F5F5F5F5F5F5F5F5F5F5F5F5F5F5F5F5F5F5F5F5F5F5F5F5F5F5F5F5F5F5F5F5F5F5F5F5F5F5F5F5F5F5F5F5F5F5F5F5F5F5F5F5F5F5F5F5F5F5F5F5F5F5F5F5F5F5F5F5F5F5
310
F5F5F5F5F5F5F5F5F5F5F5F5F5F5F5F5F5F5F5F5F5F5F5F5F5F5F5F5F5F5F5F5F5F5F5F5F5F5F5F5F5F5F5F5F5F5F5F5F5F5F5F5F5F5F5F5F5F5F5F5F5F5F5F5F5F5F5F5F5F5F5F5F5F5F5F5F5F5F5F5F5F5F5F5F5E2E2E2E2EFE2E2E2E2E2E2E2E2E2E2E2E2E2E2E2E2E2E2E2E2E2E2E2E2E2E2E2E2E2E2E2E2E2E2E2E2E2
310
E2E2E2E2E2E2E2E2E2E2E2E2E2E2E2E2E2E2E2E2E2E2E2E2E2E2E2E2E2E2E2E2E2E2E2E2E2E2E2E2E2E2E2E2E2E2E2E2E2E2E2E2E2E2E2E2E2E2E2E2E2E2E2E2E2E2E2E2E2E2E2E2E2E2E2E2E2E2E2E2E2E2E2E2E2E2E2E2E2E2E2E2E2E2E2E2E2E2E2E2E2E2E2E2E2E2E2E2E2E2E2E2E2E2E2E2E2E2E2E2E2E2E2E2E2E2E2
310
E2E2E2E2E2E2E2E2E2E2E2E2E2E2E2EFE2E2F5F5F5F5F5F5F5F5F5F5F5F5F5F5F5F5F5F5F5F5F5F5F5F5F5F5F5F5F5F5F5F5F5F5F5F5F5F5F5F5F5F5F5F5F5F5F5F5F5F5F5F5F5F5F5F5F5F5F5F5F5F5F5F5F5F5F5F5F5F5F5F5F5F5F5F5F5F5F5F5F5F5F5F5F5F5F5F5F5F5F5F5F5F5F5F5F5F5F5F5F5F5F5F5F5F5F5F5F5
310
F5F5F5F5F5F5F5F5F5F5F5F5F5F5F5F5F5F5F5F5F5F5F5F5F5F5F5F5F5F5F5F5F5F5F5F5F5F5F5F5F5F5F5F5F5F5F5F5F5F5F5F5F5F5F5F5F5F5F5F5F5F5F5F5F5E2E2E2EFE2E2E2E2E2E2E2E2E2E2F5F5F5F5F5F5F5F5F5E2E2E2E2E2E2E2E2E2E2E2E2E2E2E2E2F5F5F5F5F5F5F5F5F5E2E2E2E2E2E2E2E2E2E2E2E2E2E2
310
E2E2F5F5F5F5F5F5F5F5F5E2E2E2E2E2E2E2E2E2E2E2E2E2E2E2E2F5F5F5F5F5F5F5F5F5E2E2E2E2E2E2E2E2E2E2E2E2E2E2E2E2F5F5F5F5F5F5F5F5F5E2E2E2E2E2E2E2E2E2E2E2E2E2E2E2E2F5F5F5F5F5F5F5F5F5E2E2E2E2E2E2E2E2E2E2E2E2E2E2E2E2F5F5F5F5F5F5F5F5F5E2E2E2E2E2E2E2E2E2EFEFE2E2E2E2E2
310
E2E2E2E2E2E2E2E2E2E2E2E2E2E2E2E2E2E2E2E2E2E2E2E2E2E2E2E2E2E2E2E2E2E2E2E2E2E2E2E2E2E2E2E2E2E2E2E2E2E2E2E2E2E2E2E2E2E2E2E2E2E2E2E2E2E2E2E2E2E2E2E2E2E2E2E2E2E2E2E2E2E2E2E2E2E2E2E2E2E2E2E2E2E2E2E2E2E2E2E2E2E2E2E2E2E2E2E2E2E2E2E2E2E2E2E2E2E2E2E2E2E2E2E2E2E2E2
310
E2E2E2E2E2E2E2E2E2E2E2E2E2E2E2E2E2E2E2E2E2E2E2E2E2E2E2E2E2E2E2E2E2E2E2E2E2E2E2E2E2E2E2E2E2E2EFEF
  0
XRECORD
  5
75EBF
102
{ACAD_REACTORS
330
75EBE
102
}
330
75EBE
100
AcDbXrecord
280
     1
102
MATERIAL
148
0.0
149
0.0
149
0.0
 93
        0
 94
      127
282
     0
 72
     1
 77
     1
171
     1
175
     1
179
     1
273
     0
  0
XRECORD
  5
75EBD
102
{ACAD_REACTORS
330
75EBC
102
}
330
75EBC
100
AcDbXrecord
280
     1
102
MATERIAL
148
0.0
149
0.0
149
0.0
 93
        0
 94
      127
282
     0
 72
     1
 77
     1
171
     1
175
     1
179
     1
273
     0
  0
XRECORD
  5
75EC1
102
{ACAD_REACTORS
330
75EC0
102
}
330
75EC0
100
AcDbXrecord
280
     1
102
MATERIAL
148
0.0
149
0.0
149
0.0
 93
        0
 94
      127
282
     0
 72
     1
 77
     1
171
     1
175
     1
179
     1
273
     0
  0
CELLSTYLEMAP
  5
75EBB
102
{ACAD_REACTORS
330
1055A
102
}
330
1055A
100
AcDbCellStyleMap
 90
        3
300
CELLSTYLE
  1
TABLEFORMAT_BEGIN
 90
        5
170
     1
 91
        0
 92
    32768
 62
   257
 93
        1
300
CONTENTFORMAT
  1
CONTENTFORMAT_BEGIN
 90
        0
 91
        0
 92
      512
 93
        0
300

 40
0.0
140
1.0
 94
        5
 62
     0
340
11
144
0.25
309
CONTENTFORMAT_END
171
     0
 94
        6
 95
        1
302
GRIDFORMAT
  1
GRIDFORMAT_BEGIN
 90
        0
 91
        1
 62
     0
 92
       -2
340
0
 93
        0
 40
0.045
309
GRIDFORMAT_END
 95
        2
302
GRIDFORMAT
  1
GRIDFORMAT_BEGIN
 90
        0
 91
        1
 62
     0
 92
       -2
340
0
 93
        0
 40
0.045
309
GRIDFORMAT_END
 95
        4
302
GRIDFORMAT
  1
GRIDFORMAT_BEGIN
 90
        0
 91
        1
 62
     0
 92
       -2
340
0
 93
        0
 40
0.045
309
GRIDFORMAT_END
 95
        8
302
GRIDFORMAT
  1
GRIDFORMAT_BEGIN
 90
        0
 91
        1
 62
     0
 92
       -2
340
0
 93
        0
 40
0.045
309
GRIDFORMAT_END
 95
       16
302
GRIDFORMAT
  1
GRIDFORMAT_BEGIN
 90
        0
 91
        1
 62
     0
 92
       -2
340
0
 93
        0
 40
0.045
309
GRIDFORMAT_END
 95
       32
302
GRIDFORMAT
  1
GRIDFORMAT_BEGIN
 90
        0
 91
        1
 62
     0
 92
       -2
340
0
 93
        0
 40
0.045
309
GRIDFORMAT_END
309
TABLEFORMAT_END
  1
CELLSTYLE_BEGIN
 90
        1
 91
        1
300
_TITLE
309
CELLSTYLE_END
300
CELLSTYLE
  1
TABLEFORMAT_BEGIN
 90
        5
170
     1
 91
        0
 92
        0
 62
   257
 93
        1
300
CONTENTFORMAT
  1
CONTENTFORMAT_BEGIN
 90
        0
 91
        0
 92
      512
 93
        0
300

 40
0.0
140
1.0
 94
        5
 62
     0
340
11
144
0.18
309
CONTENTFORMAT_END
171
     0
 94
        6
 95
        1
302
GRIDFORMAT
  1
GRIDFORMAT_BEGIN
 90
        0
 91
        1
 62
     0
 92
       -2
340
0
 93
        0
 40
0.045
309
GRIDFORMAT_END
 95
        2
302
GRIDFORMAT
  1
GRIDFORMAT_BEGIN
 90
        0
 91
        1
 62
     0
 92
       -2
340
0
 93
        0
 40
0.045
309
GRIDFORMAT_END
 95
        4
302
GRIDFORMAT
  1
GRIDFORMAT_BEGIN
 90
        0
 91
        1
 62
     0
 92
       -2
340
0
 93
        0
 40
0.045
309
GRIDFORMAT_END
 95
        8
302
GRIDFORMAT
  1
GRIDFORMAT_BEGIN
 90
        0
 91
        1
 62
     0
 92
       -2
340
0
 93
        0
 40
0.045
309
GRIDFORMAT_END
 95
       16
302
GRIDFORMAT
  1
GRIDFORMAT_BEGIN
 90
        0
 91
        1
 62
     0
 92
       -2
340
0
 93
        0
 40
0.045
309
GRIDFORMAT_END
 95
       32
302
GRIDFORMAT
  1
GRIDFORMAT_BEGIN
 90
        0
 91
        1
 62
     0
 92
       -2
340
0
 93
        0
 40
0.045
309
GRIDFORMAT_END
309
TABLEFORMAT_END
  1
CELLSTYLE_BEGIN
 90
        2
 91
        1
300
_HEADER
309
CELLSTYLE_END
300
CELLSTYLE
  1
TABLEFORMAT_BEGIN
 90
        5
170
     1
 91
        0
 92
        0
 62
   257
 93
        1
300
CONTENTFORMAT
  1
CONTENTFORMAT_BEGIN
 90
        0
 91
        0
 92
      512
 93
        0
300

 40
0.0
140
1.0
 94
        2
 62
     0
340
11
144
0.18
309
CONTENTFORMAT_END
171
     0
 94
        6
 95
        1
302
GRIDFORMAT
  1
GRIDFORMAT_BEGIN
 90
        0
 91
        1
 62
     0
 92
       -2
340
0
 93
        0
 40
0.045
309
GRIDFORMAT_END
 95
        2
302
GRIDFORMAT
  1
GRIDFORMAT_BEGIN
 90
        0
 91
        1
 62
     0
 92
       -2
340
0
 93
        0
 40
0.045
309
GRIDFORMAT_END
 95
        4
302
GRIDFORMAT
  1
GRIDFORMAT_BEGIN
 90
        0
 91
        1
 62
     0
 92
       -2
340
0
 93
        0
 40
0.045
309
GRIDFORMAT_END
 95
        8
302
GRIDFORMAT
  1
GRIDFORMAT_BEGIN
 90
        0
 91
        1
 62
     0
 92
       -2
340
0
 93
        0
 40
0.045
309
GRIDFORMAT_END
 95
       16
302
GRIDFORMAT
  1
GRIDFORMAT_BEGIN
 90
        0
 91
        1
 62
     0
 92
       -2
340
0
 93
        0
 40
0.045
309
GRIDFORMAT_END
 95
       32
302
GRIDFORMAT
  1
GRIDFORMAT_BEGIN
 90
        0
 91
        1
 62
     0
 92
       -2
340
0
 93
        0
 40
0.045
309
GRIDFORMAT_END
309
TABLEFORMAT_END
  1
CELLSTYLE_BEGIN
 90
        3
 91
        2
300
_DATA
309
CELLSTYLE_END
  0
XRECORD
  5
75EC2
102
{ACAD_REACTORS
330
1055A
102
}
330
1055A
100
AcDbXrecord
280
     1
102
ACAD_ROUNDTRIP_PRE2007_TABLESTYLE
 90
      512
 91
        0
  1

 92
      512
 93
        0
  2

 94
      512
 95
        0
  3

  0
XRECORD
  5
49B
102
{ACAD_REACTORS
330
49A
102
}
330
49A
100
AcDbXrecord
280
     1
102
RTVSPropertyOp0
 70
     1
102
RTVSPropertyOp1
 70
     1
102
RTVSPropertyOp2
 70
     1
102
RTVSPropertyOp3
 70
     1
102
RTVSPropertyOp4
 70
     1
102
RTVSPropertyOp5
 70
     1
102
RTVSPropertyOp6
 70
     1
102
RTVSPropertyOp7
 70
     1
102
RTVSPropertyOp8
 70
     1
102
RTVSPropertyOp9
 70
     1
102
RTVSPropertyOp10
 70
     1
102
RTVSPropertyOp11
 70
     1
102
RTVSPropertyOp12
 70
     1
102
RTVSPropertyOp13
 70
     1
102
RTVSPropertyOp14
 70
     1
102
RTVSPropertyOp15
 70
     1
102
RTVSPropertyOp16
 70
     1
102
RTVSPropertyOp17
 70
     1
102
RTVSPropertyOp18
 70
     1
102
RTVSPropertyOp19
 70
     1
102
RTVSPropertyOp20
 70
     1
102
RTVSPropertyOp21
 70
     1
102
RTVSPropertyOp22
 70
     1
102
RTVSPropertyOp23
 70
     1
102
RTVSPropertyOp24
 70
     1
102
RTVSPropertyOp25
 70
     1
102
RTVSPropertyOp26
 70
     1
102
RTVSPropertyOp27
 70
     1
  0
XRECORD
  5
A4A
102
{ACAD_REACTORS
330
A49
102
}
330
A49
100
AcDbXrecord
280
     1
102
RTVSPropertyOp0
 70
     1
102
RTVSPropertyOp1
 70
     1
102
RTVSPropertyOp2
 70
     1
102
RTVSPropertyOp3
 70
     1
102
RTVSPropertyOp4
 70
     1
102
RTVSPropertyOp5
 70
     1
102
RTVSPropertyOp6
 70
     1
102
RTVSPropertyOp7
 70
     1
102
RTVSPropertyOp8
 70
     1
102
RTVSPropertyOp9
 70
     1
102
RTVSPropertyOp10
 70
     1
102
RTVSPropertyOp11
 70
     1
102
RTVSPropertyOp12
 70
     1
102
RTVSPropertyOp13
 70
     1
102
RTVSPropertyOp14
 70
     1
102
RTVSPropertyOp15
 70
     1
102
RTVSPropertyOp16
 70
     1
102
RTVSPropertyOp17
 70
     1
102
RTVSPropertyOp18
 70
     1
102
RTVSPropertyOp19
 70
     1
102
RTVSPropertyOp20
 70
     1
102
RTVSPropertyOp21
 70
     1
102
RTVSPropertyOp22
 70
     1
102
RTVSPropertyOp23
 70
     1
102
RTVSPropertyOp24
 70
     1
102
RTVSPropertyOp25
 70
     1
102
RTVSPropertyOp26
 70
     1
102
RTVSPropertyOp27
 70
     1
  0
XRECORD
  5
4A1
102
{ACAD_REACTORS
330
4A0
102
}
330
4A0
100
AcDbXrecord
280
     1
102
RTVSPropertyOp0
 70
     1
102
RTVSPropertyOp1
 70
     1
102
RTVSPropertyOp2
 70
     1
102
RTVSPropertyOp3
 70
     1
102
RTVSPropertyOp4
 70
     1
102
RTVSPropertyOp5
 70
     1
102
RTVSPropertyOp6
 70
     1
102
RTVSPropertyOp7
 70
     1
102
RTVSPropertyOp8
 70
     1
102
RTVSPropertyOp9
 70
     1
102
RTVSPropertyOp10
 70
     1
102
RTVSPropertyOp11
 70
     1
102
RTVSPropertyOp12
 70
     1
102
RTVSPropertyOp13
 70
     1
102
RTVSPropertyOp14
 70
     1
102
RTVSPropertyOp15
 70
     1
102
RTVSPropertyOp16
 70
     1
102
RTVSPropertyOp17
 70
     1
102
RTVSPropertyOp18
 70
     1
102
RTVSPropertyOp19
 70
     1
102
RTVSPropertyOp20
 70
     1
102
RTVSPropertyOp21
 70
     1
102
RTVSPropertyOp22
 70
     1
102
RTVSPropertyOp23
 70
     1
102
RTVSPropertyOp24
 70
     1
102
RTVSPropertyOp25
 70
     1
102
RTVSPropertyOp26
 70
     1
102
RTVSPropertyOp27
 70
     1
  0
XRECORD
  5
4A9
102
{ACAD_REACTORS
330
4A8
102
}
330
4A8
100
AcDbXrecord
280
     1
102
RTVSPropertyOp0
 70
     1
102
RTVSPropertyOp1
 70
     1
102
RTVSPropertyOp2
 70
     1
102
RTVSPropertyOp3
 70
     1
102
RTVSPropertyOp4
 70
     1
102
RTVSPropertyOp5
 70
     1
102
RTVSPropertyOp6
 70
     1
102
RTVSPropertyOp7
 70
     1
102
RTVSPropertyOp8
 70
     1
102
RTVSPropertyOp9
 70
     1
102
RTVSPropertyOp10
 70
     1
102
RTVSPropertyOp11
 70
     1
102
RTVSPropertyOp12
 70
     1
102
RTVSPropertyOp13
 70
     1
102
RTVSPropertyOp14
 70
     1
102
RTVSPropertyOp15
 70
     1
102
RTVSPropertyOp16
 70
     1
102
RTVSPropertyOp17
 70
     1
102
RTVSPropertyOp18
 70
     1
102
RTVSPropertyOp19
 70
     1
102
RTVSPropertyOp20
 70
     1
102
RTVSPropertyOp21
 70
     1
102
RTVSPropertyOp22
 70
     1
102
RTVSPropertyOp23
 70
     1
102
RTVSPropertyOp24
 70
     1
102
RTVSPropertyOp25
 70
     1
102
RTVSPropertyOp26
 70
     1
102
RTVSPropertyOp27
 70
     1
  0
XRECORD
  5
4B1
102
{ACAD_REACTORS
330
4B0
102
}
330
4B0
100
AcDbXrecord
280
     1
102
RTVSPropertyOp0
 70
     1
102
RTVSPropertyOp1
 70
     1
102
RTVSPropertyOp2
 70
     1
102
RTVSPropertyOp3
 70
     1
102
RTVSPropertyOp4
 70
     1
102
RTVSPropertyOp5
 70
     1
102
RTVSPropertyOp6
 70
     1
102
RTVSPropertyOp7
 70
     1
102
RTVSPropertyOp8
 70
     1
102
RTVSPropertyOp9
 70
     1
102
RTVSPropertyOp10
 70
     1
102
RTVSPropertyOp11
 70
     1
102
RTVSPropertyOp12
 70
     1
102
RTVSPropertyOp13
 70
     1
102
RTVSPropertyOp14
 70
     1
102
RTVSPropertyOp15
 70
     1
102
RTVSPropertyOp16
 70
     1
102
RTVSPropertyOp17
 70
     1
102
RTVSPropertyOp18
 70
     1
102
RTVSPropertyOp19
 70
     1
102
RTVSPropertyOp20
 70
     1
102
RTVSPropertyOp21
 70
     1
102
RTVSPropertyOp22
 70
     1
102
RTVSPropertyOp23
 70
     1
102
RTVSPropertyOp24
 70
     1
102
RTVSPropertyOp25
 70
     1
102
RTVSPropertyOp26
 70
     1
102
RTVSPropertyOp27
 70
     1
  0
XRECORD
  5
4A7
102
{ACAD_REACTORS
330
4A6
102
}
330
4A6
100
AcDbXrecord
280
     1
102
RTVSPropertyOp0
 70
     1
102
RTVSPropertyOp1
 70
     1
102
RTVSPropertyOp2
 70
     1
102
RTVSPropertyOp3
 70
     1
102
RTVSPropertyOp4
 70
     1
102
RTVSPropertyOp5
 70
     1
102
RTVSPropertyOp6
 70
     1
102
RTVSPropertyOp7
 70
     1
102
RTVSPropertyOp8
 70
     1
102
RTVSPropertyOp9
 70
     1
102
RTVSPropertyOp10
 70
     1
102
RTVSPropertyOp11
 70
     1
102
RTVSPropertyOp12
 70
     1
102
RTVSPropertyOp13
 70
     1
102
RTVSPropertyOp14
 70
     1
102
RTVSPropertyOp15
 70
     1
102
RTVSPropertyOp16
 70
     1
102
RTVSPropertyOp17
 70
     1
102
RTVSPropertyOp18
 70
     1
102
RTVSPropertyOp19
 70
     1
102
RTVSPropertyOp20
 70
     1
102
RTVSPropertyOp21
 70
     1
102
RTVSPropertyOp22
 70
     1
102
RTVSPropertyOp23
 70
     1
102
RTVSPropertyOp24
 70
     1
102
RTVSPropertyOp25
 70
     1
102
RTVSPropertyOp26
 70
     1
102
RTVSPropertyOp27
 70
     1
  0
XRECORD
  5
4AF
102
{ACAD_REACTORS
330
4AE
102
}
330
4AE
100
AcDbXrecord
280
     1
102
RTVSPropertyOp0
 70
     1
102
RTVSPropertyOp1
 70
     1
102
RTVSPropertyOp2
 70
     1
102
RTVSPropertyOp3
 70
     1
102
RTVSPropertyOp4
 70
     1
102
RTVSPropertyOp5
 70
     1
102
RTVSPropertyOp6
 70
     1
102
RTVSPropertyOp7
 70
     1
102
RTVSPropertyOp8
 70
     1
102
RTVSPropertyOp9
 70
     1
102
RTVSPropertyOp10
 70
     1
102
RTVSPropertyOp11
 70
     1
102
RTVSPropertyOp12
 70
     1
102
RTVSPropertyOp13
 70
     1
102
RTVSPropertyOp14
 70
     1
102
RTVSPropertyOp15
 70
     1
102
RTVSPropertyOp16
 70
     1
102
RTVSPropertyOp17
 70
     1
102
RTVSPropertyOp18
 70
     1
102
RTVSPropertyOp19
 70
     1
102
RTVSPropertyOp20
 70
     1
102
RTVSPropertyOp21
 70
     1
102
RTVSPropertyOp22
 70
     1
102
RTVSPropertyOp23
 70
     1
102
RTVSPropertyOp24
 70
     1
102
RTVSPropertyOp25
 70
     1
102
RTVSPropertyOp26
 70
     1
102
RTVSPropertyOp27
 70
     1
  0
XRECORD
  5
493
102
{ACAD_REACTORS
330
492
102
}
330
492
100
AcDbXrecord
280
     1
102
RTVSPropertyOp0
 70
     1
102
RTVSPropertyOp1
 70
     1
102
RTVSPropertyOp2
 70
     1
102
RTVSPropertyOp3
 70
     1
102
RTVSPropertyOp4
 70
     1
102
RTVSPropertyOp5
 70
     1
102
RTVSPropertyOp6
 70
     1
102
RTVSPropertyOp7
 70
     1
102
RTVSPropertyOp8
 70
     1
102
RTVSPropertyOp9
 70
     1
102
RTVSPropertyOp10
 70
     1
102
RTVSPropertyOp11
 70
     1
102
RTVSPropertyOp12
 70
     1
102
RTVSPropertyOp13
 70
     1
102
RTVSPropertyOp14
 70
     1
102
RTVSPropertyOp15
 70
     1
102
RTVSPropertyOp16
 70
     1
102
RTVSPropertyOp17
 70
     1
102
RTVSPropertyOp18
 70
     1
102
RTVSPropertyOp19
 70
     1
102
RTVSPropertyOp20
 70
     1
102
RTVSPropertyOp21
 70
     1
102
RTVSPropertyOp22
 70
     1
102
RTVSPropertyOp23
 70
     1
102
RTVSPropertyOp24
 70
     1
102
RTVSPropertyOp25
 70
     1
102
RTVSPropertyOp26
 70
     1
102
RTVSPropertyOp27
 70
     1
  0
XRECORD
  5
495
102
{ACAD_REACTORS
330
494
102
}
330
494
100
AcDbXrecord
280
     1
102
RTVSPropertyOp0
 70
     1
102
RTVSPropertyOp1
 70
     1
102
RTVSPropertyOp2
 70
     1
102
RTVSPropertyOp3
 70
     1
102
RTVSPropertyOp4
 70
     1
102
RTVSPropertyOp5
 70
     1
102
RTVSPropertyOp6
 70
     1
102
RTVSPropertyOp7
 70
     1
102
RTVSPropertyOp8
 70
     1
102
RTVSPropertyOp9
 70
     1
102
RTVSPropertyOp10
 70
     1
102
RTVSPropertyOp11
 70
     1
102
RTVSPropertyOp12
 70
     1
102
RTVSPropertyOp13
 70
     1
102
RTVSPropertyOp14
 70
     1
102
RTVSPropertyOp15
 70
     1
102
RTVSPropertyOp16
 70
     1
102
RTVSPropertyOp17
 70
     1
102
RTVSPropertyOp18
 70
     1
102
RTVSPropertyOp19
 70
     1
102
RTVSPropertyOp20
 70
     1
102
RTVSPropertyOp21
 70
     1
102
RTVSPropertyOp22
 70
     1
102
RTVSPropertyOp23
 70
     1
102
RTVSPropertyOp24
 70
     1
102
RTVSPropertyOp25
 70
     1
102
RTVSPropertyOp26
 70
     1
102
RTVSPropertyOp27
 70
     1
  0
XRECORD
  5
497
102
{ACAD_REACTORS
330
496
102
}
330
496
100
AcDbXrecord
280
     1
102
RTVSPropertyOp0
 70
     1
102
RTVSPropertyOp1
 70
     1
102
RTVSPropertyOp2
 70
     1
102
RTVSPropertyOp3
 70
     1
102
RTVSPropertyOp4
 70
     1
102
RTVSPropertyOp5
 70
     1
102
RTVSPropertyOp6
 70
     1
102
RTVSPropertyOp7
 70
     1
102
RTVSPropertyOp8
 70
     1
102
RTVSPropertyOp9
 70
     1
102
RTVSPropertyOp10
 70
     1
102
RTVSPropertyOp11
 70
     1
102
RTVSPropertyOp12
 70
     1
102
RTVSPropertyOp13
 70
     1
102
RTVSPropertyOp14
 70
     1
102
RTVSPropertyOp15
 70
     1
102
RTVSPropertyOp16
 70
     1
102
RTVSPropertyOp17
 70
     1
102
RTVSPropertyOp18
 70
     1
102
RTVSPropertyOp19
 70
     1
102
RTVSPropertyOp20
 70
     1
102
RTVSPropertyOp21
 70
     1
102
RTVSPropertyOp22
 70
     1
102
RTVSPropertyOp23
 70
     1
102
RTVSPropertyOp24
 70
     1
102
RTVSPropertyOp25
 70
     1
102
RTVSPropertyOp26
 70
     1
102
RTVSPropertyOp27
 70
     1
  0
XRECORD
  5
499
102
{ACAD_REACTORS
330
498
102
}
330
498
100
AcDbXrecord
280
     1
102
RTVSPropertyOp0
 70
     1
102
RTVSPropertyOp1
 70
     1
102
RTVSPropertyOp2
 70
     1
102
RTVSPropertyOp3
 70
     1
102
RTVSPropertyOp4
 70
     1
102
RTVSPropertyOp5
 70
     1
102
RTVSPropertyOp6
 70
     1
102
RTVSPropertyOp7
 70
     1
102
RTVSPropertyOp8
 70
     1
102
RTVSPropertyOp9
 70
     1
102
RTVSPropertyOp10
 70
     1
102
RTVSPropertyOp11
 70
     1
102
RTVSPropertyOp12
 70
     1
102
RTVSPropertyOp13
 70
     1
102
RTVSPropertyOp14
 70
     1
102
RTVSPropertyOp15
 70
     1
102
RTVSPropertyOp16
 70
     1
102
RTVSPropertyOp17
 70
     1
102
RTVSPropertyOp18
 70
     1
102
RTVSPropertyOp19
 70
     1
102
RTVSPropertyOp20
 70
     1
102
RTVSPropertyOp21
 70
     1
102
RTVSPropertyOp22
 70
     1
102
RTVSPropertyOp23
 70
     1
102
RTVSPropertyOp24
 70
     1
102
RTVSPropertyOp25
 70
     1
102
RTVSPropertyOp26
 70
     1
102
RTVSPropertyOp27
 70
     1
  0
XRECORD
  5
4AD
102
{ACAD_REACTORS
330
4AC
102
}
330
4AC
100
AcDbXrecord
280
     1
102
RTVSPropertyOp0
 70
     1
102
RTVSPropertyOp1
 70
     1
102
RTVSPropertyOp2
 70
     1
102
RTVSPropertyOp3
 70
     1
102
RTVSPropertyOp4
 70
     1
102
RTVSPropertyOp5
 70
     1
102
RTVSPropertyOp6
 70
     1
102
RTVSPropertyOp7
 70
     1
102
RTVSPropertyOp8
 70
     1
102
RTVSPropertyOp9
 70
     1
102
RTVSPropertyOp10
 70
     1
102
RTVSPropertyOp11
 70
     1
102
RTVSPropertyOp12
 70
     1
102
RTVSPropertyOp13
 70
     1
102
RTVSPropertyOp14
 70
     1
102
RTVSPropertyOp15
 70
     1
102
RTVSPropertyOp16
 70
     1
102
RTVSPropertyOp17
 70
     1
102
RTVSPropertyOp18
 70
     1
102
RTVSPropertyOp19
 70
     1
102
RTVSPropertyOp20
 70
     1
102
RTVSPropertyOp21
 70
     1
102
RTVSPropertyOp22
 70
     1
102
RTVSPropertyOp23
 70
     1
102
RTVSPropertyOp24
 70
     1
102
RTVSPropertyOp25
 70
     1
102
RTVSPropertyOp26
 70
     1
102
RTVSPropertyOp27
 70
     1
  0
XRECORD
  5
A4E
102
{ACAD_REACTORS
330
A4D
102
}
330
A4D
100
AcDbXrecord
280
     1
102
RTVSPropertyOp0
 70
     1
102
RTVSPropertyOp1
 70
     1
102
RTVSPropertyOp2
 70
     1
102
RTVSPropertyOp3
 70
     1
102
RTVSPropertyOp4
 70
     1
102
RTVSPropertyOp5
 70
     1
102
RTVSPropertyOp6
 70
     1
102
RTVSPropertyOp7
 70
     1
102
RTVSPropertyOp8
 70
     1
102
RTVSPropertyOp9
 70
     1
102
RTVSPropertyOp10
 70
     1
102
RTVSPropertyOp11
 70
     1
102
RTVSPropertyOp12
 70
     1
102
RTVSPropertyOp13
 70
     1
102
RTVSPropertyOp14
 70
     1
102
RTVSPropertyOp15
 70
     1
102
RTVSPropertyOp16
 70
     1
102
RTVSPropertyOp17
 70
     1
102
RTVSPropertyOp18
 70
     1
102
RTVSPropertyOp19
 70
     1
102
RTVSPropertyOp20
 70
     1
102
RTVSPropertyOp21
 70
     1
102
RTVSPropertyOp22
 70
     1
102
RTVSPropertyOp23
 70
     1
102
RTVSPropertyOp24
 70
     1
102
RTVSPropertyOp25
 70
     1
102
RTVSPropertyOp26
 70
     1
102
RTVSPropertyOp27
 70
     1
  0
XRECORD
  5
4AB
102
{ACAD_REACTORS
330
4AA
102
}
330
4AA
100
AcDbXrecord
280
     1
102
RTVSPropertyOp0
 70
     1
102
RTVSPropertyOp1
 70
     1
102
RTVSPropertyOp2
 70
     1
102
RTVSPropertyOp3
 70
     1
102
RTVSPropertyOp4
 70
     1
102
RTVSPropertyOp5
 70
     1
102
RTVSPropertyOp6
 70
     1
102
RTVSPropertyOp7
 70
     1
102
RTVSPropertyOp8
 70
     1
102
RTVSPropertyOp9
 70
     1
102
RTVSPropertyOp10
 70
     1
102
RTVSPropertyOp11
 70
     1
102
RTVSPropertyOp12
 70
     1
102
RTVSPropertyOp13
 70
     1
102
RTVSPropertyOp14
 70
     1
102
RTVSPropertyOp15
 70
     1
102
RTVSPropertyOp16
 70
     1
102
RTVSPropertyOp17
 70
     1
102
RTVSPropertyOp18
 70
     1
102
RTVSPropertyOp19
 70
     1
102
RTVSPropertyOp20
 70
     1
102
RTVSPropertyOp21
 70
     1
102
RTVSPropertyOp22
 70
     1
102
RTVSPropertyOp23
 70
     1
102
RTVSPropertyOp24
 70
     1
102
RTVSPropertyOp25
 70
     1
102
RTVSPropertyOp26
 70
     1
102
RTVSPropertyOp27
 70
     1
  0
ENDSEC
  0
EOF
